ISO-10303-21;
HEADER;
FILE_DESCRIPTION (( 'STEP AP214' ),
    '1' );
FILE_NAME ('06420.STEP',
    '2023-07-05T16:02:43',
    ( '' ),
    ( '' ),
    'SwSTEP 2.0',
    'SolidWorks 2023',
    '' );
FILE_SCHEMA (( 'AUTOMOTIVE_DESIGN' ));
ENDSEC;

DATA;
#1 = FACE_OUTER_BOUND ( 'NONE', #89, .T. ) ;
#2 = AXIS2_PLACEMENT_3D ( 'NONE', #70, #130, #217 ) ;
#3 =( CONVERSION_BASED_UNIT ( 'INCH', #38 ) LENGTH_UNIT ( ) NAMED_UNIT ( #88 ) );
#4 =( NAMED_UNIT ( * ) PLANE_ANGLE_UNIT ( ) SI_UNIT ( $, .RADIAN. ) );
#5 = MECHANICAL_DESIGN_GEOMETRIC_PRESENTATION_REPRESENTATION (  '', ( #105 ), #19 ) ;
#6 = DIRECTION ( 'NONE',  ( 0.000000000000000000, 0.000000000000000000, -1.000000000000000000 ) ) ;
#7 = CARTESIAN_POINT ( 'NONE',  ( 2.390366994456230070E-16, 0.05412658773652712085, 0.000000000000000000 ) ) ;
#8 = CARTESIAN_POINT ( 'NONE',  ( 1.224646799147353700E-16, 2.000000000000000000, 0.000000000000000000 ) ) ;
#9 = COLOUR_RGB ( '',1.000000000000000000, 0.000000000000000000, 0.000000000000000000 ) ;
#10 = CARTESIAN_POINT ( 'NONE',  ( -0.09374999999999975020, 2.000000000000000000, 0.000000000000000000 ) ) ;
#11 = CARTESIAN_POINT ( 'NONE',  ( 0.09374999999999998612, 2.000000000000000000, 1.148106374200641860E-17 ) ) ;
#12 = VERTEX_POINT ( 'NONE', #139 ) ;
#13 = ORIENTED_EDGE ( 'NONE', *, *, #249, .F. ) ;
#14 = STYLED_ITEM ( 'NONE', ( #18 ), #26 ) ;
#15 = ADVANCED_FACE ( 'NONE', ( #110 ), #141, .T. ) ;
#16 = ORIENTED_EDGE ( 'NONE', *, *, #174, .T. ) ;
#17 = VERTEX_POINT ( 'NONE', #57 ) ;
#18 = PRESENTATION_STYLE_ASSIGNMENT (( #184 ) ) ;
#19 =( GEOMETRIC_REPRESENTATION_CONTEXT ( 3 ) GLOBAL_UNCERTAINTY_ASSIGNED_CONTEXT ( ( #140 ) ) GLOBAL_UNIT_ASSIGNED_CONTEXT ( ( #144, #99, #37 ) ) REPRESENTATION_CONTEXT ( 'NONE', 'WORKASPACE' ) );
#20 = FILL_AREA_STYLE ('',( #77 ) ) ;
#21 =( LENGTH_UNIT ( ) NAMED_UNIT ( * ) SI_UNIT ( $, .METRE. ) );
#22 = DIRECTION ( 'NONE',  ( 0.000000000000000000, 0.000000000000000000, -1.000000000000000000 ) ) ;
#23 = VECTOR ( 'NONE', #257, 39.37007874015748854 ) ;
#24 =( NAMED_UNIT ( * ) PLANE_ANGLE_UNIT ( ) SI_UNIT ( $, .RADIAN. ) );
#25 = PRESENTATION_LAYER_ASSIGNMENT (  '', '', ( #14 ) ) ;
#26 = ADVANCED_FACE ( 'NONE', ( #250 ), #95, .T. ) ;
#27 = DIRECTION ( 'NONE',  ( -5.990729859209552644E-17, 1.000000000000000000, -0.000000000000000000 ) ) ;
#28 = FILL_AREA_STYLE ('',( #216 ) ) ;
#29 = LINE ( 'NONE', #151, #167 ) ;
#30 = CLOSED_SHELL ( 'NONE', ( #265, #15, #26 ) ) ;
#31 = AXIS2_PLACEMENT_3D ( 'NONE', #109, #85, #160 ) ;
#32 = DIRECTION ( 'NONE',  ( -5.990729859209552644E-17, 1.000000000000000000, -0.000000000000000000 ) ) ;
#33 = ORIENTED_EDGE ( 'NONE', *, *, #74, .F. ) ;
#34 = FACE_OUTER_BOUND ( 'NONE', #72, .T. ) ;
#35 = EDGE_LOOP ( 'NONE', ( #52, #16, #94, #102 ) ) ;
#36 = PRESENTATION_STYLE_ASSIGNMENT (( #96 ) ) ;
#37 =( NAMED_UNIT ( * ) SI_UNIT ( $, .STERADIAN. ) SOLID_ANGLE_UNIT ( ) );
#38 = LENGTH_MEASURE_WITH_UNIT ( LENGTH_MEASURE( 0.02539999999999999897 ), #21 );
#39 = CIRCLE ( 'NONE', #118, 0.09374999999999987510 ) ;
#40 = SURFACE_SIDE_STYLE ('',( #145 ) ) ;
#41 = MANIFOLD_SOLID_BREP ( 'Revolve - Tool Body (Pointed)', #83 ) ;
#42 = EDGE_CURVE ( 'NONE', #242, #159, #29, .T. ) ;
#43 = FACE_OUTER_BOUND ( 'NONE', #260, .T. ) ;
#44 = AXIS2_PLACEMENT_3D ( 'NONE', #152, #175, #6 ) ;
#45 = CARTESIAN_POINT ( 'NONE',  ( 1.224646799147353700E-16, 2.000000000000000000, 0.000000000000000000 ) ) ;
#46 = CARTESIAN_POINT ( 'NONE',  ( 1.224646799147353700E-16, 2.000000000000000000, 0.000000000000000000 ) ) ;
#47 =( LENGTH_UNIT ( ) NAMED_UNIT ( * ) SI_UNIT ( $, .METRE. ) );
#48 = DIRECTION ( 'NONE',  ( -5.990729859209552644E-17, 1.000000000000000000, -0.000000000000000000 ) ) ;
#49 = CIRCLE ( 'NONE', #44, 0.09375000000000001388 ) ;
#50 = CARTESIAN_POINT ( 'NONE',  ( -0.09374999999999951428, 0.05412658773652723188, 0.000000000000000000 ) ) ;
#51 = ORIENTED_EDGE ( 'NONE', *, *, #210, .F. ) ;
#52 = ORIENTED_EDGE ( 'NONE', *, *, #42, .F. ) ;
#53 = ORIENTED_EDGE ( 'NONE', *, *, #164, .T. ) ;
#54 = UNCERTAINTY_MEASURE_WITH_UNIT (LENGTH_MEASURE( 1.000000000000000082E-05 ), #262, 'distance_accuracy_value', 'NONE');
#55 = APPLICATION_CONTEXT ( 'automotive_design' ) ;
#56 =( GEOMETRIC_REPRESENTATION_CONTEXT ( 3 ) GLOBAL_UNCERTAINTY_ASSIGNED_CONTEXT ( ( #93 ) ) GLOBAL_UNIT_ASSIGNED_CONTEXT ( ( #189, #126, #191 ) ) REPRESENTATION_CONTEXT ( 'NONE', 'WORKASPACE' ) );
#57 = CARTESIAN_POINT ( 'NONE',  ( 1.148106374200643863E-17, 0.05412658773652713473, -0.09375000000000001388 ) ) ;
#58 = CIRCLE ( 'NONE', #153, 0.09374999999999975020 ) ;
#59 = PRODUCT_DEFINITION_FORMATION_WITH_SPECIFIED_SOURCE ( 'ANY', '', #185, .NOT_KNOWN. ) ;
#60 =( CONVERSION_BASED_UNIT ( 'INCH', #150 ) LENGTH_UNIT ( ) NAMED_UNIT ( #225 ) );
#61 =( LENGTH_UNIT ( ) NAMED_UNIT ( * ) SI_UNIT ( $, .METRE. ) );
#62 =( LENGTH_UNIT ( ) NAMED_UNIT ( * ) SI_UNIT ( $, .METRE. ) );
#63 = EDGE_CURVE ( 'NONE', #159, #71, #39, .T. ) ;
#64 = APPLICATION_PROTOCOL_DEFINITION ( 'draft international standard', 'automotive_design', 1998, #108 ) ;
#65 =( LENGTH_UNIT ( ) NAMED_UNIT ( * ) SI_UNIT ( $, .METRE. ) );
#66 = CYLINDRICAL_SURFACE ( 'NONE', #192, 0.09374999999999981959 ) ;
#67 = CIRCLE ( 'NONE', #161, 0.09375000000000001388 ) ;
#68 = ADVANCED_FACE ( 'NONE', ( #43 ), #112, .F. ) ;
#69 = FACE_OUTER_BOUND ( 'NONE', #35, .T. ) ;
#70 = CARTESIAN_POINT ( 'NONE',  ( 2.390366994456230070E-16, 0.05412658773652723881, 0.000000000000000000 ) ) ;
#71 = VERTEX_POINT ( 'NONE', #10 ) ;
#72 = EDGE_LOOP ( 'NONE', ( #165, #117, #204, #92 ) ) ;
#73 = ADVANCED_FACE ( 'NONE', ( #170 ), #173, .F. ) ;
#74 = EDGE_CURVE ( 'NONE', #17, #12, #49, .T. ) ;
#75 = VECTOR ( 'NONE', #195, 39.37007874015748854 ) ;
#76 = DIRECTION ( 'NONE',  ( 0.000000000000000000, -0.000000000000000000, 1.000000000000000000 ) ) ;
#77 = FILL_AREA_STYLE_COLOUR ( '', #9 ) ;
#78 =( LENGTH_UNIT ( ) NAMED_UNIT ( * ) SI_UNIT ( $, .METRE. ) );
#79 = COLOUR_RGB ( '',0.7921568627450980005, 0.8196078431372548767, 0.9333333333333333481 ) ;
#80 = ORIENTED_EDGE ( 'NONE', *, *, #206, .F. ) ;
#81 = ADVANCED_FACE ( 'NONE', ( #69 ), #66, .T. ) ;
#82 = PRESENTATION_LAYER_ASSIGNMENT (  '', '', ( #182 ) ) ;
#83 = CLOSED_SHELL ( 'NONE', ( #183, #73, #81, #68 ) ) ;
#84 = DIRECTION ( 'NONE',  ( -5.990729859209552644E-17, 1.000000000000000000, -0.000000000000000000 ) ) ;
#85 = DIRECTION ( 'NONE',  ( 5.990729859209552644E-17, -1.000000000000000000, 0.000000000000000000 ) ) ;
#86 =( GEOMETRIC_REPRESENTATION_CONTEXT ( 3 ) GLOBAL_UNCERTAINTY_ASSIGNED_CONTEXT ( ( #137 ) ) GLOBAL_UNIT_ASSIGNED_CONTEXT ( ( #122, #4, #263 ) ) REPRESENTATION_CONTEXT ( 'NONE', 'WORKASPACE' ) );
#87 = DIRECTION ( 'NONE',  ( -1.000000000000000000, 0.000000000000000000, 0.000000000000000000 ) ) ;
#88 = DIMENSIONAL_EXPONENTS ( 1.000000000000000000, 0.000000000000000000, 0.000000000000000000, 0.000000000000000000, 0.000000000000000000, 0.000000000000000000, 0.000000000000000000 ) ;
#89 = EDGE_LOOP ( 'NONE', ( #80, #162, #200 ) ) ;
#90 = DIRECTION ( 'NONE',  ( 1.000000000000000000, 0.000000000000000000, 0.000000000000000000 ) ) ;
#91 = CARTESIAN_POINT ( 'NONE',  ( 0.000000000000000000, 0.000000000000000000, 0.000000000000000000 ) ) ;
#92 = ORIENTED_EDGE ( 'NONE', *, *, #158, .F. ) ;
#93 = UNCERTAINTY_MEASURE_WITH_UNIT (LENGTH_MEASURE( 1.000000000000000082E-05 ), #189, 'distance_accuracy_value', 'NONE');
#94 = ORIENTED_EDGE ( 'NONE', *, *, #158, .T. ) ;
#95 = CONICAL_SURFACE ( 'NONE', #252, 68.19097667594041923, 1.047197551196600074 ) ;
#96 = SURFACE_STYLE_USAGE ( .BOTH. , #247 ) ;
#97 = ADVANCED_BREP_SHAPE_REPRESENTATION ( '06420', ( #224, #41, #119 ), #56 ) ;
#98 = AXIS2_PLACEMENT_3D ( 'NONE', #7, #256, #214 ) ;
#99 =( NAMED_UNIT ( * ) PLANE_ANGLE_UNIT ( ) SI_UNIT ( $, .RADIAN. ) );
#100 = CARTESIAN_POINT ( 'NONE',  ( 0.09374999999999998612, 0.05412658773652724575, 1.148106374200641860E-17 ) ) ;
#101 = STYLED_ITEM ( 'NONE', ( #166 ), #265 ) ;
#102 = ORIENTED_EDGE ( 'NONE', *, *, #63, .F. ) ;
#103 = LENGTH_MEASURE_WITH_UNIT ( LENGTH_MEASURE( 0.02539999999999999897 ), #61 );
#104 = LENGTH_MEASURE_WITH_UNIT ( LENGTH_MEASURE( 0.02539999999999999897 ), #47 );
#105 = STYLED_ITEM ( 'NONE', ( #36 ), #15 ) ;
#106 = CARTESIAN_POINT ( 'NONE',  ( 2.390366994456230070E-16, 0.05412658773652723881, 0.000000000000000000 ) ) ;
#107 = PRODUCT_DEFINITION ( 'UNKNOWN', '', #59, #116 ) ;
#108 = APPLICATION_CONTEXT ( 'automotive_design' ) ;
#109 = CARTESIAN_POINT ( 'NONE',  ( 0.09374999999999998612, 2.000000000000000000, 0.000000000000000000 ) ) ;
#110 = FACE_OUTER_BOUND ( 'NONE', #156, .T. ) ;
#111 = MECHANICAL_DESIGN_GEOMETRIC_PRESENTATION_REPRESENTATION (  '', ( #14 ), #86 ) ;
#112 = PLANE ( 'NONE',  #31 ) ;
#113 = DIRECTION ( 'NONE',  ( -1.000000000000000000, 0.000000000000000000, 0.000000000000000000 ) ) ;
#114 = DIMENSIONAL_EXPONENTS ( 1.000000000000000000, 0.000000000000000000, 0.000000000000000000, 0.000000000000000000, 0.000000000000000000, 0.000000000000000000, 0.000000000000000000 ) ;
#115 = VERTEX_POINT ( 'NONE', #50 ) ;
#116 = PRODUCT_DEFINITION_CONTEXT ( 'detailed design', #108, 'design' ) ;
#117 = ORIENTED_EDGE ( 'NONE', *, *, #42, .T. ) ;
#118 = AXIS2_PLACEMENT_3D ( 'NONE', #230, #84, #87 ) ;
#119 = AXIS2_PLACEMENT_3D ( 'NONE', #171, #154, #90 ) ;
#120 = LENGTH_MEASURE_WITH_UNIT ( LENGTH_MEASURE( 0.02539999999999999897 ), #65 );
#121 = CARTESIAN_POINT ( 'NONE',  ( 0.000000000000000000, 0.05412658773652712779, 0.000000000000000000 ) ) ;
#122 =( CONVERSION_BASED_UNIT ( 'INCH', #264 ) LENGTH_UNIT ( ) NAMED_UNIT ( #114 ) );
#123 =( GEOMETRIC_REPRESENTATION_CONTEXT ( 3 ) GLOBAL_UNCERTAINTY_ASSIGNED_CONTEXT ( ( #163 ) ) GLOBAL_UNIT_ASSIGNED_CONTEXT ( ( #60, #24, #238 ) ) REPRESENTATION_CONTEXT ( 'NONE', 'WORKASPACE' ) );
#124 =( NAMED_UNIT ( * ) SI_UNIT ( $, .STERADIAN. ) SOLID_ANGLE_UNIT ( ) );
#125 = PRESENTATION_STYLE_ASSIGNMENT (( #190 ) ) ;
#126 =( NAMED_UNIT ( * ) PLANE_ANGLE_UNIT ( ) SI_UNIT ( $, .RADIAN. ) );
#127 =( NAMED_UNIT ( * ) PLANE_ANGLE_UNIT ( ) SI_UNIT ( $, .RADIAN. ) );
#128 = CARTESIAN_POINT ( 'NONE',  ( 0.000000000000000000, 39.37007874015748143, 0.000000000000000000 ) ) ;
#129 = EDGE_CURVE ( 'NONE', #228, #17, #198, .T. ) ;
#130 = DIRECTION ( 'NONE',  ( -5.990729859209552644E-17, 1.000000000000000000, -0.000000000000000000 ) ) ;
#131 = COLOUR_RGB ( '',1.000000000000000000, 0.000000000000000000, 0.000000000000000000 ) ;
#132 = LINE ( 'NONE', #91, #23 ) ;
#133 = DIRECTION ( 'NONE',  ( -1.000000000000000000, 0.000000000000000000, 0.000000000000000000 ) ) ;
#134 = EDGE_LOOP ( 'NONE', ( #177, #180, #248 ) ) ;
#135 = DIRECTION ( 'NONE',  ( -5.990729859209552644E-17, 1.000000000000000000, -0.000000000000000000 ) ) ;
#136 = MECHANICAL_DESIGN_GEOMETRIC_PRESENTATION_REPRESENTATION (  '', ( #101 ), #205 ) ;
#137 = UNCERTAINTY_MEASURE_WITH_UNIT (LENGTH_MEASURE( 1.000000000000000082E-05 ), #122, 'distance_accuracy_value', 'NONE');
#138 = DIRECTION ( 'NONE',  ( -5.990729859209552644E-17, 1.000000000000000000, -0.000000000000000000 ) ) ;
#139 = CARTESIAN_POINT ( 'NONE',  ( 0.000000000000000000, 0.05412658773652713473, 0.09375000000000001388 ) ) ;
#140 = UNCERTAINTY_MEASURE_WITH_UNIT (LENGTH_MEASURE( 1.000000000000000082E-05 ), #144, 'distance_accuracy_value', 'NONE');
#141 = PLANE ( 'NONE',  #208 ) ;
#142 = CIRCLE ( 'NONE', #236, 0.09374999999999987510 ) ;
#143 = AXIS2_PLACEMENT_3D ( 'NONE', #128, #233, #237 ) ;
#144 =( CONVERSION_BASED_UNIT ( 'INCH', #104 ) LENGTH_UNIT ( ) NAMED_UNIT ( #199 ) );
#145 = SURFACE_STYLE_FILL_AREA ( #20 ) ;
#146 = CIRCLE ( 'NONE', #2, 0.09374999999999975020 ) ;
#147 = SURFACE_SIDE_STYLE ('',( #168 ) ) ;
#148 = FILL_AREA_STYLE ('',( #235 ) ) ;
#149 = MECHANICAL_DESIGN_GEOMETRIC_PRESENTATION_REPRESENTATION (  '', ( #169 ), #123 ) ;
#150 = LENGTH_MEASURE_WITH_UNIT ( LENGTH_MEASURE( 0.02539999999999999897 ), #78 );
#151 = CARTESIAN_POINT ( 'NONE',  ( 0.09374999999999994449, 2.000000000000000000, 1.148106374200641398E-17 ) ) ;
#152 = CARTESIAN_POINT ( 'NONE',  ( 0.000000000000000000, 0.05412658773652713473, 0.000000000000000000 ) ) ;
#153 = AXIS2_PLACEMENT_3D ( 'NONE', #106, #135, #243 ) ;
#154 = DIRECTION ( 'NONE',  ( 0.000000000000000000, 0.000000000000000000, 1.000000000000000000 ) ) ;
#155 = LINE ( 'NONE', #239, #232 ) ;
#156 = EDGE_LOOP ( 'NONE', ( #13, #33 ) ) ;
#157 = SURFACE_SIDE_STYLE ('',( #254 ) ) ;
#158 = EDGE_CURVE ( 'NONE', #115, #71, #155, .T. ) ;
#159 = VERTEX_POINT ( 'NONE', #11 ) ;
#160 = DIRECTION ( 'NONE',  ( 1.000000000000000000, 5.990729859209552644E-17, 0.000000000000000000 ) ) ;
#161 = AXIS2_PLACEMENT_3D ( 'NONE', #196, #187, #22 ) ;
#162 = ORIENTED_EDGE ( 'NONE', *, *, #129, .T. ) ;
#163 = UNCERTAINTY_MEASURE_WITH_UNIT (LENGTH_MEASURE( 1.000000000000000082E-05 ), #60, 'distance_accuracy_value', 'NONE');
#164 = EDGE_CURVE ( 'NONE', #71, #159, #142, .T. ) ;
#165 = ORIENTED_EDGE ( 'NONE', *, *, #210, .T. ) ;
#166 = PRESENTATION_STYLE_ASSIGNMENT (( #234 ) ) ;
#167 = VECTOR ( 'NONE', #32, 39.37007874015748143 ) ;
#168 = SURFACE_STYLE_FILL_AREA ( #148 ) ;
#169 = STYLED_ITEM ( 'NONE', ( #125 ), #41 ) ;
#170 = FACE_OUTER_BOUND ( 'NONE', #201, .T. ) ;
#171 = CARTESIAN_POINT ( 'NONE',  ( 0.000000000000000000, 0.000000000000000000, 0.000000000000000000 ) ) ;
#172 = DIRECTION ( 'NONE',  ( -1.000000000000000000, 0.000000000000000000, 0.000000000000000000 ) ) ;
#173 = PLANE ( 'NONE',  #98 ) ;
#174 = EDGE_CURVE ( 'NONE', #242, #115, #58, .T. ) ;
#175 = DIRECTION ( 'NONE',  ( -0.000000000000000000, -1.000000000000000000, -0.000000000000000000 ) ) ;
#176 = PRESENTATION_STYLE_ASSIGNMENT (( #241 ) ) ;
#177 = ORIENTED_EDGE ( 'NONE', *, *, #129, .F. ) ;
#178 = PRESENTATION_LAYER_ASSIGNMENT (  '', '', ( #105 ) ) ;
#179 = SURFACE_STYLE_FILL_AREA ( #223 ) ;
#180 = ORIENTED_EDGE ( 'NONE', *, *, #206, .T. ) ;
#181 = DIRECTION ( 'NONE',  ( 0.000000000000000000, 0.000000000000000000, 1.000000000000000000 ) ) ;
#182 = STYLED_ITEM ( 'NONE', ( #176 ), #224 ) ;
#183 = ADVANCED_FACE ( 'NONE', ( #34 ), #194, .T. ) ;
#184 = SURFACE_STYLE_USAGE ( .BOTH. , #40 ) ;
#185 = PRODUCT ( '06420', '06420', '', ( #197 ) ) ;
#186 =( NAMED_UNIT ( * ) PLANE_ANGLE_UNIT ( ) SI_UNIT ( $, .RADIAN. ) );
#187 = DIRECTION ( 'NONE',  ( -0.000000000000000000, -1.000000000000000000, -0.000000000000000000 ) ) ;
#188 =( NAMED_UNIT ( * ) SI_UNIT ( $, .STERADIAN. ) SOLID_ANGLE_UNIT ( ) );
#189 =( CONVERSION_BASED_UNIT ( 'INCH', #103 ) LENGTH_UNIT ( ) NAMED_UNIT ( #258 ) );
#190 = SURFACE_STYLE_USAGE ( .BOTH. , #229 ) ;
#191 =( NAMED_UNIT ( * ) SI_UNIT ( $, .STERADIAN. ) SOLID_ANGLE_UNIT ( ) );
#192 = AXIS2_PLACEMENT_3D ( 'NONE', #8, #27, #172 ) ;
#193 = SURFACE_STYLE_FILL_AREA ( #207 ) ;
#194 = CYLINDRICAL_SURFACE ( 'NONE', #203, 0.09374999999999981959 ) ;
#195 = DIRECTION ( 'NONE',  ( 1.060575238724908024E-16, 0.4999999999999979461, -0.8660254037844397068 ) ) ;
#196 = CARTESIAN_POINT ( 'NONE',  ( 0.000000000000000000, 0.05412658773652713473, 0.000000000000000000 ) ) ;
#197 = PRODUCT_CONTEXT ( 'NONE', #55, 'mechanical' ) ;
#198 = LINE ( 'NONE', #222, #75 ) ;
#199 = DIMENSIONAL_EXPONENTS ( 1.000000000000000000, 0.000000000000000000, 0.000000000000000000, 0.000000000000000000, 0.000000000000000000, 0.000000000000000000, 0.000000000000000000 ) ;
#200 = ORIENTED_EDGE ( 'NONE', *, *, #74, .T. ) ;
#201 = EDGE_LOOP ( 'NONE', ( #51, #226 ) ) ;
#202 = PRODUCT_DEFINITION_SHAPE ( 'NONE', 'NONE',  #107 ) ;
#203 = AXIS2_PLACEMENT_3D ( 'NONE', #45, #219, #113 ) ;
#204 = ORIENTED_EDGE ( 'NONE', *, *, #164, .F. ) ;
#205 =( GEOMETRIC_REPRESENTATION_CONTEXT ( 3 ) GLOBAL_UNCERTAINTY_ASSIGNED_CONTEXT ( ( #261 ) ) GLOBAL_UNIT_ASSIGNED_CONTEXT ( ( #3, #127, #188 ) ) REPRESENTATION_CONTEXT ( 'NONE', 'WORKASPACE' ) );
#206 = EDGE_CURVE ( 'NONE', #228, #12, #132, .T. ) ;
#207 = FILL_AREA_STYLE ('',( #211 ) ) ;
#208 = AXIS2_PLACEMENT_3D ( 'NONE', #121, #251, #76 ) ;
#209 = CARTESIAN_POINT ( 'NONE',  ( 0.000000000000000000, 39.37007874015748143, 0.000000000000000000 ) ) ;
#210 = EDGE_CURVE ( 'NONE', #115, #242, #146, .T. ) ;
#211 = FILL_AREA_STYLE_COLOUR ( '', #259 ) ;
#212 = PRODUCT_RELATED_PRODUCT_CATEGORY ( 'part', '', ( #185 ) ) ;
#213 = PRESENTATION_LAYER_ASSIGNMENT (  '', '', ( #169 ) ) ;
#214 = DIRECTION ( 'NONE',  ( -1.000000000000000000, -5.990729859209552644E-17, 0.000000000000000000 ) ) ;
#215 = SHAPE_DEFINITION_REPRESENTATION ( #202, #97 ) ;
#216 = FILL_AREA_STYLE_COLOUR ( '', #79 ) ;
#217 = DIRECTION ( 'NONE',  ( -1.000000000000000000, -9.106159978880902047E-17, 0.000000000000000000 ) ) ;
#218 = APPLICATION_PROTOCOL_DEFINITION ( 'draft international standard', 'automotive_design', 1998, #55 ) ;
#219 = DIRECTION ( 'NONE',  ( -5.990729859209552644E-17, 1.000000000000000000, -0.000000000000000000 ) ) ;
#220 = MECHANICAL_DESIGN_GEOMETRIC_PRESENTATION_REPRESENTATION (  '', ( #182 ), #244 ) ;
#221 = DIMENSIONAL_EXPONENTS ( 1.000000000000000000, 0.000000000000000000, 0.000000000000000000, 0.000000000000000000, 0.000000000000000000, 0.000000000000000000, 0.000000000000000000 ) ;
#222 = CARTESIAN_POINT ( 'NONE',  ( 0.000000000000000000, 0.000000000000000000, 0.000000000000000000 ) ) ;
#223 = FILL_AREA_STYLE ('',( #246 ) ) ;
#224 = MANIFOLD_SOLID_BREP ( 'Revolve - Cutting Edge', #30 ) ;
#225 = DIMENSIONAL_EXPONENTS ( 1.000000000000000000, 0.000000000000000000, 0.000000000000000000, 0.000000000000000000, 0.000000000000000000, 0.000000000000000000, 0.000000000000000000 ) ;
#226 = ORIENTED_EDGE ( 'NONE', *, *, #174, .F. ) ;
#227 = COLOUR_RGB ( '',1.000000000000000000, 0.000000000000000000, 0.000000000000000000 ) ;
#228 = VERTEX_POINT ( 'NONE', #253 ) ;
#229 = SURFACE_SIDE_STYLE ('',( #193 ) ) ;
#230 = CARTESIAN_POINT ( 'NONE',  ( 1.224646799147353700E-16, 2.000000000000000000, 0.000000000000000000 ) ) ;
#231 = DIRECTION ( 'NONE',  ( 0.000000000000000000, 1.000000000000000000, 0.000000000000000000 ) ) ;
#232 = VECTOR ( 'NONE', #48, 39.37007874015748143 ) ;
#233 = DIRECTION ( 'NONE',  ( 0.000000000000000000, 1.000000000000000000, 0.000000000000000000 ) ) ;
#234 = SURFACE_STYLE_USAGE ( .BOTH. , #147 ) ;
#235 = FILL_AREA_STYLE_COLOUR ( '', #227 ) ;
#236 = AXIS2_PLACEMENT_3D ( 'NONE', #46, #138, #133 ) ;
#237 = DIRECTION ( 'NONE',  ( 0.000000000000000000, 0.000000000000000000, 1.000000000000000000 ) ) ;
#238 =( NAMED_UNIT ( * ) SI_UNIT ( $, .STERADIAN. ) SOLID_ANGLE_UNIT ( ) );
#239 = CARTESIAN_POINT ( 'NONE',  ( -0.09374999999999969469, 2.000000000000000000, 0.000000000000000000 ) ) ;
#240 = ORIENTED_EDGE ( 'NONE', *, *, #63, .T. ) ;
#241 = SURFACE_STYLE_USAGE ( .BOTH. , #157 ) ;
#242 = VERTEX_POINT ( 'NONE', #100 ) ;
#243 = DIRECTION ( 'NONE',  ( -1.000000000000000000, -9.106159978880902047E-17, 0.000000000000000000 ) ) ;
#244 =( GEOMETRIC_REPRESENTATION_CONTEXT ( 3 ) GLOBAL_UNCERTAINTY_ASSIGNED_CONTEXT ( ( #54 ) ) GLOBAL_UNIT_ASSIGNED_CONTEXT ( ( #262, #186, #124 ) ) REPRESENTATION_CONTEXT ( 'NONE', 'WORKASPACE' ) );
#245 = CONICAL_SURFACE ( 'NONE', #143, 68.19097667594041923, 1.047197551196600074 ) ;
#246 = FILL_AREA_STYLE_COLOUR ( '', #131 ) ;
#247 = SURFACE_SIDE_STYLE ('',( #179 ) ) ;
#248 = ORIENTED_EDGE ( 'NONE', *, *, #249, .T. ) ;
#249 = EDGE_CURVE ( 'NONE', #12, #17, #67, .T. ) ;
#250 = FACE_OUTER_BOUND ( 'NONE', #134, .T. ) ;
#251 = DIRECTION ( 'NONE',  ( 0.000000000000000000, 1.000000000000000000, 0.000000000000000000 ) ) ;
#252 = AXIS2_PLACEMENT_3D ( 'NONE', #209, #231, #181 ) ;
#253 = CARTESIAN_POINT ( 'NONE',  ( 0.000000000000000000, 0.000000000000000000, 0.000000000000000000 ) ) ;
#254 = SURFACE_STYLE_FILL_AREA ( #28 ) ;
#255 = PRESENTATION_LAYER_ASSIGNMENT (  '', '', ( #101 ) ) ;
#256 = DIRECTION ( 'NONE',  ( -5.990729859209552644E-17, 1.000000000000000000, 0.000000000000000000 ) ) ;
#257 = DIRECTION ( 'NONE',  ( 0.000000000000000000, 0.4999999999999979461, 0.8660254037844397068 ) ) ;
#258 = DIMENSIONAL_EXPONENTS ( 1.000000000000000000, 0.000000000000000000, 0.000000000000000000, 0.000000000000000000, 0.000000000000000000, 0.000000000000000000, 0.000000000000000000 ) ;
#259 = COLOUR_RGB ( '',0.7921568627450980005, 0.8196078431372548767, 0.9333333333333333481 ) ;
#260 = EDGE_LOOP ( 'NONE', ( #53, #240 ) ) ;
#261 = UNCERTAINTY_MEASURE_WITH_UNIT (LENGTH_MEASURE( 1.000000000000000082E-05 ), #3, 'distance_accuracy_value', 'NONE');
#262 =( CONVERSION_BASED_UNIT ( 'INCH', #120 ) LENGTH_UNIT ( ) NAMED_UNIT ( #221 ) );
#263 =( NAMED_UNIT ( * ) SI_UNIT ( $, .STERADIAN. ) SOLID_ANGLE_UNIT ( ) );
#264 = LENGTH_MEASURE_WITH_UNIT ( LENGTH_MEASURE( 0.02539999999999999897 ), #62 );
#265 = ADVANCED_FACE ( 'NONE', ( #1 ), #245, .T. ) ;
ENDSEC;
END-ISO-10303-21;
