ISO-10303-21;
HEADER;
FILE_DESCRIPTION (( 'STEP AP214' ),
    '1' );
FILE_NAME ('Micro_AEMM-020-2X.STEP',
    '2022-03-15T14:23:07',
    ( '' ),
    ( '' ),
    'SwSTEP 2.0',
    'SolidWorks 2022',
    '' );
FILE_SCHEMA (( 'AUTOMOTIVE_DESIGN' ));
ENDSEC;

DATA;
#1 = EDGE_CURVE ( 'NONE', #94, #125, #182, .T. ) ;
#2 = ORIENTED_EDGE ( 'NONE', *, *, #32, .F. ) ;
#3 = VERTEX_POINT ( 'NONE', #80 ) ;
#4 = ORIENTED_EDGE ( 'NONE', *, *, #258, .T. ) ;
#5 = STYLED_ITEM ( 'NONE', ( #242 ), #145 ) ;
#6 = ORIENTED_EDGE ( 'NONE', *, *, #149, .F. ) ;
#7 = LINE ( 'NONE', #195, #58 ) ;
#8 = APPLICATION_PROTOCOL_DEFINITION ( 'draft international standard', 'automotive_design', 1998, #172 ) ;
#9 = FILL_AREA_STYLE_COLOUR ( '', #30 ) ;
#10 =( GEOMETRIC_REPRESENTATION_CONTEXT ( 3 ) GLOBAL_UNCERTAINTY_ASSIGNED_CONTEXT ( ( #165 ) ) GLOBAL_UNIT_ASSIGNED_CONTEXT ( ( #244, #185, #78 ) ) REPRESENTATION_CONTEXT ( 'NONE', 'WORKASPACE' ) );
#11 = CARTESIAN_POINT ( 'NONE',  ( -0.07874000000000000443, 0.000000000000000000, 1.968503999999999809 ) ) ;
#12 = APPLICATION_PROTOCOL_DEFINITION ( 'draft international standard', 'automotive_design', 1998, #28 ) ;
#13 = DIRECTION ( 'NONE',  ( 1.000000000000000000, 0.000000000000000000, 0.000000000000000000 ) ) ;
#14 = DIRECTION ( 'NONE',  ( 1.224646799147353207E-16, 0.000000000000000000, 1.000000000000000000 ) ) ;
#15 = LINE ( 'NONE', #162, #267 ) ;
#16 = UNCERTAINTY_MEASURE_WITH_UNIT (LENGTH_MEASURE( 1.000000000000000082E-05 ), #236, 'distance_accuracy_value', 'NONE');
#17 = AXIS2_PLACEMENT_3D ( 'NONE', #68, #166, #19 ) ;
#18 = CIRCLE ( 'NONE', #261, 0.07874000000000000443 ) ;
#19 = DIRECTION ( 'NONE',  ( 1.000000000000000000, 0.000000000000000000, 0.000000000000000000 ) ) ;
#20 = EDGE_CURVE ( 'NONE', #240, #150, #7, .T. ) ;
#21 = DIRECTION ( 'NONE',  ( 0.1736481776669313859, 0.000000000000000000, 0.9848077530122077983 ) ) ;
#22 = CARTESIAN_POINT ( 'NONE',  ( 0.03933063000000001919, 0.000000000000000000, 0.1968500000000000250 ) ) ;
#23 = DIRECTION ( 'NONE',  ( -1.000000000000000000, 0.000000000000000000, 1.224646799147352961E-16 ) ) ;
#24 = DIRECTION ( 'NONE',  ( -0.000000000000000000, -0.000000000000000000, -1.000000000000000000 ) ) ;
#25 = EDGE_CURVE ( 'NONE', #171, #234, #226, .T. ) ;
#26 = ORIENTED_EDGE ( 'NONE', *, *, #170, .F. ) ;
#27 = ORIENTED_EDGE ( 'NONE', *, *, #262, .T. ) ;
#28 = APPLICATION_CONTEXT ( 'automotive_design' ) ;
#29 = ORIENTED_EDGE ( 'NONE', *, *, #25, .T. ) ;
#30 = COLOUR_RGB ( '',0.7921568627450980005, 0.8196078431372548767, 0.9333333333333333481 ) ;
#31 = DIRECTION ( 'NONE',  ( 0.000000000000000000, 0.000000000000000000, 1.000000000000000000 ) ) ;
#32 = EDGE_CURVE ( 'NONE', #234, #279, #260, .T. ) ;
#33 = ORIENTED_EDGE ( 'NONE', *, *, #254, .T. ) ;
#34 = PRODUCT ( 'Micro_AEMM-020-2X', 'Micro_AEMM-020-2X', '', ( #156 ) ) ;
#35 = CARTESIAN_POINT ( 'NONE',  ( 0.000000000000000000, 0.000000000000000000, 1.968503999999999809 ) ) ;
#36 = DIRECTION ( 'NONE',  ( -0.000000000000000000, -0.000000000000000000, -1.000000000000000000 ) ) ;
#37 = DIRECTION ( 'NONE',  ( 1.000000000000000000, 0.000000000000000000, 0.000000000000000000 ) ) ;
#38 = EDGE_LOOP ( 'NONE', ( #2, #288, #47, #108 ) ) ;
#39 = DIRECTION ( 'NONE',  ( -1.224646799147353207E-16, -0.000000000000000000, -1.000000000000000000 ) ) ;
#40 = SURFACE_SIDE_STYLE ('',( #243 ) ) ;
#41 = ADVANCED_FACE ( 'NONE', ( #159 ), #66, .T. ) ;
#42 = DIRECTION ( 'NONE',  ( -1.224646799147353207E-16, -0.000000000000000000, -1.000000000000000000 ) ) ;
#43 = FACE_OUTER_BOUND ( 'NONE', #200, .T. ) ;
#44 = CARTESIAN_POINT ( 'NONE',  ( 0.07874000000000000443, 9.642868896486258509E-18, 1.968503999999999809 ) ) ;
#45 = DIRECTION ( 'NONE',  ( -1.000000000000000000, 0.000000000000000000, 0.000000000000000000 ) ) ;
#46 = DIRECTION ( 'NONE',  ( -1.224646799147353207E-16, -0.000000000000000000, -1.000000000000000000 ) ) ;
#47 = ORIENTED_EDGE ( 'NONE', *, *, #88, .T. ) ;
#48 =( GEOMETRIC_REPRESENTATION_CONTEXT ( 3 ) GLOBAL_UNCERTAINTY_ASSIGNED_CONTEXT ( ( #16 ) ) GLOBAL_UNIT_ASSIGNED_CONTEXT ( ( #236, #87, #207 ) ) REPRESENTATION_CONTEXT ( 'NONE', 'WORKASPACE' ) );
#49 = AXIS2_PLACEMENT_3D ( 'NONE', #199, #31, #101 ) ;
#50 = AXIS2_PLACEMENT_3D ( 'NONE', #293, #46, #23 ) ;
#51 = EDGE_LOOP ( 'NONE', ( #222, #264 ) ) ;
#52 = EDGE_CURVE ( 'NONE', #150, #279, #239, .T. ) ;
#53 = ORIENTED_EDGE ( 'NONE', *, *, #247, .T. ) ;
#54 = AXIS2_PLACEMENT_3D ( 'NONE', #289, #221, #13 ) ;
#55 = SURFACE_STYLE_FILL_AREA ( #175 ) ;
#56 = DIRECTION ( 'NONE',  ( -1.000000000000000000, 0.000000000000000000, 0.000000000000000000 ) ) ;
#57 = ORIENTED_EDGE ( 'NONE', *, *, #247, .F. ) ;
#58 = VECTOR ( 'NONE', #176, 39.37007874015748854 ) ;
#59 =( LENGTH_UNIT ( ) NAMED_UNIT ( * ) SI_UNIT ( $, .METRE. ) );
#60 = CARTESIAN_POINT ( 'NONE',  ( -0.03933062999999997061, 4.816613013794885432E-18, 0.1968500000000000250 ) ) ;
#61 = AXIS2_PLACEMENT_3D ( 'NONE', #246, #136, #268 ) ;
#62 = CARTESIAN_POINT ( 'NONE',  ( -0.03933062999999997061, 7.229740955140570430E-18, 0.1968500000000000250 ) ) ;
#63 = CLOSED_SHELL ( 'NONE', ( #86, #186, #41, #122, #297, #115, #124, #214, #198, #210 ) ) ;
#64 = DIRECTION ( 'NONE',  ( -1.000000000000000000, 0.000000000000000000, 1.224646799147352961E-16 ) ) ;
#65 = DIRECTION ( 'NONE',  ( -1.000000000000000000, 0.000000000000000000, 1.224646799147352961E-16 ) ) ;
#66 = CONICAL_SURFACE ( 'NONE', #235, 0.06374000000000018540, 0.7853981633974522758 ) ;
#67 = DIRECTION ( 'NONE',  ( 0.000000000000000000, 0.000000000000000000, 1.000000000000000000 ) ) ;
#68 = CARTESIAN_POINT ( 'NONE',  ( 0.000000000000000000, 0.000000000000000000, 1.968503999999999809 ) ) ;
#69 = VECTOR ( 'NONE', #21, 39.37007874015748143 ) ;
#70 = ORIENTED_EDGE ( 'NONE', *, *, #20, .F. ) ;
#71 = MANIFOLD_SOLID_BREP ( 'Cut-Revolve1', #63 ) ;
#72 = ORIENTED_EDGE ( 'NONE', *, *, #254, .F. ) ;
#73 = AXIS2_PLACEMENT_3D ( 'NONE', #167, #42, #276 ) ;
#74 = PRODUCT_DEFINITION_SHAPE ( 'NONE', 'NONE',  #280 ) ;
#75 =( LENGTH_UNIT ( ) NAMED_UNIT ( * ) SI_UNIT ( $, .METRE. ) );
#76 = CONICAL_SURFACE ( 'NONE', #245, 0.03933062999999999837, 0.1745329251994338915 ) ;
#77 = EDGE_LOOP ( 'NONE', ( #257, #160 ) ) ;
#78 =( NAMED_UNIT ( * ) SI_UNIT ( $, .STERADIAN. ) SOLID_ANGLE_UNIT ( ) );
#79 = ORIENTED_EDGE ( 'NONE', *, *, #88, .F. ) ;
#80 = CARTESIAN_POINT ( 'NONE',  ( -0.03933062999999999837, 0.000000000000000000, 9.633226027589770864E-18 ) ) ;
#81 = DIRECTION ( 'NONE',  ( -1.224646799147353207E-16, -0.000000000000000000, -1.000000000000000000 ) ) ;
#82 = ORIENTED_EDGE ( 'NONE', *, *, #180, .F. ) ;
#83 = AXIS2_PLACEMENT_3D ( 'NONE', #284, #266, #179 ) ;
#84 = CARTESIAN_POINT ( 'NONE',  ( -0.07873999999999994892, 0.000000000000000000, 0.4203516436035863446 ) ) ;
#85 = DIRECTION ( 'NONE',  ( 0.000000000000000000, 0.000000000000000000, 1.000000000000000000 ) ) ;
#86 = ADVANCED_FACE ( 'NONE', ( #90 ), #220, .T. ) ;
#87 =( NAMED_UNIT ( * ) PLANE_ANGLE_UNIT ( ) SI_UNIT ( $, .RADIAN. ) );
#88 = EDGE_CURVE ( 'NONE', #171, #97, #146, .T. ) ;
#89 = PLANE ( 'NONE',  #190 ) ;
#90 = FACE_OUTER_BOUND ( 'NONE', #233, .T. ) ;
#91 = EDGE_LOOP ( 'NONE', ( #287, #98, #212, #194 ) ) ;
#92 = DIRECTION ( 'NONE',  ( -1.224646799147353207E-16, -0.000000000000000000, -1.000000000000000000 ) ) ;
#93 = DIRECTION ( 'NONE',  ( 1.000000000000000000, 0.000000000000000000, 0.000000000000000000 ) ) ;
#94 = VERTEX_POINT ( 'NONE', #298 ) ;
#95 = EDGE_CURVE ( 'NONE', #150, #125, #18, .T. ) ;
#96 = CIRCLE ( 'NONE', #61, 0.07874000000000000443 ) ;
#97 = VERTEX_POINT ( 'NONE', #296 ) ;
#98 = ORIENTED_EDGE ( 'NONE', *, *, #149, .T. ) ;
#99 = COLOUR_RGB ( '',0.7921568627450980005, 0.8196078431372548767, 0.9333333333333333481 ) ;
#100 = PRESENTATION_STYLE_ASSIGNMENT (( #137 ) ) ;
#101 = DIRECTION ( 'NONE',  ( 1.000000000000000000, 0.000000000000000000, 0.000000000000000000 ) ) ;
#102 = CIRCLE ( 'NONE', #157, 0.06374000000000018540 ) ;
#103 = ORIENTED_EDGE ( 'NONE', *, *, #20, .T. ) ;
#104 = PRODUCT_RELATED_PRODUCT_CATEGORY ( 'part', '', ( #34 ) ) ;
#105 = EDGE_LOOP ( 'NONE', ( #6, #33, #215, #147 ) ) ;
#106 = SURFACE_SIDE_STYLE ('',( #55 ) ) ;
#107 = EDGE_LOOP ( 'NONE', ( #256, #26, #103, #72 ) ) ;
#108 = ORIENTED_EDGE ( 'NONE', *, *, #232, .T. ) ;
#109 = DIRECTION ( 'NONE',  ( -0.000000000000000000, -0.000000000000000000, -1.000000000000000000 ) ) ;
#110 = DIRECTION ( 'NONE',  ( 1.000000000000000000, 0.000000000000000000, 0.000000000000000000 ) ) ;
#111 = STYLED_ITEM ( 'NONE', ( #100 ), #71 ) ;
#112 = CARTESIAN_POINT ( 'NONE',  ( 2.410717224121564935E-17, 0.000000000000000000, 0.1968500000000000250 ) ) ;
#113 = CONICAL_SURFACE ( 'NONE', #177, 0.06374000000000018540, 0.7853981633974522758 ) ;
#114 = CARTESIAN_POINT ( 'NONE',  ( 0.000000000000000000, 0.000000000000000000, 0.000000000000000000 ) ) ;
#115 = ADVANCED_FACE ( 'NONE', ( #294 ), #89, .T. ) ;
#116 = CARTESIAN_POINT ( 'NONE',  ( 0.000000000000000000, 0.000000000000000000, 0.000000000000000000 ) ) ;
#117 = CARTESIAN_POINT ( 'NONE',  ( 2.410717224121564935E-17, 0.000000000000000000, 0.1968500000000000250 ) ) ;
#118 = AXIS2_PLACEMENT_3D ( 'NONE', #114, #85, #202 ) ;
#119 = CIRCLE ( 'NONE', #17, 0.06374000000000018540 ) ;
#120 = PLANE ( 'NONE',  #118 ) ;
#121 = DIRECTION ( 'NONE',  ( 1.000000000000000000, 0.000000000000000000, -0.000000000000000000 ) ) ;
#122 = ADVANCED_FACE ( 'NONE', ( #295 ), #252, .T. ) ;
#123 = VECTOR ( 'NONE', #24, 39.37007874015748143 ) ;
#124 = ADVANCED_FACE ( 'NONE', ( #187 ), #113, .T. ) ;
#125 = VERTEX_POINT ( 'NONE', #230 ) ;
#126 = EDGE_LOOP ( 'NONE', ( #82, #237, #191, #70 ) ) ;
#127 = CIRCLE ( 'NONE', #73, 0.03933062999999999837 ) ;
#128 = CARTESIAN_POINT ( 'NONE',  ( 0.06374000000000018540, 7.805898697765251255E-18, 1.968503999999999809 ) ) ;
#129 = DIRECTION ( 'NONE',  ( -1.000000000000000000, 0.000000000000000000, 0.000000000000000000 ) ) ;
#130 = CARTESIAN_POINT ( 'NONE',  ( 0.000000000000000000, 0.000000000000000000, 1.968503999999999809 ) ) ;
#131 = EDGE_CURVE ( 'NONE', #3, #299, #213, .T. ) ;
#132 =( NAMED_UNIT ( * ) PLANE_ANGLE_UNIT ( ) SI_UNIT ( $, .RADIAN. ) );
#133 = DIRECTION ( 'NONE',  ( -0.1736481776669311916, 2.126576849575783316E-17, 0.9848077530122080203 ) ) ;
#134 =( GEOMETRIC_REPRESENTATION_CONTEXT ( 3 ) GLOBAL_UNCERTAINTY_ASSIGNED_CONTEXT ( ( #270 ) ) GLOBAL_UNIT_ASSIGNED_CONTEXT ( ( #263, #132, #135 ) ) REPRESENTATION_CONTEXT ( 'NONE', 'WORKASPACE' ) );
#135 =( NAMED_UNIT ( * ) SI_UNIT ( $, .STERADIAN. ) SOLID_ANGLE_UNIT ( ) );
#136 = DIRECTION ( 'NONE',  ( -1.224646799147353207E-16, -0.000000000000000000, -1.000000000000000000 ) ) ;
#137 = SURFACE_STYLE_USAGE ( .BOTH. , #40 ) ;
#138 = SURFACE_STYLE_USAGE ( .BOTH. , #106 ) ;
#139 = CIRCLE ( 'NONE', #285, 0.07874000000000000443 ) ;
#140 = AXIS2_PLACEMENT_3D ( 'NONE', #225, #208, #168 ) ;
#141 = DIRECTION ( 'NONE',  ( 0.000000000000000000, 0.000000000000000000, -1.000000000000000000 ) ) ;
#142 = DIRECTION ( 'NONE',  ( 1.224646799147353207E-16, 0.000000000000000000, 1.000000000000000000 ) ) ;
#143 = AXIS2_PLACEMENT_3D ( 'NONE', #35, #109, #129 ) ;
#144 = DIRECTION ( 'NONE',  ( 0.000000000000000000, 0.000000000000000000, 1.000000000000000000 ) ) ;
#145 = ADVANCED_BREP_SHAPE_REPRESENTATION ( 'Micro_AEMM-020-2X', ( #71, #49 ), #10 ) ;
#146 = LINE ( 'NONE', #205, #69 ) ;
#147 = ORIENTED_EDGE ( 'NONE', *, *, #232, .F. ) ;
#148 = MECHANICAL_DESIGN_GEOMETRIC_PRESENTATION_REPRESENTATION (  '', ( #5 ), #134 ) ;
#149 = EDGE_CURVE ( 'NONE', #125, #97, #250, .T. ) ;
#150 = VERTEX_POINT ( 'NONE', #248 ) ;
#151 = AXIS2_PLACEMENT_3D ( 'NONE', #117, #142, #93 ) ;
#152 = LENGTH_MEASURE_WITH_UNIT ( LENGTH_MEASURE( 0.02539999999999999897 ), #75 );
#153 = SHAPE_DEFINITION_REPRESENTATION ( #74, #145 ) ;
#154 = CIRCLE ( 'NONE', #54, 0.07874000000000000443 ) ;
#155 = EDGE_LOOP ( 'NONE', ( #57, #29, #27, #211 ) ) ;
#156 = PRODUCT_CONTEXT ( 'NONE', #172, 'mechanical' ) ;
#157 = AXIS2_PLACEMENT_3D ( 'NONE', #251, #144, #227 ) ;
#158 = LENGTH_MEASURE_WITH_UNIT ( LENGTH_MEASURE( 0.02539999999999999897 ), #59 );
#159 = FACE_OUTER_BOUND ( 'NONE', #126, .T. ) ;
#160 = ORIENTED_EDGE ( 'NONE', *, *, #180, .T. ) ;
#161 = DIRECTION ( 'NONE',  ( 0.000000000000000000, 0.000000000000000000, -1.000000000000000000 ) ) ;
#162 = CARTESIAN_POINT ( 'NONE',  ( -0.03933062999999999837, 0.000000000000000000, 4.816613013794885432E-18 ) ) ;
#163 = FACE_OUTER_BOUND ( 'NONE', #105, .T. ) ;
#164 = EDGE_CURVE ( 'NONE', #299, #3, #127, .T. ) ;
#165 = UNCERTAINTY_MEASURE_WITH_UNIT (LENGTH_MEASURE( 1.000000000000000082E-05 ), #244, 'distance_accuracy_value', 'NONE');
#166 = DIRECTION ( 'NONE',  ( 0.000000000000000000, 0.000000000000000000, 1.000000000000000000 ) ) ;
#167 = CARTESIAN_POINT ( 'NONE',  ( 5.898649710075393742E-34, 0.000000000000000000, 4.816613013794885432E-18 ) ) ;
#168 = DIRECTION ( 'NONE',  ( -1.000000000000000000, 0.000000000000000000, 0.000000000000000000 ) ) ;
#169 = CYLINDRICAL_SURFACE ( 'NONE', #50, 0.03933062999999999837 ) ;
#170 = EDGE_CURVE ( 'NONE', #240, #94, #102, .T. ) ;
#171 = VERTEX_POINT ( 'NONE', #22 ) ;
#172 = APPLICATION_CONTEXT ( 'automotive_design' ) ;
#173 = PRESENTATION_LAYER_ASSIGNMENT (  '', '', ( #111 ) ) ;
#174 = ORIENTED_EDGE ( 'NONE', *, *, #32, .T. ) ;
#175 = FILL_AREA_STYLE ('',( #259 ) ) ;
#176 = DIRECTION ( 'NONE',  ( -0.7071067811865502373, 0.000000000000000000, -0.7071067811865446862 ) ) ;
#177 = AXIS2_PLACEMENT_3D ( 'NONE', #209, #253, #45 ) ;
#178 = LENGTH_MEASURE_WITH_UNIT ( LENGTH_MEASURE( 0.02539999999999999897 ), #286 );
#179 = DIRECTION ( 'NONE',  ( -1.000000000000000000, 0.000000000000000000, 0.000000000000000000 ) ) ;
#180 = EDGE_CURVE ( 'NONE', #94, #240, #119, .T. ) ;
#181 = CARTESIAN_POINT ( 'NONE',  ( 0.000000000000000000, 0.000000000000000000, 1.953504000000000129 ) ) ;
#182 = LINE ( 'NONE', #128, #271 ) ;
#183 = CARTESIAN_POINT ( 'NONE',  ( 0.03933062999999999837, 4.816613013794885432E-18, 0.000000000000000000 ) ) ;
#184 = CARTESIAN_POINT ( 'NONE',  ( 2.410717224121564935E-17, 0.000000000000000000, 0.1968500000000000250 ) ) ;
#185 =( NAMED_UNIT ( * ) PLANE_ANGLE_UNIT ( ) SI_UNIT ( $, .RADIAN. ) );
#186 = ADVANCED_FACE ( 'NONE', ( #43 ), #229, .T. ) ;
#187 = FACE_OUTER_BOUND ( 'NONE', #107, .T. ) ;
#188 = DIRECTION ( 'NONE',  ( 1.000000000000000000, 0.000000000000000000, 0.000000000000000000 ) ) ;
#189 = CARTESIAN_POINT ( 'NONE',  ( 0.000000000000000000, 0.000000000000000000, 1.968503999999999809 ) ) ;
#190 = AXIS2_PLACEMENT_3D ( 'NONE', #189, #67, #121 ) ;
#191 = ORIENTED_EDGE ( 'NONE', *, *, #95, .F. ) ;
#192 = PRODUCT_DEFINITION_FORMATION_WITH_SPECIFIED_SOURCE ( 'ANY', '', #34, .NOT_KNOWN. ) ;
#193 = DIMENSIONAL_EXPONENTS ( 1.000000000000000000, 0.000000000000000000, 0.000000000000000000, 0.000000000000000000, 0.000000000000000000, 0.000000000000000000, 0.000000000000000000 ) ;
#194 = ORIENTED_EDGE ( 'NONE', *, *, #52, .F. ) ;
#195 = CARTESIAN_POINT ( 'NONE',  ( -0.06374000000000018540, 0.000000000000000000, 1.968503999999999809 ) ) ;
#196 = DIRECTION ( 'NONE',  ( -1.000000000000000000, 0.000000000000000000, 0.000000000000000000 ) ) ;
#197 = FILL_AREA_STYLE ('',( #9 ) ) ;
#198 = ADVANCED_FACE ( 'NONE', ( #228 ), #169, .T. ) ;
#199 = CARTESIAN_POINT ( 'NONE',  ( 0.000000000000000000, 0.000000000000000000, 0.000000000000000000 ) ) ;
#200 = EDGE_LOOP ( 'NONE', ( #283, #174, #4, #79 ) ) ;
#201 = DIMENSIONAL_EXPONENTS ( 1.000000000000000000, 0.000000000000000000, 0.000000000000000000, 0.000000000000000000, 0.000000000000000000, 0.000000000000000000, 0.000000000000000000 ) ;
#202 = DIRECTION ( 'NONE',  ( 1.000000000000000000, 0.000000000000000000, -0.000000000000000000 ) ) ;
#203 = DIRECTION ( 'NONE',  ( 0.000000000000000000, 0.000000000000000000, -1.000000000000000000 ) ) ;
#204 = PRODUCT_DEFINITION_CONTEXT ( 'detailed design', #28, 'design' ) ;
#205 = CARTESIAN_POINT ( 'NONE',  ( 0.03933063000000001919, 0.000000000000000000, 0.1968500000000000250 ) ) ;
#206 = DIRECTION ( 'NONE',  ( -1.224646799147353207E-16, -0.000000000000000000, -1.000000000000000000 ) ) ;
#207 =( NAMED_UNIT ( * ) SI_UNIT ( $, .STERADIAN. ) SOLID_ANGLE_UNIT ( ) );
#208 = DIRECTION ( 'NONE',  ( -0.000000000000000000, -0.000000000000000000, -1.000000000000000000 ) ) ;
#209 = CARTESIAN_POINT ( 'NONE',  ( 0.000000000000000000, 0.000000000000000000, 1.968503999999999809 ) ) ;
#210 = ADVANCED_FACE ( 'NONE', ( #224 ), #120, .F. ) ;
#211 = ORIENTED_EDGE ( 'NONE', *, *, #164, .F. ) ;
#212 = ORIENTED_EDGE ( 'NONE', *, *, #258, .F. ) ;
#213 = CIRCLE ( 'NONE', #249, 0.03933062999999999837 ) ;
#214 = ADVANCED_FACE ( 'NONE', ( #290 ), #76, .T. ) ;
#215 = ORIENTED_EDGE ( 'NONE', *, *, #52, .T. ) ;
#216 = ORIENTED_EDGE ( 'NONE', *, *, #262, .F. ) ;
#217 = DIRECTION ( 'NONE',  ( 0.7071067811865502373, 8.659560562354966138E-17, -0.7071067811865446862 ) ) ;
#218 = CARTESIAN_POINT ( 'NONE',  ( -0.06374000000000018540, 0.000000000000000000, 1.968503999999999809 ) ) ;
#219 = EDGE_CURVE ( 'NONE', #234, #171, #269, .T. ) ;
#220 = CYLINDRICAL_SURFACE ( 'NONE', #277, 0.03933062999999999837 ) ;
#221 = DIRECTION ( 'NONE',  ( -1.224646799147353207E-16, -0.000000000000000000, -1.000000000000000000 ) ) ;
#222 = ORIENTED_EDGE ( 'NONE', *, *, #131, .T. ) ;
#223 = CARTESIAN_POINT ( 'NONE',  ( 0.03933062999999999837, 4.816613013794885432E-18, -4.816613013794885432E-18 ) ) ;
#224 = FACE_OUTER_BOUND ( 'NONE', #51, .T. ) ;
#225 = CARTESIAN_POINT ( 'NONE',  ( 0.000000000000000000, 0.000000000000000000, 1.968503999999999809 ) ) ;
#226 = CIRCLE ( 'NONE', #83, 0.03933062999999999837 ) ;
#227 = DIRECTION ( 'NONE',  ( 1.000000000000000000, 0.000000000000000000, 0.000000000000000000 ) ) ;
#228 = FACE_OUTER_BOUND ( 'NONE', #155, .T. ) ;
#229 = CONICAL_SURFACE ( 'NONE', #151, 0.03933062999999999837, 0.1745329251994338915 ) ;
#230 = CARTESIAN_POINT ( 'NONE',  ( 0.07874000000000000443, 9.642868896486258509E-18, 1.953504000000000129 ) ) ;
#231 = VECTOR ( 'NONE', #36, 39.37007874015748143 ) ;
#232 = EDGE_CURVE ( 'NONE', #97, #279, #96, .T. ) ;
#233 = EDGE_LOOP ( 'NONE', ( #281, #53, #278, #216 ) ) ;
#234 = VERTEX_POINT ( 'NONE', #62 ) ;
#235 = AXIS2_PLACEMENT_3D ( 'NONE', #130, #161, #56 ) ;
#236 =( CONVERSION_BASED_UNIT ( 'INCH', #152 ) LENGTH_UNIT ( ) NAMED_UNIT ( #282 ) );
#237 = ORIENTED_EDGE ( 'NONE', *, *, #1, .T. ) ;
#238 = DIRECTION ( 'NONE',  ( -1.224646799147353207E-16, -0.000000000000000000, -1.000000000000000000 ) ) ;
#239 = LINE ( 'NONE', #11, #231 ) ;
#240 = VERTEX_POINT ( 'NONE', #218 ) ;
#241 = VECTOR ( 'NONE', #39, 39.37007874015748143 ) ;
#242 = PRESENTATION_STYLE_ASSIGNMENT (( #138 ) ) ;
#243 = SURFACE_STYLE_FILL_AREA ( #197 ) ;
#244 =( CONVERSION_BASED_UNIT ( 'INCH', #158 ) LENGTH_UNIT ( ) NAMED_UNIT ( #193 ) );
#245 = AXIS2_PLACEMENT_3D ( 'NONE', #184, #14, #110 ) ;
#246 = CARTESIAN_POINT ( 'NONE',  ( 5.147822948554610947E-17, 0.000000000000000000, 0.4203516436035863446 ) ) ;
#247 = EDGE_CURVE ( 'NONE', #171, #299, #291, .T. ) ;
#248 = CARTESIAN_POINT ( 'NONE',  ( -0.07874000000000000443, 0.000000000000000000, 1.953504000000000129 ) ) ;
#249 = AXIS2_PLACEMENT_3D ( 'NONE', #273, #92, #65 ) ;
#250 = LINE ( 'NONE', #44, #123 ) ;
#251 = CARTESIAN_POINT ( 'NONE',  ( 0.000000000000000000, 0.000000000000000000, 1.968503999999999809 ) ) ;
#252 = CYLINDRICAL_SURFACE ( 'NONE', #140, 0.07874000000000000443 ) ;
#253 = DIRECTION ( 'NONE',  ( 0.000000000000000000, 0.000000000000000000, -1.000000000000000000 ) ) ;
#254 = EDGE_CURVE ( 'NONE', #125, #150, #139, .T. ) ;
#255 = VECTOR ( 'NONE', #133, 39.37007874015747433 ) ;
#256 = ORIENTED_EDGE ( 'NONE', *, *, #1, .F. ) ;
#257 = ORIENTED_EDGE ( 'NONE', *, *, #170, .T. ) ;
#258 = EDGE_CURVE ( 'NONE', #279, #97, #154, .T. ) ;
#259 = FILL_AREA_STYLE_COLOUR ( '', #99 ) ;
#260 = LINE ( 'NONE', #60, #255 ) ;
#261 = AXIS2_PLACEMENT_3D ( 'NONE', #274, #141, #188 ) ;
#262 = EDGE_CURVE ( 'NONE', #234, #3, #15, .T. ) ;
#263 =( CONVERSION_BASED_UNIT ( 'INCH', #178 ) LENGTH_UNIT ( ) NAMED_UNIT ( #201 ) );
#264 = ORIENTED_EDGE ( 'NONE', *, *, #164, .T. ) ;
#265 = CYLINDRICAL_SURFACE ( 'NONE', #143, 0.07874000000000000443 ) ;
#266 = DIRECTION ( 'NONE',  ( -1.224646799147353207E-16, -0.000000000000000000, -1.000000000000000000 ) ) ;
#267 = VECTOR ( 'NONE', #238, 39.37007874015748143 ) ;
#268 = DIRECTION ( 'NONE',  ( 1.000000000000000000, 0.000000000000000000, 0.000000000000000000 ) ) ;
#269 = CIRCLE ( 'NONE', #292, 0.03933062999999999837 ) ;
#270 = UNCERTAINTY_MEASURE_WITH_UNIT (LENGTH_MEASURE( 1.000000000000000082E-05 ), #263, 'distance_accuracy_value', 'NONE');
#271 = VECTOR ( 'NONE', #217, 39.37007874015748854 ) ;
#272 = PRESENTATION_LAYER_ASSIGNMENT (  '', '', ( #5 ) ) ;
#273 = CARTESIAN_POINT ( 'NONE',  ( 5.898649710075393742E-34, 0.000000000000000000, 4.816613013794885432E-18 ) ) ;
#274 = CARTESIAN_POINT ( 'NONE',  ( 0.000000000000000000, 0.000000000000000000, 1.953504000000000129 ) ) ;
#275 = MECHANICAL_DESIGN_GEOMETRIC_PRESENTATION_REPRESENTATION (  '', ( #111 ), #48 ) ;
#276 = DIRECTION ( 'NONE',  ( -1.000000000000000000, 0.000000000000000000, 1.224646799147352961E-16 ) ) ;
#277 = AXIS2_PLACEMENT_3D ( 'NONE', #116, #206, #64 ) ;
#278 = ORIENTED_EDGE ( 'NONE', *, *, #131, .F. ) ;
#279 = VERTEX_POINT ( 'NONE', #84 ) ;
#280 = PRODUCT_DEFINITION ( 'UNKNOWN', '', #192, #204 ) ;
#281 = ORIENTED_EDGE ( 'NONE', *, *, #219, .T. ) ;
#282 = DIMENSIONAL_EXPONENTS ( 1.000000000000000000, 0.000000000000000000, 0.000000000000000000, 0.000000000000000000, 0.000000000000000000, 0.000000000000000000, 0.000000000000000000 ) ;
#283 = ORIENTED_EDGE ( 'NONE', *, *, #219, .F. ) ;
#284 = CARTESIAN_POINT ( 'NONE',  ( 2.410717224121564935E-17, 0.000000000000000000, 0.1968500000000000250 ) ) ;
#285 = AXIS2_PLACEMENT_3D ( 'NONE', #181, #203, #37 ) ;
#286 =( LENGTH_UNIT ( ) NAMED_UNIT ( * ) SI_UNIT ( $, .METRE. ) );
#287 = ORIENTED_EDGE ( 'NONE', *, *, #95, .T. ) ;
#288 = ORIENTED_EDGE ( 'NONE', *, *, #25, .F. ) ;
#289 = CARTESIAN_POINT ( 'NONE',  ( 5.147822948554610947E-17, 0.000000000000000000, 0.4203516436035863446 ) ) ;
#290 = FACE_OUTER_BOUND ( 'NONE', #38, .T. ) ;
#291 = LINE ( 'NONE', #223, #241 ) ;
#292 = AXIS2_PLACEMENT_3D ( 'NONE', #112, #81, #196 ) ;
#293 = CARTESIAN_POINT ( 'NONE',  ( 0.000000000000000000, 0.000000000000000000, 0.000000000000000000 ) ) ;
#294 = FACE_OUTER_BOUND ( 'NONE', #77, .T. ) ;
#295 = FACE_OUTER_BOUND ( 'NONE', #91, .T. ) ;
#296 = CARTESIAN_POINT ( 'NONE',  ( 0.07874000000000004607, 9.642868896486264672E-18, 0.4203516436035863446 ) ) ;
#297 = ADVANCED_FACE ( 'NONE', ( #163 ), #265, .T. ) ;
#298 = CARTESIAN_POINT ( 'NONE',  ( 0.06374000000000018540, 8.724383797125754882E-18, 1.968503999999999809 ) ) ;
#299 = VERTEX_POINT ( 'NONE', #183 ) ;
ENDSEC;
END-ISO-10303-21;
