ISO-10303-21;
HEADER;
FILE_DESCRIPTION (( 'STEP AP214' ),
    '1' );
FILE_NAME ('84587.STEP',
    '2023-07-12T13:08:48',
    ( '' ),
    ( '' ),
    'SwSTEP 2.0',
    'SolidWorks 2023',
    '' );
FILE_SCHEMA (( 'AUTOMOTIVE_DESIGN' ));
ENDSEC;

DATA;
#1 = DIMENSIONAL_EXPONENTS ( 1.000000000000000000, 0.000000000000000000, 0.000000000000000000, 0.000000000000000000, 0.000000000000000000, 0.000000000000000000, 0.000000000000000000 ) ;
#2 = CIRCLE ( 'NONE', #265, 0.06249999999999991673 ) ;
#3 = ADVANCED_FACE ( 'NONE', ( #22 ), #120, .T. ) ;
#4 = PRESENTATION_STYLE_ASSIGNMENT (( #225 ) ) ;
#5 = FILL_AREA_STYLE_COLOUR ( '', #217 ) ;
#6 = CIRCLE ( 'NONE', #238, 0.06249999999999997918 ) ;
#7 = APPLICATION_CONTEXT ( 'automotive_design' ) ;
#8 = DIMENSIONAL_EXPONENTS ( 1.000000000000000000, 0.000000000000000000, 0.000000000000000000, 0.000000000000000000, 0.000000000000000000, 0.000000000000000000, 0.000000000000000000 ) ;
#9 = LENGTH_MEASURE_WITH_UNIT ( LENGTH_MEASURE( 0.02539999999999999897 ), #144 );
#10 = ORIENTED_EDGE ( 'NONE', *, *, #123, .F. ) ;
#11 =( GEOMETRIC_REPRESENTATION_CONTEXT ( 3 ) GLOBAL_UNCERTAINTY_ASSIGNED_CONTEXT ( ( #242 ) ) GLOBAL_UNIT_ASSIGNED_CONTEXT ( ( #235, #114, #37 ) ) REPRESENTATION_CONTEXT ( 'NONE', 'WORKASPACE' ) );
#12 =( GEOMETRIC_REPRESENTATION_CONTEXT ( 3 ) GLOBAL_UNCERTAINTY_ASSIGNED_CONTEXT ( ( #43 ) ) GLOBAL_UNIT_ASSIGNED_CONTEXT ( ( #301, #255, #262 ) ) REPRESENTATION_CONTEXT ( 'NONE', 'WORKASPACE' ) );
#13 = CARTESIAN_POINT ( 'NONE',  ( -2.369500423704768160E-34, 0.03566173432503425694, 0.000000000000000000 ) ) ;
#14 = CYLINDRICAL_SURFACE ( 'NONE', #203, 0.06249999999999982653 ) ;
#15 = EDGE_LOOP ( 'NONE', ( #264, #139 ) ) ;
#16 = CARTESIAN_POINT ( 'NONE',  ( -0.02000000000000000042, -2.657751193038749997E-34, 0.000000000000000000 ) ) ;
#17 = VERTEX_POINT ( 'NONE', #163 ) ;
#18 = DIRECTION ( 'NONE',  ( -1.000000000000000000, 0.000000000000000000, 0.000000000000000000 ) ) ;
#19 = CARTESIAN_POINT ( 'NONE',  ( 6.123233995736763571E-17, 1.500000000000000222, 0.000000000000000000 ) ) ;
#20 = LENGTH_MEASURE_WITH_UNIT ( LENGTH_MEASURE( 0.02539999999999999897 ), #93 );
#21 = APPLICATION_CONTEXT ( 'automotive_design' ) ;
#22 = FACE_OUTER_BOUND ( 'NONE', #15, .T. ) ;
#23 = FILL_AREA_STYLE ('',( #240 ) ) ;
#24 = AXIS2_PLACEMENT_3D ( 'NONE', #159, #60, #92 ) ;
#25 = ADVANCED_BREP_SHAPE_REPRESENTATION ( '84587', ( #132, #175, #99 ), #12 ) ;
#26 = DIRECTION ( 'NONE',  ( 1.000000000000000000, 6.644377982596874735E-33, 0.000000000000000000 ) ) ;
#27 = CIRCLE ( 'NONE', #24, 0.06249999999999974326 ) ;
#28 = CARTESIAN_POINT ( 'NONE',  ( 8.829551755123623592E-67, -1.328875596519374998E-34, 0.000000000000000000 ) ) ;
#29 = DIRECTION ( 'NONE',  ( -1.000000000000000000, -1.365923996832137279E-16, 0.000000000000000000 ) ) ;
#30 =( CONVERSION_BASED_UNIT ( 'INCH', #196 ) LENGTH_UNIT ( ) NAMED_UNIT ( #168 ) );
#31 =( LENGTH_UNIT ( ) NAMED_UNIT ( * ) SI_UNIT ( $, .METRE. ) );
#32 = AXIS2_PLACEMENT_3D ( 'NONE', #28, #274, #201 ) ;
#33 =( NAMED_UNIT ( * ) PLANE_ANGLE_UNIT ( ) SI_UNIT ( $, .RADIAN. ) );
#34 = CARTESIAN_POINT ( 'NONE',  ( 8.829551755123623592E-67, -1.328875596519374998E-34, 0.000000000000000000 ) ) ;
#35 =( GEOMETRIC_REPRESENTATION_CONTEXT ( 3 ) GLOBAL_UNCERTAINTY_ASSIGNED_CONTEXT ( ( #309 ) ) GLOBAL_UNIT_ASSIGNED_CONTEXT ( ( #170, #55, #58 ) ) REPRESENTATION_CONTEXT ( 'NONE', 'WORKASPACE' ) );
#36 =( NAMED_UNIT ( * ) PLANE_ANGLE_UNIT ( ) SI_UNIT ( $, .RADIAN. ) );
#37 =( NAMED_UNIT ( * ) SI_UNIT ( $, .STERADIAN. ) SOLID_ANGLE_UNIT ( ) );
#38 = VERTEX_POINT ( 'NONE', #194 ) ;
#39 = EDGE_CURVE ( 'NONE', #289, #38, #2, .T. ) ;
#40 = PRESENTATION_STYLE_ASSIGNMENT (( #136 ) ) ;
#41 = ORIENTED_EDGE ( 'NONE', *, *, #204, .F. ) ;
#42 = VECTOR ( 'NONE', #200, 39.37007874015748143 ) ;
#43 = UNCERTAINTY_MEASURE_WITH_UNIT (LENGTH_MEASURE( 1.000000000000000082E-05 ), #301, 'distance_accuracy_value', 'NONE');
#44 = SURFACE_SIDE_STYLE ('',( #109 ) ) ;
#45 = ORIENTED_EDGE ( 'NONE', *, *, #268, .T. ) ;
#46 = CARTESIAN_POINT ( 'NONE',  ( 0.02000000000000000042, 0.000000000000000000, 5.051668046482830809E-18 ) ) ;
#47 = SURFACE_STYLE_FILL_AREA ( #306 ) ;
#48 = APPLICATION_PROTOCOL_DEFINITION ( 'draft international standard', 'automotive_design', 1998, #7 ) ;
#49 = EDGE_LOOP ( 'NONE', ( #287, #233, #157, #232 ) ) ;
#50 = PRODUCT_RELATED_PRODUCT_CATEGORY ( 'part', '', ( #243 ) ) ;
#51 = DIRECTION ( 'NONE',  ( -1.203522985155330889E-16, 1.000000000000000000, 0.000000000000000000 ) ) ;
#52 = CLOSED_SHELL ( 'NONE', ( #292, #199, #261, #267 ) ) ;
#53 = AXIS2_PLACEMENT_3D ( 'NONE', #13, #112, #88 ) ;
#54 = LINE ( 'NONE', #270, #192 ) ;
#55 =( NAMED_UNIT ( * ) PLANE_ANGLE_UNIT ( ) SI_UNIT ( $, .RADIAN. ) );
#56 = CARTESIAN_POINT ( 'NONE',  ( -2.369500423704768160E-34, 0.03566173432503425000, 0.000000000000000000 ) ) ;
#57 = LINE ( 'NONE', #78, #211 ) ;
#58 =( NAMED_UNIT ( * ) SI_UNIT ( $, .STERADIAN. ) SOLID_ANGLE_UNIT ( ) );
#59 = SURFACE_SIDE_STYLE ('',( #153 ) ) ;
#60 = DIRECTION ( 'NONE',  ( -1.203522985155330889E-16, 1.000000000000000000, -0.000000000000000000 ) ) ;
#61 =( NAMED_UNIT ( * ) SI_UNIT ( $, .STERADIAN. ) SOLID_ANGLE_UNIT ( ) );
#62 = DIRECTION ( 'NONE',  ( -1.000000000000000000, 0.000000000000000000, 0.000000000000000000 ) ) ;
#63 = ORIENTED_EDGE ( 'NONE', *, *, #121, .T. ) ;
#64 = CYLINDRICAL_SURFACE ( 'NONE', #162, 0.06249999999999982653 ) ;
#65 = VERTEX_POINT ( 'NONE', #106 ) ;
#66 = FACE_OUTER_BOUND ( 'NONE', #256, .T. ) ;
#67 = EDGE_CURVE ( 'NONE', #229, #289, #54, .T. ) ;
#68 =( NAMED_UNIT ( * ) PLANE_ANGLE_UNIT ( ) SI_UNIT ( $, .RADIAN. ) );
#69 = DIRECTION ( 'NONE',  ( -1.203522985155330889E-16, 1.000000000000000000, -0.000000000000000000 ) ) ;
#70 = EDGE_LOOP ( 'NONE', ( #10, #63, #281, #209 ) ) ;
#71 = DIRECTION ( 'NONE',  ( 1.000000000000000000, 6.644377982596874735E-33, 0.000000000000000000 ) ) ;
#72 = ORIENTED_EDGE ( 'NONE', *, *, #121, .F. ) ;
#73 = AXIS2_PLACEMENT_3D ( 'NONE', #266, #147, #252 ) ;
#74 = CIRCLE ( 'NONE', #189, 0.06249999999999997918 ) ;
#75 = CONICAL_SURFACE ( 'NONE', #73, 0.02000000000000000042, 0.8726646259971666542 ) ;
#76 = CARTESIAN_POINT ( 'NONE',  ( -2.369500423704768160E-34, 0.03566173432503425000, 0.000000000000000000 ) ) ;
#77 = DIRECTION ( 'NONE',  ( 6.644377982596874735E-33, -1.000000000000000000, -0.000000000000000000 ) ) ;
#78 = CARTESIAN_POINT ( 'NONE',  ( -0.02000000000000000042, -2.657751193038749997E-34, 0.000000000000000000 ) ) ;
#79 = SURFACE_SIDE_STYLE ('',( #272 ) ) ;
#80 = DIMENSIONAL_EXPONENTS ( 1.000000000000000000, 0.000000000000000000, 0.000000000000000000, 0.000000000000000000, 0.000000000000000000, 0.000000000000000000, 0.000000000000000000 ) ;
#81 = EDGE_CURVE ( 'NONE', #65, #38, #82, .T. ) ;
#82 = LINE ( 'NONE', #83, #42 ) ;
#83 = CARTESIAN_POINT ( 'NONE',  ( -0.06249999999999977102, 1.500000000000000222, 0.000000000000000000 ) ) ;
#84 = COLOUR_RGB ( '',1.000000000000000000, 0.000000000000000000, 0.000000000000000000 ) ;
#85 = PRESENTATION_LAYER_ASSIGNMENT (  '', '', ( #102 ) ) ;
#86 = EDGE_CURVE ( 'NONE', #253, #17, #57, .T. ) ;
#87 =( CONVERSION_BASED_UNIT ( 'INCH', #20 ) LENGTH_UNIT ( ) NAMED_UNIT ( #223 ) );
#88 = DIRECTION ( 'NONE',  ( -1.000000000000000000, -6.644377982596874735E-33, 0.000000000000000000 ) ) ;
#89 = FACE_OUTER_BOUND ( 'NONE', #49, .T. ) ;
#90 = EDGE_LOOP ( 'NONE', ( #45, #263, #179, #205 ) ) ;
#91 = FILL_AREA_STYLE_COLOUR ( '', #275 ) ;
#92 = DIRECTION ( 'NONE',  ( -1.000000000000000000, -1.365923996832137279E-16, 0.000000000000000000 ) ) ;
#93 =( LENGTH_UNIT ( ) NAMED_UNIT ( * ) SI_UNIT ( $, .METRE. ) );
#94 = UNCERTAINTY_MEASURE_WITH_UNIT (LENGTH_MEASURE( 1.000000000000000082E-05 ), #30, 'distance_accuracy_value', 'NONE');
#95 = PRODUCT_DEFINITION ( 'UNKNOWN', '', #122, #218 ) ;
#96 =( LENGTH_UNIT ( ) NAMED_UNIT ( * ) SI_UNIT ( $, .METRE. ) );
#97 = SURFACE_STYLE_USAGE ( .BOTH. , #307 ) ;
#98 = EDGE_CURVE ( 'NONE', #17, #237, #74, .T. ) ;
#99 = AXIS2_PLACEMENT_3D ( 'NONE', #185, #286, #174 ) ;
#100 = PRODUCT_DEFINITION_SHAPE ( 'NONE', 'NONE',  #95 ) ;
#101 = COLOUR_RGB ( '',0.7921568627450980005, 0.8196078431372548767, 0.9333333333333333481 ) ;
#102 = STYLED_ITEM ( 'NONE', ( #195 ), #226 ) ;
#103 = DIMENSIONAL_EXPONENTS ( 1.000000000000000000, 0.000000000000000000, 0.000000000000000000, 0.000000000000000000, 0.000000000000000000, 0.000000000000000000, 0.000000000000000000 ) ;
#104 = DIRECTION ( 'NONE',  ( -0.7660444431189792347, 0.6427876096865379196, 0.000000000000000000 ) ) ;
#105 = VECTOR ( 'NONE', #295, 39.37007874015748143 ) ;
#106 = CARTESIAN_POINT ( 'NONE',  ( -0.06249999999999950734, 0.03566173432503415980, 0.000000000000000000 ) ) ;
#107 = CARTESIAN_POINT ( 'NONE',  ( 0.02000000000000000042, 0.000000000000000000, 2.449293598294706769E-18 ) ) ;
#108 = PRESENTATION_LAYER_ASSIGNMENT (  '', '', ( #146 ) ) ;
#109 = SURFACE_STYLE_FILL_AREA ( #212 ) ;
#110 = AXIS2_PLACEMENT_3D ( 'NONE', #141, #288, #71 ) ;
#111 = ORIENTED_EDGE ( 'NONE', *, *, #268, .F. ) ;
#112 = DIRECTION ( 'NONE',  ( -6.644377982596874735E-33, 1.000000000000000000, 0.000000000000000000 ) ) ;
#113 = APPLICATION_PROTOCOL_DEFINITION ( 'draft international standard', 'automotive_design', 1998, #21 ) ;
#114 =( NAMED_UNIT ( * ) PLANE_ANGLE_UNIT ( ) SI_UNIT ( $, .RADIAN. ) );
#115 = DIRECTION ( 'NONE',  ( -1.000000000000000000, -6.644377982596874735E-33, 0.000000000000000000 ) ) ;
#116 = PRESENTATION_STYLE_ASSIGNMENT (( #215 ) ) ;
#117 = AXIS2_PLACEMENT_3D ( 'NONE', #302, #184, #18 ) ;
#118 = DIRECTION ( 'NONE',  ( 1.203522985155330889E-16, -1.000000000000000000, 0.000000000000000000 ) ) ;
#119 =( NAMED_UNIT ( * ) PLANE_ANGLE_UNIT ( ) SI_UNIT ( $, .RADIAN. ) );
#120 = PLANE ( 'NONE',  #166 ) ;
#121 = EDGE_CURVE ( 'NONE', #183, #237, #224, .T. ) ;
#122 = PRODUCT_DEFINITION_FORMATION_WITH_SPECIFIED_SOURCE ( 'ANY', '', #243, .NOT_KNOWN. ) ;
#123 = EDGE_CURVE ( 'NONE', #183, #253, #245, .T. ) ;
#124 = DIRECTION ( 'NONE',  ( 6.644377982596874735E-33, -1.000000000000000000, -0.000000000000000000 ) ) ;
#125 = PRESENTATION_LAYER_ASSIGNMENT (  '', '', ( #173 ) ) ;
#126 = CONICAL_SURFACE ( 'NONE', #198, 0.02000000000000000042, 0.8726646259971666542 ) ;
#127 = SURFACE_SIDE_STYLE ('',( #249 ) ) ;
#128 = DIRECTION ( 'NONE',  ( 1.000000000000000000, 0.000000000000000000, 0.000000000000000000 ) ) ;
#129 = SURFACE_STYLE_USAGE ( .BOTH. , #127 ) ;
#130 = CLOSED_SHELL ( 'NONE', ( #226, #191, #244, #3 ) ) ;
#131 = AXIS2_PLACEMENT_3D ( 'NONE', #236, #118, #303 ) ;
#132 = MANIFOLD_SOLID_BREP ( 'Revolve - Cutting Edge', #130 ) ;
#133 = ORIENTED_EDGE ( 'NONE', *, *, #142, .F. ) ;
#134 = UNCERTAINTY_MEASURE_WITH_UNIT (LENGTH_MEASURE( 1.000000000000000082E-05 ), #172, 'distance_accuracy_value', 'NONE');
#135 = CARTESIAN_POINT ( 'NONE',  ( 6.123233995736763571E-17, 1.500000000000000222, 0.000000000000000000 ) ) ;
#136 = SURFACE_STYLE_USAGE ( .BOTH. , #59 ) ;
#137 = STYLED_ITEM ( 'NONE', ( #305 ), #191 ) ;
#138 = SHAPE_DEFINITION_REPRESENTATION ( #100, #25 ) ;
#139 = ORIENTED_EDGE ( 'NONE', *, *, #123, .T. ) ;
#140 = COLOUR_RGB ( '',1.000000000000000000, 0.000000000000000000, 0.000000000000000000 ) ;
#141 = CARTESIAN_POINT ( 'NONE',  ( 8.829551755123623592E-67, -1.328875596519374998E-34, 0.000000000000000000 ) ) ;
#142 = EDGE_CURVE ( 'NONE', #237, #17, #6, .T. ) ;
#143 = FILL_AREA_STYLE ('',( #269 ) ) ;
#144 =( LENGTH_UNIT ( ) NAMED_UNIT ( * ) SI_UNIT ( $, .METRE. ) );
#145 = CARTESIAN_POINT ( 'NONE',  ( 2.374688160355991503E-16, 0.03566173432503416674, 0.000000000000000000 ) ) ;
#146 = STYLED_ITEM ( 'NONE', ( #40 ), #175 ) ;
#147 = DIRECTION ( 'NONE',  ( -6.644377982596874735E-33, 1.000000000000000000, 0.000000000000000000 ) ) ;
#148 = SURFACE_STYLE_USAGE ( .BOTH. , #44 ) ;
#149 =( LENGTH_UNIT ( ) NAMED_UNIT ( * ) SI_UNIT ( $, .METRE. ) );
#150 =( LENGTH_UNIT ( ) NAMED_UNIT ( * ) SI_UNIT ( $, .METRE. ) );
#151 =( NAMED_UNIT ( * ) SI_UNIT ( $, .STERADIAN. ) SOLID_ANGLE_UNIT ( ) );
#152 = ORIENTED_EDGE ( 'NONE', *, *, #98, .T. ) ;
#153 = SURFACE_STYLE_FILL_AREA ( #258 ) ;
#154 = DIRECTION ( 'NONE',  ( -1.203522985155330889E-16, 1.000000000000000000, -0.000000000000000000 ) ) ;
#155 = ORIENTED_EDGE ( 'NONE', *, *, #98, .F. ) ;
#156 = FACE_OUTER_BOUND ( 'NONE', #304, .T. ) ;
#157 = ORIENTED_EDGE ( 'NONE', *, *, #81, .T. ) ;
#158 = DIRECTION ( 'NONE',  ( 6.644377982596874735E-33, -1.000000000000000000, -0.000000000000000000 ) ) ;
#159 = CARTESIAN_POINT ( 'NONE',  ( 2.374688160355991503E-16, 0.03566173432503416674, 0.000000000000000000 ) ) ;
#160 = ORIENTED_EDGE ( 'NONE', *, *, #86, .T. ) ;
#161 = FACE_OUTER_BOUND ( 'NONE', #70, .T. ) ;
#162 = AXIS2_PLACEMENT_3D ( 'NONE', #135, #154, #208 ) ;
#163 = CARTESIAN_POINT ( 'NONE',  ( -0.06249999999999997918, 0.03566173432503425000, 0.000000000000000000 ) ) ;
#164 = EDGE_CURVE ( 'NONE', #38, #289, #293, .T. ) ;
#165 = CARTESIAN_POINT ( 'NONE',  ( 4.414775877561811796E-67, -6.644377982596874991E-35, 0.000000000000000000 ) ) ;
#166 = AXIS2_PLACEMENT_3D ( 'NONE', #165, #124, #26 ) ;
#167 =( GEOMETRIC_REPRESENTATION_CONTEXT ( 3 ) GLOBAL_UNCERTAINTY_ASSIGNED_CONTEXT ( ( #285 ) ) GLOBAL_UNIT_ASSIGNED_CONTEXT ( ( #206, #68, #61 ) ) REPRESENTATION_CONTEXT ( 'NONE', 'WORKASPACE' ) );
#168 = DIMENSIONAL_EXPONENTS ( 1.000000000000000000, 0.000000000000000000, 0.000000000000000000, 0.000000000000000000, 0.000000000000000000, 0.000000000000000000, 0.000000000000000000 ) ;
#169 = DIRECTION ( 'NONE',  ( -1.000000000000000000, 0.000000000000000000, 0.000000000000000000 ) ) ;
#170 =( CONVERSION_BASED_UNIT ( 'INCH', #9 ) LENGTH_UNIT ( ) NAMED_UNIT ( #1 ) );
#171 = DIRECTION ( 'NONE',  ( -1.203522985155330889E-16, 1.000000000000000000, -0.000000000000000000 ) ) ;
#172 =( CONVERSION_BASED_UNIT ( 'INCH', #298 ) LENGTH_UNIT ( ) NAMED_UNIT ( #103 ) );
#173 = STYLED_ITEM ( 'NONE', ( #220 ), #132 ) ;
#174 = DIRECTION ( 'NONE',  ( 1.000000000000000000, 0.000000000000000000, 0.000000000000000000 ) ) ;
#175 = MANIFOLD_SOLID_BREP ( 'Revolve - Tool Body (Tipped Off)', #52 ) ;
#176 = CARTESIAN_POINT ( 'NONE',  ( 0.06249999999999997224, 1.500000000000000222, 7.654042494670942137E-18 ) ) ;
#177 = PLANE ( 'NONE',  #193 ) ;
#178 = FACE_OUTER_BOUND ( 'NONE', #90, .T. ) ;
#179 = ORIENTED_EDGE ( 'NONE', *, *, #164, .F. ) ;
#180 =( NAMED_UNIT ( * ) SI_UNIT ( $, .STERADIAN. ) SOLID_ANGLE_UNIT ( ) );
#181 = PRESENTATION_LAYER_ASSIGNMENT (  '', '', ( #257 ) ) ;
#182 = LENGTH_MEASURE_WITH_UNIT ( LENGTH_MEASURE( 0.02539999999999999897 ), #149 );
#183 = VERTEX_POINT ( 'NONE', #46 ) ;
#184 = DIRECTION ( 'NONE',  ( -1.203522985155330889E-16, 1.000000000000000000, -0.000000000000000000 ) ) ;
#185 = CARTESIAN_POINT ( 'NONE',  ( 0.000000000000000000, 0.000000000000000000, 0.000000000000000000 ) ) ;
#186 =( NAMED_UNIT ( * ) SI_UNIT ( $, .STERADIAN. ) SOLID_ANGLE_UNIT ( ) );
#187 = DIRECTION ( 'NONE',  ( -1.000000000000000000, -1.203522985155330889E-16, 0.000000000000000000 ) ) ;
#188 = EDGE_LOOP ( 'NONE', ( #72, #41, #160, #152 ) ) ;
#189 = AXIS2_PLACEMENT_3D ( 'NONE', #76, #77, #128 ) ;
#190 = CIRCLE ( 'NONE', #290, 0.06249999999999974326 ) ;
#191 = ADVANCED_FACE ( 'NONE', ( #156 ), #278, .T. ) ;
#192 = VECTOR ( 'NONE', #171, 39.37007874015748143 ) ;
#193 = AXIS2_PLACEMENT_3D ( 'NONE', #279, #51, #187 ) ;
#194 = CARTESIAN_POINT ( 'NONE',  ( -0.06249999999999985428, 1.500000000000000222, 0.000000000000000000 ) ) ;
#195 = PRESENTATION_STYLE_ASSIGNMENT (( #97 ) ) ;
#196 = LENGTH_MEASURE_WITH_UNIT ( LENGTH_MEASURE( 0.02539999999999999897 ), #31 );
#197 = STYLED_ITEM ( 'NONE', ( #116 ), #3 ) ;
#198 = AXIS2_PLACEMENT_3D ( 'NONE', #34, #277, #115 ) ;
#199 = ADVANCED_FACE ( 'NONE', ( #66 ), #177, .F. ) ;
#200 = DIRECTION ( 'NONE',  ( -1.203522985155330889E-16, 1.000000000000000000, -0.000000000000000000 ) ) ;
#201 = DIRECTION ( 'NONE',  ( 1.000000000000000000, 6.644377982596874735E-33, 0.000000000000000000 ) ) ;
#202 = PRESENTATION_LAYER_ASSIGNMENT (  '', '', ( #197 ) ) ;
#203 = AXIS2_PLACEMENT_3D ( 'NONE', #19, #69, #62 ) ;
#204 = EDGE_CURVE ( 'NONE', #253, #183, #227, .T. ) ;
#205 = ORIENTED_EDGE ( 'NONE', *, *, #81, .F. ) ;
#206 =( CONVERSION_BASED_UNIT ( 'INCH', #254 ) LENGTH_UNIT ( ) NAMED_UNIT ( #80 ) );
#207 = FILL_AREA_STYLE_COLOUR ( '', #84 ) ;
#208 = DIRECTION ( 'NONE',  ( -1.000000000000000000, 0.000000000000000000, 0.000000000000000000 ) ) ;
#209 = ORIENTED_EDGE ( 'NONE', *, *, #86, .F. ) ;
#210 = COLOUR_RGB ( '',0.7921568627450980005, 0.8196078431372548767, 0.9333333333333333481 ) ;
#211 = VECTOR ( 'NONE', #104, 39.37007874015748143 ) ;
#212 = FILL_AREA_STYLE ('',( #91 ) ) ;
#213 = SURFACE_SIDE_STYLE ('',( #47 ) ) ;
#214 = SURFACE_STYLE_FILL_AREA ( #23 ) ;
#215 = SURFACE_STYLE_USAGE ( .BOTH. , #213 ) ;
#216 = MECHANICAL_DESIGN_GEOMETRIC_PRESENTATION_REPRESENTATION (  '', ( #137 ), #167 ) ;
#217 = COLOUR_RGB ( '',1.000000000000000000, 0.000000000000000000, 0.000000000000000000 ) ;
#218 = PRODUCT_DEFINITION_CONTEXT ( 'detailed design', #21, 'design' ) ;
#219 = MECHANICAL_DESIGN_GEOMETRIC_PRESENTATION_REPRESENTATION (  '', ( #146 ), #11 ) ;
#220 = PRESENTATION_STYLE_ASSIGNMENT (( #129 ) ) ;
#221 = FACE_OUTER_BOUND ( 'NONE', #188, .T. ) ;
#222 = DIRECTION ( 'NONE',  ( -1.203522985155330889E-16, 1.000000000000000000, -0.000000000000000000 ) ) ;
#223 = DIMENSIONAL_EXPONENTS ( 1.000000000000000000, 0.000000000000000000, 0.000000000000000000, 0.000000000000000000, 0.000000000000000000, 0.000000000000000000, 0.000000000000000000 ) ;
#224 = LINE ( 'NONE', #107, #105 ) ;
#225 = SURFACE_STYLE_USAGE ( .BOTH. , #79 ) ;
#226 = ADVANCED_FACE ( 'NONE', ( #161 ), #75, .T. ) ;
#227 = CIRCLE ( 'NONE', #110, 0.02000000000000000042 ) ;
#228 = FILL_AREA_STYLE ('',( #5 ) ) ;
#229 = VERTEX_POINT ( 'NONE', #246 ) ;
#230 = PRESENTATION_LAYER_ASSIGNMENT (  '', '', ( #137 ) ) ;
#231 = PLANE ( 'NONE',  #131 ) ;
#232 = ORIENTED_EDGE ( 'NONE', *, *, #39, .F. ) ;
#233 = ORIENTED_EDGE ( 'NONE', *, *, #234, .T. ) ;
#234 = EDGE_CURVE ( 'NONE', #229, #65, #190, .T. ) ;
#235 =( CONVERSION_BASED_UNIT ( 'INCH', #299 ) LENGTH_UNIT ( ) NAMED_UNIT ( #8 ) );
#236 = CARTESIAN_POINT ( 'NONE',  ( 0.06249999999999997224, 1.500000000000000222, 0.000000000000000000 ) ) ;
#237 = VERTEX_POINT ( 'NONE', #294 ) ;
#238 = AXIS2_PLACEMENT_3D ( 'NONE', #56, #158, #276 ) ;
#239 = ORIENTED_EDGE ( 'NONE', *, *, #39, .T. ) ;
#240 = FILL_AREA_STYLE_COLOUR ( '', #140 ) ;
#241 =( GEOMETRIC_REPRESENTATION_CONTEXT ( 3 ) GLOBAL_UNCERTAINTY_ASSIGNED_CONTEXT ( ( #134 ) ) GLOBAL_UNIT_ASSIGNED_CONTEXT ( ( #172, #36, #151 ) ) REPRESENTATION_CONTEXT ( 'NONE', 'WORKASPACE' ) );
#242 = UNCERTAINTY_MEASURE_WITH_UNIT (LENGTH_MEASURE( 1.000000000000000082E-05 ), #235, 'distance_accuracy_value', 'NONE');
#243 = PRODUCT ( '84587', '84587', '', ( #280 ) ) ;
#244 = ADVANCED_FACE ( 'NONE', ( #221 ), #126, .T. ) ;
#245 = CIRCLE ( 'NONE', #32, 0.02000000000000000042 ) ;
#246 = CARTESIAN_POINT ( 'NONE',  ( 0.06249999999999999306, 0.03566173432503417368, 7.654042494670943678E-18 ) ) ;
#247 = MECHANICAL_DESIGN_GEOMETRIC_PRESENTATION_REPRESENTATION (  '', ( #257 ), #241 ) ;
#248 = DIMENSIONAL_EXPONENTS ( 1.000000000000000000, 0.000000000000000000, 0.000000000000000000, 0.000000000000000000, 0.000000000000000000, 0.000000000000000000, 0.000000000000000000 ) ;
#249 = SURFACE_STYLE_FILL_AREA ( #143 ) ;
#250 = DIRECTION ( 'NONE',  ( -1.203522985155330889E-16, 1.000000000000000000, -0.000000000000000000 ) ) ;
#251 = MECHANICAL_DESIGN_GEOMETRIC_PRESENTATION_REPRESENTATION (  '', ( #173 ), #296 ) ;
#252 = DIRECTION ( 'NONE',  ( -1.000000000000000000, -6.644377982596874735E-33, 0.000000000000000000 ) ) ;
#253 = VERTEX_POINT ( 'NONE', #16 ) ;
#254 = LENGTH_MEASURE_WITH_UNIT ( LENGTH_MEASURE( 0.02539999999999999897 ), #96 );
#255 =( NAMED_UNIT ( * ) PLANE_ANGLE_UNIT ( ) SI_UNIT ( $, .RADIAN. ) );
#256 = EDGE_LOOP ( 'NONE', ( #111, #300 ) ) ;
#257 = STYLED_ITEM ( 'NONE', ( #4 ), #244 ) ;
#258 = FILL_AREA_STYLE ('',( #260 ) ) ;
#259 = ORIENTED_EDGE ( 'NONE', *, *, #164, .T. ) ;
#260 = FILL_AREA_STYLE_COLOUR ( '', #101 ) ;
#261 = ADVANCED_FACE ( 'NONE', ( #89 ), #64, .T. ) ;
#262 =( NAMED_UNIT ( * ) SI_UNIT ( $, .STERADIAN. ) SOLID_ANGLE_UNIT ( ) );
#263 = ORIENTED_EDGE ( 'NONE', *, *, #67, .T. ) ;
#264 = ORIENTED_EDGE ( 'NONE', *, *, #204, .T. ) ;
#265 = AXIS2_PLACEMENT_3D ( 'NONE', #297, #250, #169 ) ;
#266 = CARTESIAN_POINT ( 'NONE',  ( 8.829551755123623592E-67, -1.328875596519374998E-34, 0.000000000000000000 ) ) ;
#267 = ADVANCED_FACE ( 'NONE', ( #283 ), #231, .F. ) ;
#268 = EDGE_CURVE ( 'NONE', #65, #229, #27, .T. ) ;
#269 = FILL_AREA_STYLE_COLOUR ( '', #210 ) ;
#270 = CARTESIAN_POINT ( 'NONE',  ( 0.06249999999999988898, 1.500000000000000222, 7.654042494670935974E-18 ) ) ;
#271 =( GEOMETRIC_REPRESENTATION_CONTEXT ( 3 ) GLOBAL_UNCERTAINTY_ASSIGNED_CONTEXT ( ( #291 ) ) GLOBAL_UNIT_ASSIGNED_CONTEXT ( ( #87, #119, #186 ) ) REPRESENTATION_CONTEXT ( 'NONE', 'WORKASPACE' ) );
#272 = SURFACE_STYLE_FILL_AREA ( #228 ) ;
#273 =( LENGTH_UNIT ( ) NAMED_UNIT ( * ) SI_UNIT ( $, .METRE. ) );
#274 = DIRECTION ( 'NONE',  ( 6.644377982596874735E-33, -1.000000000000000000, -0.000000000000000000 ) ) ;
#275 = COLOUR_RGB ( '',1.000000000000000000, 0.000000000000000000, 0.000000000000000000 ) ;
#276 = DIRECTION ( 'NONE',  ( 1.000000000000000000, 0.000000000000000000, 0.000000000000000000 ) ) ;
#277 = DIRECTION ( 'NONE',  ( -6.644377982596874735E-33, 1.000000000000000000, 0.000000000000000000 ) ) ;
#278 = PLANE ( 'NONE',  #53 ) ;
#279 = CARTESIAN_POINT ( 'NONE',  ( 2.374688160355991010E-16, 0.03566173432503425000, 0.000000000000000000 ) ) ;
#280 = PRODUCT_CONTEXT ( 'NONE', #7, 'mechanical' ) ;
#281 = ORIENTED_EDGE ( 'NONE', *, *, #142, .T. ) ;
#282 = MECHANICAL_DESIGN_GEOMETRIC_PRESENTATION_REPRESENTATION (  '', ( #102 ), #35 ) ;
#283 = FACE_OUTER_BOUND ( 'NONE', #284, .T. ) ;
#284 = EDGE_LOOP ( 'NONE', ( #259, #239 ) ) ;
#285 = UNCERTAINTY_MEASURE_WITH_UNIT (LENGTH_MEASURE( 1.000000000000000082E-05 ), #206, 'distance_accuracy_value', 'NONE');
#286 = DIRECTION ( 'NONE',  ( 0.000000000000000000, 0.000000000000000000, 1.000000000000000000 ) ) ;
#287 = ORIENTED_EDGE ( 'NONE', *, *, #67, .F. ) ;
#288 = DIRECTION ( 'NONE',  ( 6.644377982596874735E-33, -1.000000000000000000, -0.000000000000000000 ) ) ;
#289 = VERTEX_POINT ( 'NONE', #176 ) ;
#290 = AXIS2_PLACEMENT_3D ( 'NONE', #145, #222, #29 ) ;
#291 = UNCERTAINTY_MEASURE_WITH_UNIT (LENGTH_MEASURE( 1.000000000000000082E-05 ), #87, 'distance_accuracy_value', 'NONE');
#292 = ADVANCED_FACE ( 'NONE', ( #178 ), #14, .T. ) ;
#293 = CIRCLE ( 'NONE', #117, 0.06249999999999991673 ) ;
#294 = CARTESIAN_POINT ( 'NONE',  ( 0.06249999999999997918, 0.03566173432503425000, 7.654042494670956004E-18 ) ) ;
#295 = DIRECTION ( 'NONE',  ( 0.7660444431189792347, 0.6427876096865379196, 9.381338752702745572E-17 ) ) ;
#296 =( GEOMETRIC_REPRESENTATION_CONTEXT ( 3 ) GLOBAL_UNCERTAINTY_ASSIGNED_CONTEXT ( ( #94 ) ) GLOBAL_UNIT_ASSIGNED_CONTEXT ( ( #30, #33, #180 ) ) REPRESENTATION_CONTEXT ( 'NONE', 'WORKASPACE' ) );
#297 = CARTESIAN_POINT ( 'NONE',  ( 6.123233995736763571E-17, 1.500000000000000222, 0.000000000000000000 ) ) ;
#298 = LENGTH_MEASURE_WITH_UNIT ( LENGTH_MEASURE( 0.02539999999999999897 ), #273 );
#299 = LENGTH_MEASURE_WITH_UNIT ( LENGTH_MEASURE( 0.02539999999999999897 ), #150 );
#300 = ORIENTED_EDGE ( 'NONE', *, *, #234, .F. ) ;
#301 =( CONVERSION_BASED_UNIT ( 'INCH', #182 ) LENGTH_UNIT ( ) NAMED_UNIT ( #248 ) );
#302 = CARTESIAN_POINT ( 'NONE',  ( 6.123233995736763571E-17, 1.500000000000000222, 0.000000000000000000 ) ) ;
#303 = DIRECTION ( 'NONE',  ( 1.000000000000000000, 1.203522985155330889E-16, 0.000000000000000000 ) ) ;
#304 = EDGE_LOOP ( 'NONE', ( #155, #133 ) ) ;
#305 = PRESENTATION_STYLE_ASSIGNMENT (( #148 ) ) ;
#306 = FILL_AREA_STYLE ('',( #207 ) ) ;
#307 = SURFACE_SIDE_STYLE ('',( #214 ) ) ;
#308 = MECHANICAL_DESIGN_GEOMETRIC_PRESENTATION_REPRESENTATION (  '', ( #197 ), #271 ) ;
#309 = UNCERTAINTY_MEASURE_WITH_UNIT (LENGTH_MEASURE( 1.000000000000000082E-05 ), #170, 'distance_accuracy_value', 'NONE');
ENDSEC;
END-ISO-10303-21;
