ISO-10303-21;
HEADER;
FILE_DESCRIPTION (( 'STEP AP214' ),
    '1' );
FILE_NAME ('Micro_RSCM-100-2X.STEP',
    '2021-09-03T18:01:12',
    ( '' ),
    ( '' ),
    'SwSTEP 2.0',
    'SolidWorks 2020',
    '' );
FILE_SCHEMA (( 'AUTOMOTIVE_DESIGN' ));
ENDSEC;

DATA;
#1 = ADVANCED_FACE ( 'NONE', ( #235 ), #5, .T. ) ;
#2 = PRODUCT_DEFINITION_SHAPE ( 'NONE', 'NONE',  #140 ) ;
#3 = CARTESIAN_POINT ( 'NONE',  ( 0.0000000000000000000, 0.0000000000000000000, 0.3341359834659373140 ) ) ;
#4 = EDGE_LOOP ( 'NONE', ( #177, #89, #191, #166 ) ) ;
#5 = CONICAL_SURFACE ( 'NONE', #208, 0.003936999999999995191, 0.5235987755983005920 ) ;
#6 = LINE ( 'NONE', #157, #181 ) ;
#7 = VERTEX_POINT ( 'NONE', #183 ) ;
#8 = SURFACE_STYLE_USAGE ( .BOTH. , #82 ) ;
#9 = CARTESIAN_POINT ( 'NONE',  ( -0.003936999999999995191, -1.229468845918996354E-17, 2.834646000000000665 ) ) ;
#10 = CARTESIAN_POINT ( 'NONE',  ( 0.1968504999999999838, 2.410723347355560646E-17, 2.500510016534062796 ) ) ;
#11 = DIRECTION ( 'NONE',  ( -1.000000000000000000, 0.0000000000000000000, 0.0000000000000000000 ) ) ;
#12 = APPLICATION_CONTEXT ( 'automotive_design' ) ;
#13 = DIRECTION ( 'NONE',  ( 0.0000000000000000000, 0.0000000000000000000, 1.000000000000000000 ) ) ;
#14 = DIRECTION ( 'NONE',  ( 1.000000000000000000, 0.0000000000000000000, 0.0000000000000000000 ) ) ;
#15 = AXIS2_PLACEMENT_3D ( 'NONE', #103, #61, #164 ) ;
#16 = EDGE_CURVE ( 'NONE', #137, #135, #199, .T. ) ;
#17 = LINE ( 'NONE', #150, #201 ) ;
#18 = CARTESIAN_POINT ( 'NONE',  ( 0.0000000000000000000, 0.0000000000000000000, 0.0000000000000000000 ) ) ;
#19 = ORIENTED_EDGE ( 'NONE', *, *, #193, .T. ) ;
#20 = STYLED_ITEM ( 'NONE', ( #158 ), #88 ) ;
#21 = ADVANCED_FACE ( 'NONE', ( #138 ), #178, .F. ) ;
#22 = ORIENTED_EDGE ( 'NONE', *, *, #143, .F. ) ;
#23 = ORIENTED_EDGE ( 'NONE', *, *, #193, .F. ) ;
#24 = DIRECTION ( 'NONE',  ( 0.0000000000000000000, 0.0000000000000000000, -1.000000000000000000 ) ) ;
#25 = FACE_OUTER_BOUND ( 'NONE', #123, .T. ) ;
#26 =( NAMED_UNIT ( * ) SI_UNIT ( $, .STERADIAN. ) SOLID_ANGLE_UNIT ( ) );
#27 = CIRCLE ( 'NONE', #15, 0.003936999999999995191 ) ;
#28 = CARTESIAN_POINT ( 'NONE',  ( 0.0000000000000000000, 0.0000000000000000000, 2.500510016534062796 ) ) ;
#29 = DIRECTION ( 'NONE',  ( 1.000000000000000000, 0.0000000000000000000, -0.0000000000000000000 ) ) ;
#30 = CARTESIAN_POINT ( 'NONE',  ( 0.003936999999999995191, 0.0000000000000000000, 2.834646000000000665 ) ) ;
#31 = LINE ( 'NONE', #142, #95 ) ;
#32 = AXIS2_PLACEMENT_3D ( 'NONE', #62, #203, #29 ) ;
#33 = AXIS2_PLACEMENT_3D ( 'NONE', #3, #171, #130 ) ;
#34 = DIRECTION ( 'NONE',  ( -0.0000000000000000000, -0.0000000000000000000, -1.000000000000000000 ) ) ;
#35 = PRODUCT ( 'Micro_RSCM-100-2X', 'Micro_RSCM-100-2X', '', ( #42 ) ) ;
#36 = CLOSED_SHELL ( 'NONE', ( #1, #152, #241, #213, #186, #21, #133, #160 ) ) ;
#37 = CARTESIAN_POINT ( 'NONE',  ( 0.0000000000000000000, 0.0000000000000000000, 2.834646000000000665 ) ) ;
#38 = DIRECTION ( 'NONE',  ( -1.000000000000000000, 0.0000000000000000000, 0.0000000000000000000 ) ) ;
#39 = FILL_AREA_STYLE_COLOUR ( '', #149 ) ;
#40 = DIRECTION ( 'NONE',  ( 0.0000000000000000000, 0.0000000000000000000, -1.000000000000000000 ) ) ;
#41 = ORIENTED_EDGE ( 'NONE', *, *, #188, .T. ) ;
#42 = PRODUCT_CONTEXT ( 'NONE', #136, 'mechanical' ) ;
#43 = AXIS2_PLACEMENT_3D ( 'NONE', #18, #79, #98 ) ;
#44 = ORIENTED_EDGE ( 'NONE', *, *, #188, .F. ) ;
#45 = ORIENTED_EDGE ( 'NONE', *, *, #237, .F. ) ;
#46 = CARTESIAN_POINT ( 'NONE',  ( 0.0000000000000000000, 0.0000000000000000000, 2.834646000000000665 ) ) ;
#47 = CARTESIAN_POINT ( 'NONE',  ( 0.0000000000000000000, 0.0000000000000000000, 2.834646000000000665 ) ) ;
#48 = FILL_AREA_STYLE ('',( #39 ) ) ;
#49 = AXIS2_PLACEMENT_3D ( 'NONE', #28, #161, #236 ) ;
#50 = DIRECTION ( 'NONE',  ( -1.000000000000000000, 0.0000000000000000000, 0.0000000000000000000 ) ) ;
#51 =( CONVERSION_BASED_UNIT ( 'INCH', #205 ) LENGTH_UNIT ( ) NAMED_UNIT ( #190 ) );
#52 = DIRECTION ( 'NONE',  ( -0.0000000000000000000, -0.0000000000000000000, -1.000000000000000000 ) ) ;
#53 = DIMENSIONAL_EXPONENTS ( 1.000000000000000000, 0.0000000000000000000, 0.0000000000000000000, 0.0000000000000000000, 0.0000000000000000000, 0.0000000000000000000, 0.0000000000000000000 ) ;
#54 = AXIS2_PLACEMENT_3D ( 'NONE', #223, #13, #238 ) ;
#55 = DIMENSIONAL_EXPONENTS ( 1.000000000000000000, 0.0000000000000000000, 0.0000000000000000000, 0.0000000000000000000, 0.0000000000000000000, 0.0000000000000000000, 0.0000000000000000000 ) ;
#56 = CIRCLE ( 'NONE', #210, 0.003936999999999995191 ) ;
#57 = EDGE_LOOP ( 'NONE', ( #243, #141, #154, #172 ) ) ;
#58 = VERTEX_POINT ( 'NONE', #9 ) ;
#59 = CARTESIAN_POINT ( 'NONE',  ( 0.0000000000000000000, 0.0000000000000000000, 0.0000000000000000000 ) ) ;
#60 = CARTESIAN_POINT ( 'NONE',  ( -0.1968504999999999838, 0.0000000000000000000, 0.3341359834659373140 ) ) ;
#61 = DIRECTION ( 'NONE',  ( -0.0000000000000000000, -0.0000000000000000000, -1.000000000000000000 ) ) ;
#62 = CARTESIAN_POINT ( 'NONE',  ( 0.0000000000000000000, 0.0000000000000000000, 2.834646000000000665 ) ) ;
#63 = DIRECTION ( 'NONE',  ( 0.0000000000000000000, 0.0000000000000000000, -1.000000000000000000 ) ) ;
#64 =( LENGTH_UNIT ( ) NAMED_UNIT ( * ) SI_UNIT ( $, .METRE. ) );
#65 = VECTOR ( 'NONE', #76, 39.37007874015748854 ) ;
#66 = EDGE_CURVE ( 'NONE', #173, #99, #105, .T. ) ;
#67 = CIRCLE ( 'NONE', #102, 0.1968504999999999838 ) ;
#68 =( GEOMETRIC_REPRESENTATION_CONTEXT ( 3 ) GLOBAL_UNCERTAINTY_ASSIGNED_CONTEXT ( ( #104 ) ) GLOBAL_UNIT_ASSIGNED_CONTEXT ( ( #145, #234, #26 ) ) REPRESENTATION_CONTEXT ( 'NONE', 'WORKASPACE' ) );
#69 = ORIENTED_EDGE ( 'NONE', *, *, #229, .T. ) ;
#70 = MECHANICAL_DESIGN_GEOMETRIC_PRESENTATION_REPRESENTATION (  '', ( #134 ), #170 ) ;
#71 = EDGE_CURVE ( 'NONE', #135, #7, #230, .T. ) ;
#72 = DIRECTION ( 'NONE',  ( 1.000000000000000000, 0.0000000000000000000, 0.0000000000000000000 ) ) ;
#73 = ORIENTED_EDGE ( 'NONE', *, *, #66, .T. ) ;
#74 = FACE_OUTER_BOUND ( 'NONE', #4, .T. ) ;
#75 = FACE_OUTER_BOUND ( 'NONE', #114, .T. ) ;
#76 = DIRECTION ( 'NONE',  ( -0.5000000000000013323, 6.123233995736782060E-17, 0.8660254037844377084 ) ) ;
#77 = CARTESIAN_POINT ( 'NONE',  ( 0.1968504999999999838, 2.410723347355560646E-17, 0.3341359834659373140 ) ) ;
#78 = EDGE_LOOP ( 'NONE', ( #219, #41, #233, #23 ) ) ;
#79 = DIRECTION ( 'NONE',  ( 0.0000000000000000000, 0.0000000000000000000, 1.000000000000000000 ) ) ;
#80 = CARTESIAN_POINT ( 'NONE',  ( -0.003936999999999995191, 4.821434448243123477E-19, 0.0000000000000000000 ) ) ;
#81 = LINE ( 'NONE', #225, #232 ) ;
#82 = SURFACE_SIDE_STYLE ('',( #239 ) ) ;
#83 = CARTESIAN_POINT ( 'NONE',  ( 0.0000000000000000000, 0.0000000000000000000, 0.0000000000000000000 ) ) ;
#84 = DIRECTION ( 'NONE',  ( -0.0000000000000000000, -0.0000000000000000000, -1.000000000000000000 ) ) ;
#85 = CONICAL_SURFACE ( 'NONE', #167, 0.003936999999999995191, 0.5235987755983005920 ) ;
#86 = PRESENTATION_LAYER_ASSIGNMENT (  '', '', ( #20 ) ) ;
#87 = FACE_OUTER_BOUND ( 'NONE', #126, .T. ) ;
#88 = ADVANCED_BREP_SHAPE_REPRESENTATION ( 'Micro_RSCM-100-2X', ( #206, #194 ), #129 ) ;
#89 = ORIENTED_EDGE ( 'NONE', *, *, #71, .T. ) ;
#90 = DIRECTION ( 'NONE',  ( -0.0000000000000000000, -0.0000000000000000000, -1.000000000000000000 ) ) ;
#91 = FILL_AREA_STYLE ('',( #249 ) ) ;
#92 =( NAMED_UNIT ( * ) PLANE_ANGLE_UNIT ( ) SI_UNIT ( $, .RADIAN. ) );
#93 = COLOUR_RGB ( '',0.7921568627450980005, 0.8196078431372548767, 0.9333333333333333481 ) ;
#94 = LENGTH_MEASURE_WITH_UNIT ( LENGTH_MEASURE( 0.02539999999999999897 ), #113 );
#95 = VECTOR ( 'NONE', #240, 39.37007874015748854 ) ;
#96 = DIRECTION ( 'NONE',  ( 1.000000000000000000, 0.0000000000000000000, 0.0000000000000000000 ) ) ;
#97 = ORIENTED_EDGE ( 'NONE', *, *, #244, .T. ) ;
#98 = DIRECTION ( 'NONE',  ( 1.000000000000000000, 0.0000000000000000000, 0.0000000000000000000 ) ) ;
#99 = VERTEX_POINT ( 'NONE', #60 ) ;
#100 = DIRECTION ( 'NONE',  ( 0.0000000000000000000, 0.0000000000000000000, 1.000000000000000000 ) ) ;
#101 = CARTESIAN_POINT ( 'NONE',  ( 0.003936999999999995191, 0.0000000000000000000, 2.834646000000000665 ) ) ;
#102 = AXIS2_PLACEMENT_3D ( 'NONE', #214, #40, #187 ) ;
#103 = CARTESIAN_POINT ( 'NONE',  ( 0.0000000000000000000, 0.0000000000000000000, 0.0000000000000000000 ) ) ;
#104 = UNCERTAINTY_MEASURE_WITH_UNIT (LENGTH_MEASURE( 1.000000000000000082E-05 ), #145, 'distance_accuracy_value', 'NONE');
#105 = LINE ( 'NONE', #80, #65 ) ;
#106 =( NAMED_UNIT ( * ) PLANE_ANGLE_UNIT ( ) SI_UNIT ( $, .RADIAN. ) );
#107 = CONICAL_SURFACE ( 'NONE', #169, 0.003936999999999995191, 0.5235987755983005920 ) ;
#108 = PRODUCT_DEFINITION_FORMATION_WITH_SPECIFIED_SOURCE ( 'ANY', '', #35, .NOT_KNOWN. ) ;
#109 = EDGE_CURVE ( 'NONE', #173, #117, #27, .T. ) ;
#110 = AXIS2_PLACEMENT_3D ( 'NONE', #37, #90, #38 ) ;
#111 = MECHANICAL_DESIGN_GEOMETRIC_PRESENTATION_REPRESENTATION (  '', ( #20 ), #68 ) ;
#112 = EDGE_CURVE ( 'NONE', #137, #58, #218, .T. ) ;
#113 =( LENGTH_UNIT ( ) NAMED_UNIT ( * ) SI_UNIT ( $, .METRE. ) );
#114 = EDGE_LOOP ( 'NONE', ( #215, #44 ) ) ;
#115 = APPLICATION_PROTOCOL_DEFINITION ( 'draft international standard', 'automotive_design', 1998, #12 ) ;
#116 = DIRECTION ( 'NONE',  ( -0.0000000000000000000, -0.0000000000000000000, -1.000000000000000000 ) ) ;
#117 = VERTEX_POINT ( 'NONE', #146 ) ;
#118 = SURFACE_STYLE_USAGE ( .BOTH. , #120 ) ;
#119 = EDGE_LOOP ( 'NONE', ( #184, #231 ) ) ;
#120 = SURFACE_SIDE_STYLE ('',( #212 ) ) ;
#121 =( LENGTH_UNIT ( ) NAMED_UNIT ( * ) SI_UNIT ( $, .METRE. ) );
#122 = CARTESIAN_POINT ( 'NONE',  ( -0.003936999999999995191, 1.229468845918995738E-17, 0.0000000000000000000 ) ) ;
#123 = EDGE_LOOP ( 'NONE', ( #19, #131, #45, #159 ) ) ;
#124 = DIRECTION ( 'NONE',  ( 0.0000000000000000000, 0.0000000000000000000, 1.000000000000000000 ) ) ;
#125 = CONICAL_SURFACE ( 'NONE', #43, 0.003936999999999995191, 0.5235987755983005920 ) ;
#126 = EDGE_LOOP ( 'NONE', ( #180, #73, #195, #196 ) ) ;
#127 =( CONVERSION_BASED_UNIT ( 'INCH', #202 ) LENGTH_UNIT ( ) NAMED_UNIT ( #55 ) );
#128 = AXIS2_PLACEMENT_3D ( 'NONE', #83, #207, #228 ) ;
#129 =( GEOMETRIC_REPRESENTATION_CONTEXT ( 3 ) GLOBAL_UNCERTAINTY_ASSIGNED_CONTEXT ( ( #132 ) ) GLOBAL_UNIT_ASSIGNED_CONTEXT ( ( #51, #106, #185 ) ) REPRESENTATION_CONTEXT ( 'NONE', 'WORKASPACE' ) );
#130 = DIRECTION ( 'NONE',  ( -1.000000000000000000, 0.0000000000000000000, 0.0000000000000000000 ) ) ;
#131 = ORIENTED_EDGE ( 'NONE', *, *, #248, .T. ) ;
#132 = UNCERTAINTY_MEASURE_WITH_UNIT (LENGTH_MEASURE( 1.000000000000000082E-05 ), #51, 'distance_accuracy_value', 'NONE');
#133 = ADVANCED_FACE ( 'NONE', ( #224 ), #85, .T. ) ;
#134 = STYLED_ITEM ( 'NONE', ( #179 ), #206 ) ;
#135 = VERTEX_POINT ( 'NONE', #10 ) ;
#136 = APPLICATION_CONTEXT ( 'automotive_design' ) ;
#137 = VERTEX_POINT ( 'NONE', #30 ) ;
#138 = FACE_OUTER_BOUND ( 'NONE', #119, .T. ) ;
#139 = PRESENTATION_LAYER_ASSIGNMENT (  '', '', ( #134 ) ) ;
#140 = PRODUCT_DEFINITION ( 'UNKNOWN', '', #108, #209 ) ;
#141 = ORIENTED_EDGE ( 'NONE', *, *, #222, .T. ) ;
#142 = CARTESIAN_POINT ( 'NONE',  ( 0.003936999999999995191, 0.0000000000000000000, 0.0000000000000000000 ) ) ;
#143 = EDGE_CURVE ( 'NONE', #117, #173, #189, .T. ) ;
#144 = DIRECTION ( 'NONE',  ( 0.5000000000000013323, 0.0000000000000000000, -0.8660254037844377084 ) ) ;
#145 =( CONVERSION_BASED_UNIT ( 'INCH', #94 ) LENGTH_UNIT ( ) NAMED_UNIT ( #53 ) );
#146 = CARTESIAN_POINT ( 'NONE',  ( 0.003936999999999995191, 0.0000000000000000000, 0.0000000000000000000 ) ) ;
#147 = CARTESIAN_POINT ( 'NONE',  ( 0.0000000000000000000, 0.0000000000000000000, 0.3341359834659373140 ) ) ;
#148 = CIRCLE ( 'NONE', #33, 0.1968504999999999838 ) ;
#149 = COLOUR_RGB ( '',0.7921568627450980005, 0.8196078431372548767, 0.9333333333333333481 ) ;
#150 = CARTESIAN_POINT ( 'NONE',  ( 0.1968504999999999838, 2.410723347355560646E-17, 2.834646000000000665 ) ) ;
#151 = AXIS2_PLACEMENT_3D ( 'NONE', #221, #63, #50 ) ;
#152 = ADVANCED_FACE ( 'NONE', ( #87 ), #125, .T. ) ;
#153 = VERTEX_POINT ( 'NONE', #77 ) ;
#154 = ORIENTED_EDGE ( 'NONE', *, *, #71, .F. ) ;
#155 = EDGE_LOOP ( 'NONE', ( #211, #22, #97, #69 ) ) ;
#156 = AXIS2_PLACEMENT_3D ( 'NONE', #227, #84, #11 ) ;
#157 = CARTESIAN_POINT ( 'NONE',  ( -0.1968504999999999838, 0.0000000000000000000, 2.834646000000000665 ) ) ;
#158 = PRESENTATION_STYLE_ASSIGNMENT (( #118 ) ) ;
#159 = ORIENTED_EDGE ( 'NONE', *, *, #192, .F. ) ;
#160 = ADVANCED_FACE ( 'NONE', ( #75 ), #162, .T. ) ;
#161 = DIRECTION ( 'NONE',  ( 0.0000000000000000000, 0.0000000000000000000, -1.000000000000000000 ) ) ;
#162 = PLANE ( 'NONE',  #32 ) ;
#163 = DIRECTION ( 'NONE',  ( 0.0000000000000000000, 0.0000000000000000000, -1.000000000000000000 ) ) ;
#164 = DIRECTION ( 'NONE',  ( -1.000000000000000000, 0.0000000000000000000, 0.0000000000000000000 ) ) ;
#165 = DIRECTION ( 'NONE',  ( -1.000000000000000000, 0.0000000000000000000, 0.0000000000000000000 ) ) ;
#166 = ORIENTED_EDGE ( 'NONE', *, *, #229, .F. ) ;
#167 = AXIS2_PLACEMENT_3D ( 'NONE', #197, #24, #204 ) ;
#168 =( NAMED_UNIT ( * ) SI_UNIT ( $, .STERADIAN. ) SOLID_ANGLE_UNIT ( ) );
#169 = AXIS2_PLACEMENT_3D ( 'NONE', #59, #100, #96 ) ;
#170 =( GEOMETRIC_REPRESENTATION_CONTEXT ( 3 ) GLOBAL_UNCERTAINTY_ASSIGNED_CONTEXT ( ( #247 ) ) GLOBAL_UNIT_ASSIGNED_CONTEXT ( ( #127, #92, #168 ) ) REPRESENTATION_CONTEXT ( 'NONE', 'WORKASPACE' ) );
#171 = DIRECTION ( 'NONE',  ( -0.0000000000000000000, -0.0000000000000000000, -1.000000000000000000 ) ) ;
#172 = ORIENTED_EDGE ( 'NONE', *, *, #16, .F. ) ;
#173 = VERTEX_POINT ( 'NONE', #122 ) ;
#174 = PRODUCT_RELATED_PRODUCT_CATEGORY ( 'part', '', ( #35 ) ) ;
#175 = DIRECTION ( 'NONE',  ( 0.0000000000000000000, 0.0000000000000000000, -1.000000000000000000 ) ) ;
#176 = CIRCLE ( 'NONE', #226, 0.1968504999999999838 ) ;
#177 = ORIENTED_EDGE ( 'NONE', *, *, #248, .F. ) ;
#178 = PLANE ( 'NONE',  #54 ) ;
#179 = PRESENTATION_STYLE_ASSIGNMENT (( #8 ) ) ;
#180 = ORIENTED_EDGE ( 'NONE', *, *, #109, .F. ) ;
#181 = VECTOR ( 'NONE', #116, 39.37007874015748143 ) ;
#182 = CARTESIAN_POINT ( 'NONE',  ( 0.0000000000000000000, 0.0000000000000000000, 0.0000000000000000000 ) ) ;
#183 = CARTESIAN_POINT ( 'NONE',  ( -0.1968504999999999838, 0.0000000000000000000, 2.500510016534062796 ) ) ;
#184 = ORIENTED_EDGE ( 'NONE', *, *, #143, .T. ) ;
#185 =( NAMED_UNIT ( * ) SI_UNIT ( $, .STERADIAN. ) SOLID_ANGLE_UNIT ( ) );
#186 = ADVANCED_FACE ( 'NONE', ( #217 ), #107, .T. ) ;
#187 = DIRECTION ( 'NONE',  ( -1.000000000000000000, 0.0000000000000000000, 0.0000000000000000000 ) ) ;
#188 = EDGE_CURVE ( 'NONE', #58, #137, #56, .T. ) ;
#189 = CIRCLE ( 'NONE', #128, 0.003936999999999995191 ) ;
#190 = DIMENSIONAL_EXPONENTS ( 1.000000000000000000, 0.0000000000000000000, 0.0000000000000000000, 0.0000000000000000000, 0.0000000000000000000, 0.0000000000000000000, 0.0000000000000000000 ) ;
#191 = ORIENTED_EDGE ( 'NONE', *, *, #192, .T. ) ;
#192 = EDGE_CURVE ( 'NONE', #7, #99, #6, .T. ) ;
#193 = EDGE_CURVE ( 'NONE', #7, #135, #67, .T. ) ;
#194 = AXIS2_PLACEMENT_3D ( 'NONE', #182, #124, #72 ) ;
#195 = ORIENTED_EDGE ( 'NONE', *, *, #237, .T. ) ;
#196 = ORIENTED_EDGE ( 'NONE', *, *, #244, .F. ) ;
#197 = CARTESIAN_POINT ( 'NONE',  ( 0.0000000000000000000, 0.0000000000000000000, 2.834646000000000665 ) ) ;
#198 = DIRECTION ( 'NONE',  ( -1.000000000000000000, 0.0000000000000000000, 0.0000000000000000000 ) ) ;
#199 = LINE ( 'NONE', #101, #242 ) ;
#200 = SHAPE_DEFINITION_REPRESENTATION ( #2, #88 ) ;
#201 = VECTOR ( 'NONE', #52, 39.37007874015748143 ) ;
#202 = LENGTH_MEASURE_WITH_UNIT ( LENGTH_MEASURE( 0.02539999999999999897 ), #121 );
#203 = DIRECTION ( 'NONE',  ( 0.0000000000000000000, 0.0000000000000000000, 1.000000000000000000 ) ) ;
#204 = DIRECTION ( 'NONE',  ( 1.000000000000000000, 0.0000000000000000000, 0.0000000000000000000 ) ) ;
#205 = LENGTH_MEASURE_WITH_UNIT ( LENGTH_MEASURE( 0.02539999999999999897 ), #64 );
#206 = MANIFOLD_SOLID_BREP ( 'Mirror1', #36 ) ;
#207 = DIRECTION ( 'NONE',  ( -0.0000000000000000000, -0.0000000000000000000, -1.000000000000000000 ) ) ;
#208 = AXIS2_PLACEMENT_3D ( 'NONE', #47, #163, #14 ) ;
#209 = PRODUCT_DEFINITION_CONTEXT ( 'detailed design', #12, 'design' ) ;
#210 = AXIS2_PLACEMENT_3D ( 'NONE', #46, #175, #198 ) ;
#211 = ORIENTED_EDGE ( 'NONE', *, *, #66, .F. ) ;
#212 = SURFACE_STYLE_FILL_AREA ( #48 ) ;
#213 = ADVANCED_FACE ( 'NONE', ( #74 ), #220, .T. ) ;
#214 = CARTESIAN_POINT ( 'NONE',  ( 0.0000000000000000000, 0.0000000000000000000, 2.500510016534062796 ) ) ;
#215 = ORIENTED_EDGE ( 'NONE', *, *, #112, .F. ) ;
#216 = APPLICATION_PROTOCOL_DEFINITION ( 'draft international standard', 'automotive_design', 1998, #136 ) ;
#217 = FACE_OUTER_BOUND ( 'NONE', #155, .T. ) ;
#218 = CIRCLE ( 'NONE', #151, 0.003936999999999995191 ) ;
#219 = ORIENTED_EDGE ( 'NONE', *, *, #222, .F. ) ;
#220 = CYLINDRICAL_SURFACE ( 'NONE', #110, 0.1968504999999999838 ) ;
#221 = CARTESIAN_POINT ( 'NONE',  ( 0.0000000000000000000, 0.0000000000000000000, 2.834646000000000665 ) ) ;
#222 = EDGE_CURVE ( 'NONE', #58, #7, #81, .T. ) ;
#223 = CARTESIAN_POINT ( 'NONE',  ( 0.0000000000000000000, 0.0000000000000000000, 0.0000000000000000000 ) ) ;
#224 = FACE_OUTER_BOUND ( 'NONE', #78, .T. ) ;
#225 = CARTESIAN_POINT ( 'NONE',  ( -0.003936999999999995191, -4.821434448243123477E-19, 2.834646000000000665 ) ) ;
#226 = AXIS2_PLACEMENT_3D ( 'NONE', #147, #34, #165 ) ;
#227 = CARTESIAN_POINT ( 'NONE',  ( 0.0000000000000000000, 0.0000000000000000000, 2.834646000000000665 ) ) ;
#228 = DIRECTION ( 'NONE',  ( -1.000000000000000000, 0.0000000000000000000, 0.0000000000000000000 ) ) ;
#229 = EDGE_CURVE ( 'NONE', #153, #99, #148, .T. ) ;
#230 = CIRCLE ( 'NONE', #49, 0.1968504999999999838 ) ;
#231 = ORIENTED_EDGE ( 'NONE', *, *, #109, .T. ) ;
#232 = VECTOR ( 'NONE', #246, 39.37007874015748854 ) ;
#233 = ORIENTED_EDGE ( 'NONE', *, *, #16, .T. ) ;
#234 =( NAMED_UNIT ( * ) PLANE_ANGLE_UNIT ( ) SI_UNIT ( $, .RADIAN. ) );
#235 = FACE_OUTER_BOUND ( 'NONE', #57, .T. ) ;
#236 = DIRECTION ( 'NONE',  ( -1.000000000000000000, 0.0000000000000000000, 0.0000000000000000000 ) ) ;
#237 = EDGE_CURVE ( 'NONE', #99, #153, #176, .T. ) ;
#238 = DIRECTION ( 'NONE',  ( 1.000000000000000000, 0.0000000000000000000, -0.0000000000000000000 ) ) ;
#239 = SURFACE_STYLE_FILL_AREA ( #91 ) ;
#240 = DIRECTION ( 'NONE',  ( 0.5000000000000013323, 0.0000000000000000000, 0.8660254037844377084 ) ) ;
#241 = ADVANCED_FACE ( 'NONE', ( #25 ), #245, .T. ) ;
#242 = VECTOR ( 'NONE', #144, 39.37007874015748854 ) ;
#243 = ORIENTED_EDGE ( 'NONE', *, *, #112, .T. ) ;
#244 = EDGE_CURVE ( 'NONE', #117, #153, #31, .T. ) ;
#245 = CYLINDRICAL_SURFACE ( 'NONE', #156, 0.1968504999999999838 ) ;
#246 = DIRECTION ( 'NONE',  ( -0.5000000000000013323, -6.123233995736782060E-17, -0.8660254037844377084 ) ) ;
#247 = UNCERTAINTY_MEASURE_WITH_UNIT (LENGTH_MEASURE( 1.000000000000000082E-05 ), #127, 'distance_accuracy_value', 'NONE');
#248 = EDGE_CURVE ( 'NONE', #135, #153, #17, .T. ) ;
#249 = FILL_AREA_STYLE_COLOUR ( '', #93 ) ;
ENDSEC;
END-ISO-10303-21;
