ISO-10303-21;
HEADER;
FILE_DESCRIPTION (( 'STEP AP214' ),
    '1' );
FILE_NAME ('Micro_RTC-250-220X.STEP',
    '2021-09-03T18:11:17',
    ( '' ),
    ( '' ),
    'SwSTEP 2.0',
    'SolidWorks 2020',
    '' );
FILE_SCHEMA (( 'AUTOMOTIVE_DESIGN' ));
ENDSEC;

DATA;
#1 = CARTESIAN_POINT ( 'NONE',  ( 0.0000000000000000000, 0.0000000000000000000, 2.500000000000000000 ) ) ;
#2 = SURFACE_STYLE_USAGE ( .BOTH. , #77 ) ;
#3 =( CONVERSION_BASED_UNIT ( 'INCH', #121 ) LENGTH_UNIT ( ) NAMED_UNIT ( #181 ) );
#4 = FILL_AREA_STYLE ('',( #216 ) ) ;
#5 = ORIENTED_EDGE ( 'NONE', *, *, #188, .T. ) ;
#6 = CIRCLE ( 'NONE', #84, 0.1250000000000000000 ) ;
#7 = DIRECTION ( 'NONE',  ( 0.0000000000000000000, 0.0000000000000000000, -1.000000000000000000 ) ) ;
#8 = CARTESIAN_POINT ( 'NONE',  ( 0.0000000000000000000, 0.0000000000000000000, 0.0000000000000000000 ) ) ;
#9 = EDGE_CURVE ( 'NONE', #90, #74, #87, .T. ) ;
#10 = EDGE_LOOP ( 'NONE', ( #226, #182 ) ) ;
#11 =( GEOMETRIC_REPRESENTATION_CONTEXT ( 3 ) GLOBAL_UNCERTAINTY_ASSIGNED_CONTEXT ( ( #132 ) ) GLOBAL_UNIT_ASSIGNED_CONTEXT ( ( #3, #44, #26 ) ) REPRESENTATION_CONTEXT ( 'NONE', 'WORKASPACE' ) );
#12 = ORIENTED_EDGE ( 'NONE', *, *, #81, .F. ) ;
#13 = EDGE_CURVE ( 'NONE', #74, #127, #230, .T. ) ;
#14 = AXIS2_PLACEMENT_3D ( 'NONE', #42, #154, #119 ) ;
#15 = STYLED_ITEM ( 'NONE', ( #147 ), #64 ) ;
#16 = DIRECTION ( 'NONE',  ( 0.0000000000000000000, 0.0000000000000000000, -1.000000000000000000 ) ) ;
#17 = CARTESIAN_POINT ( 'NONE',  ( 0.0000000000000000000, 0.0000000000000000000, 0.0000000000000000000 ) ) ;
#18 =( LENGTH_UNIT ( ) NAMED_UNIT ( * ) SI_UNIT ( $, .METRE. ) );
#19 = CARTESIAN_POINT ( 'NONE',  ( -0.01000000000000000021, 8.266365894244632793E-18, 0.0000000000000000000 ) ) ;
#20 = AXIS2_PLACEMENT_3D ( 'NONE', #234, #83, #249 ) ;
#21 = SURFACE_STYLE_FILL_AREA ( #37 ) ;
#22 = EDGE_LOOP ( 'NONE', ( #54, #139, #31, #184 ) ) ;
#23 = CYLINDRICAL_SURFACE ( 'NONE', #212, 0.1250000000000000000 ) ;
#24 =( GEOMETRIC_REPRESENTATION_CONTEXT ( 3 ) GLOBAL_UNCERTAINTY_ASSIGNED_CONTEXT ( ( #228 ) ) GLOBAL_UNIT_ASSIGNED_CONTEXT ( ( #185, #217, #86 ) ) REPRESENTATION_CONTEXT ( 'NONE', 'WORKASPACE' ) );
#25 = CARTESIAN_POINT ( 'NONE',  ( 0.0000000000000000000, 0.0000000000000000000, 2.500000000000000000 ) ) ;
#26 =( NAMED_UNIT ( * ) SI_UNIT ( $, .STERADIAN. ) SOLID_ANGLE_UNIT ( ) );
#27 = CARTESIAN_POINT ( 'NONE',  ( 0.0000000000000000000, 0.0000000000000000000, 0.4291858428704192763 ) ) ;
#28 = ORIENTED_EDGE ( 'NONE', *, *, #210, .F. ) ;
#29 = ORIENTED_EDGE ( 'NONE', *, *, #40, .F. ) ;
#30 = VERTEX_POINT ( 'NONE', #206 ) ;
#31 = ORIENTED_EDGE ( 'NONE', *, *, #210, .T. ) ;
#32 = CIRCLE ( 'NONE', #80, 0.1250000000000000000 ) ;
#33 = ADVANCED_FACE ( 'NONE', ( #163 ), #53, .T. ) ;
#34 = CARTESIAN_POINT ( 'NONE',  ( 0.1250000000000000000, 1.530808498934191509E-17, 0.4291858428704192763 ) ) ;
#35 = VECTOR ( 'NONE', #137, 39.37007874015748143 ) ;
#36 = ADVANCED_FACE ( 'NONE', ( #69 ), #143, .T. ) ;
#37 = FILL_AREA_STYLE ('',( #191 ) ) ;
#38 =( CONVERSION_BASED_UNIT ( 'INCH', #60 ) LENGTH_UNIT ( ) NAMED_UNIT ( #205 ) );
#39 = UNCERTAINTY_MEASURE_WITH_UNIT (LENGTH_MEASURE( 1.000000000000000082E-05 ), #38, 'distance_accuracy_value', 'NONE');
#40 = EDGE_CURVE ( 'NONE', #52, #127, #240, .T. ) ;
#41 = AXIS2_PLACEMENT_3D ( 'NONE', #1, #116, #232 ) ;
#42 = CARTESIAN_POINT ( 'NONE',  ( 0.0000000000000000000, 0.0000000000000000000, 0.0000000000000000000 ) ) ;
#43 = SHAPE_DEFINITION_REPRESENTATION ( #161, #108 ) ;
#44 =( NAMED_UNIT ( * ) PLANE_ANGLE_UNIT ( ) SI_UNIT ( $, .RADIAN. ) );
#45 = ORIENTED_EDGE ( 'NONE', *, *, #165, .T. ) ;
#46 = EDGE_CURVE ( 'NONE', #52, #170, #209, .T. ) ;
#47 = ORIENTED_EDGE ( 'NONE', *, *, #40, .T. ) ;
#48 = DIRECTION ( 'NONE',  ( 0.2588190451025216832, 0.0000000000000000000, -0.9659258262890679791 ) ) ;
#49 = SURFACE_STYLE_FILL_AREA ( #4 ) ;
#50 = ORIENTED_EDGE ( 'NONE', *, *, #9, .T. ) ;
#51 = DIRECTION ( 'NONE',  ( -1.000000000000000000, 0.0000000000000000000, 0.0000000000000000000 ) ) ;
#52 = VERTEX_POINT ( 'NONE', #19 ) ;
#53 = CONICAL_SURFACE ( 'NONE', #68, 0.01000000000000000021, 0.2617993877991502960 ) ;
#54 = ORIENTED_EDGE ( 'NONE', *, *, #186, .F. ) ;
#55 = VERTEX_POINT ( 'NONE', #213 ) ;
#56 = FACE_OUTER_BOUND ( 'NONE', #22, .T. ) ;
#57 = PRESENTATION_LAYER_ASSIGNMENT (  '', '', ( #231 ) ) ;
#58 = DIRECTION ( 'NONE',  ( 0.0000000000000000000, 0.0000000000000000000, -1.000000000000000000 ) ) ;
#59 = EDGE_CURVE ( 'NONE', #55, #180, #92, .T. ) ;
#60 = LENGTH_MEASURE_WITH_UNIT ( LENGTH_MEASURE( 0.02539999999999999897 ), #155 );
#61 = CLOSED_SHELL ( 'NONE', ( #36, #101, #220, #67, #33, #94, #237, #248 ) ) ;
#62 = COLOUR_RGB ( '',0.7921568627450980005, 0.8196078431372548767, 0.9333333333333333481 ) ;
#63 = LINE ( 'NONE', #134, #35 ) ;
#64 = MANIFOLD_SOLID_BREP ( 'Mirror1', #61 ) ;
#65 = DIRECTION ( 'NONE',  ( -0.0000000000000000000, -0.0000000000000000000, -1.000000000000000000 ) ) ;
#66 = PLANE ( 'NONE',  #198 ) ;
#67 = ADVANCED_FACE ( 'NONE', ( #211 ), #235, .T. ) ;
#68 = AXIS2_PLACEMENT_3D ( 'NONE', #183, #239, #204 ) ;
#69 = FACE_OUTER_BOUND ( 'NONE', #176, .T. ) ;
#70 = FACE_OUTER_BOUND ( 'NONE', #144, .T. ) ;
#71 = DIRECTION ( 'NONE',  ( -0.2588190451025216832, 3.169619151431776035E-17, 0.9659258262890679791 ) ) ;
#72 = CARTESIAN_POINT ( 'NONE',  ( -0.01000000000000000021, 1.224646799147353384E-18, 0.0000000000000000000 ) ) ;
#73 = AXIS2_PLACEMENT_3D ( 'NONE', #97, #114, #135 ) ;
#74 = VERTEX_POINT ( 'NONE', #34 ) ;
#75 = AXIS2_PLACEMENT_3D ( 'NONE', #159, #200, #106 ) ;
#76 = DIRECTION ( 'NONE',  ( 0.0000000000000000000, 0.0000000000000000000, -1.000000000000000000 ) ) ;
#77 = SURFACE_SIDE_STYLE ('',( #21 ) ) ;
#78 = CARTESIAN_POINT ( 'NONE',  ( -0.1250000000000000000, 0.0000000000000000000, 0.4291858428704192763 ) ) ;
#79 = CARTESIAN_POINT ( 'NONE',  ( 0.01000000000000000021, 0.0000000000000000000, 0.0000000000000000000 ) ) ;
#80 = AXIS2_PLACEMENT_3D ( 'NONE', #149, #100, #96 ) ;
#81 = EDGE_CURVE ( 'NONE', #90, #30, #6, .T. ) ;
#82 =( NAMED_UNIT ( * ) PLANE_ANGLE_UNIT ( ) SI_UNIT ( $, .RADIAN. ) );
#83 = DIRECTION ( 'NONE',  ( 0.0000000000000000000, 0.0000000000000000000, -1.000000000000000000 ) ) ;
#84 = AXIS2_PLACEMENT_3D ( 'NONE', #246, #58, #117 ) ;
#85 = EDGE_CURVE ( 'NONE', #170, #74, #189, .T. ) ;
#86 =( NAMED_UNIT ( * ) SI_UNIT ( $, .STERADIAN. ) SOLID_ANGLE_UNIT ( ) );
#87 = LINE ( 'NONE', #201, #91 ) ;
#88 = PRODUCT_RELATED_PRODUCT_CATEGORY ( 'part', '', ( #157 ) ) ;
#89 = DIRECTION ( 'NONE',  ( 1.000000000000000000, 0.0000000000000000000, 0.0000000000000000000 ) ) ;
#90 = VERTEX_POINT ( 'NONE', #194 ) ;
#91 = VECTOR ( 'NONE', #109, 39.37007874015748143 ) ;
#92 = CIRCLE ( 'NONE', #20, 0.01000000000000000021 ) ;
#93 = ORIENTED_EDGE ( 'NONE', *, *, #110, .F. ) ;
#94 = ADVANCED_FACE ( 'NONE', ( #190 ), #66, .F. ) ;
#95 = CARTESIAN_POINT ( 'NONE',  ( 0.0000000000000000000, 0.0000000000000000000, 0.0000000000000000000 ) ) ;
#96 = DIRECTION ( 'NONE',  ( -1.000000000000000000, 0.0000000000000000000, 0.0000000000000000000 ) ) ;
#97 = CARTESIAN_POINT ( 'NONE',  ( 0.0000000000000000000, 0.0000000000000000000, 2.500000000000000000 ) ) ;
#98 = CONICAL_SURFACE ( 'NONE', #162, 0.01000000000000000021, 0.2617993877991502960 ) ;
#99 = DIRECTION ( 'NONE',  ( 1.000000000000000000, 0.0000000000000000000, -0.0000000000000000000 ) ) ;
#100 = DIRECTION ( 'NONE',  ( -0.0000000000000000000, -0.0000000000000000000, -1.000000000000000000 ) ) ;
#101 = ADVANCED_FACE ( 'NONE', ( #215 ), #242, .T. ) ;
#102 = VECTOR ( 'NONE', #48, 39.37007874015748143 ) ;
#103 = SURFACE_STYLE_USAGE ( .BOTH. , #197 ) ;
#104 = ORIENTED_EDGE ( 'NONE', *, *, #13, .T. ) ;
#105 = PRODUCT_DEFINITION_FORMATION_WITH_SPECIFIED_SOURCE ( 'ANY', '', #157, .NOT_KNOWN. ) ;
#106 = DIRECTION ( 'NONE',  ( -1.000000000000000000, 0.0000000000000000000, 0.0000000000000000000 ) ) ;
#107 = ORIENTED_EDGE ( 'NONE', *, *, #165, .F. ) ;
#108 = ADVANCED_BREP_SHAPE_REPRESENTATION ( 'Micro_RTC-250-220X', ( #64, #136 ), #24 ) ;
#109 = DIRECTION ( 'NONE',  ( -0.0000000000000000000, -0.0000000000000000000, -1.000000000000000000 ) ) ;
#110 = EDGE_CURVE ( 'NONE', #170, #52, #113, .T. ) ;
#111 = ORIENTED_EDGE ( 'NONE', *, *, #244, .F. ) ;
#112 = LENGTH_MEASURE_WITH_UNIT ( LENGTH_MEASURE( 0.02539999999999999897 ), #18 );
#113 = CIRCLE ( 'NONE', #238, 0.01000000000000000021 ) ;
#114 = DIRECTION ( 'NONE',  ( -0.0000000000000000000, -0.0000000000000000000, -1.000000000000000000 ) ) ;
#115 = FACE_OUTER_BOUND ( 'NONE', #167, .T. ) ;
#116 = DIRECTION ( 'NONE',  ( 0.0000000000000000000, 0.0000000000000000000, 1.000000000000000000 ) ) ;
#117 = DIRECTION ( 'NONE',  ( -1.000000000000000000, 0.0000000000000000000, 0.0000000000000000000 ) ) ;
#118 = VECTOR ( 'NONE', #175, 39.37007874015748143 ) ;
#119 = DIRECTION ( 'NONE',  ( 1.000000000000000000, 0.0000000000000000000, 0.0000000000000000000 ) ) ;
#120 = APPLICATION_CONTEXT ( 'automotive_design' ) ;
#121 = LENGTH_MEASURE_WITH_UNIT ( LENGTH_MEASURE( 0.02539999999999999897 ), #202 );
#122 = MECHANICAL_DESIGN_GEOMETRIC_PRESENTATION_REPRESENTATION (  '', ( #231 ), #11 ) ;
#123 = CARTESIAN_POINT ( 'NONE',  ( 0.01000000000000000021, 0.0000000000000000000, 2.500000000000000000 ) ) ;
#124 = PRESENTATION_STYLE_ASSIGNMENT (( #103 ) ) ;
#125 = EDGE_LOOP ( 'NONE', ( #29, #93, #219, #104 ) ) ;
#126 = ORIENTED_EDGE ( 'NONE', *, *, #81, .T. ) ;
#127 = VERTEX_POINT ( 'NONE', #78 ) ;
#128 = AXIS2_PLACEMENT_3D ( 'NONE', #27, #222, #178 ) ;
#129 = ORIENTED_EDGE ( 'NONE', *, *, #9, .F. ) ;
#130 = ORIENTED_EDGE ( 'NONE', *, *, #13, .F. ) ;
#131 = APPLICATION_CONTEXT ( 'automotive_design' ) ;
#132 = UNCERTAINTY_MEASURE_WITH_UNIT (LENGTH_MEASURE( 1.000000000000000082E-05 ), #3, 'distance_accuracy_value', 'NONE');
#133 = LINE ( 'NONE', #171, #146 ) ;
#134 = CARTESIAN_POINT ( 'NONE',  ( -0.01000000000000000021, -1.224646799147353384E-18, 2.500000000000000000 ) ) ;
#135 = DIRECTION ( 'NONE',  ( -1.000000000000000000, 0.0000000000000000000, 0.0000000000000000000 ) ) ;
#136 = AXIS2_PLACEMENT_3D ( 'NONE', #177, #221, #158 ) ;
#137 = DIRECTION ( 'NONE',  ( -0.2588190451025216832, -3.169619151431776035E-17, -0.9659258262890679791 ) ) ;
#138 = CIRCLE ( 'NONE', #75, 0.1250000000000000000 ) ;
#139 = ORIENTED_EDGE ( 'NONE', *, *, #244, .T. ) ;
#140 = EDGE_CURVE ( 'NONE', #127, #74, #32, .T. ) ;
#141 = EDGE_LOOP ( 'NONE', ( #245, #47, #227, #243 ) ) ;
#142 = ORIENTED_EDGE ( 'NONE', *, *, #59, .F. ) ;
#143 = CONICAL_SURFACE ( 'NONE', #193, 0.01000000000000000021, 0.2617993877991502960 ) ;
#144 = EDGE_LOOP ( 'NONE', ( #5, #50, #224, #107 ) ) ;
#145 = DIMENSIONAL_EXPONENTS ( 1.000000000000000000, 0.0000000000000000000, 0.0000000000000000000, 0.0000000000000000000, 0.0000000000000000000, 0.0000000000000000000, 0.0000000000000000000 ) ;
#146 = VECTOR ( 'NONE', #247, 39.37007874015748143 ) ;
#147 = PRESENTATION_STYLE_ASSIGNMENT (( #2 ) ) ;
#148 = PLANE ( 'NONE',  #41 ) ;
#149 = CARTESIAN_POINT ( 'NONE',  ( 0.0000000000000000000, 0.0000000000000000000, 0.4291858428704192763 ) ) ;
#150 = DIRECTION ( 'NONE',  ( 1.000000000000000000, 0.0000000000000000000, 0.0000000000000000000 ) ) ;
#151 = AXIS2_PLACEMENT_3D ( 'NONE', #8, #166, #241 ) ;
#152 = CARTESIAN_POINT ( 'NONE',  ( 0.01000000000000000021, 0.0000000000000000000, 0.0000000000000000000 ) ) ;
#153 = CARTESIAN_POINT ( 'NONE',  ( 0.0000000000000000000, 0.0000000000000000000, 2.500000000000000000 ) ) ;
#154 = DIRECTION ( 'NONE',  ( 0.0000000000000000000, 0.0000000000000000000, 1.000000000000000000 ) ) ;
#155 =( LENGTH_UNIT ( ) NAMED_UNIT ( * ) SI_UNIT ( $, .METRE. ) );
#156 = VECTOR ( 'NONE', #71, 39.37007874015748143 ) ;
#157 = PRODUCT ( 'Micro_RTC-250-220X', 'Micro_RTC-250-220X', '', ( #236 ) ) ;
#158 = DIRECTION ( 'NONE',  ( 1.000000000000000000, 0.0000000000000000000, 0.0000000000000000000 ) ) ;
#159 = CARTESIAN_POINT ( 'NONE',  ( 0.0000000000000000000, 0.0000000000000000000, 2.070814157129580835 ) ) ;
#160 = LINE ( 'NONE', #123, #102 ) ;
#161 = PRODUCT_DEFINITION_SHAPE ( 'NONE', 'NONE',  #214 ) ;
#162 = AXIS2_PLACEMENT_3D ( 'NONE', #153, #76, #150 ) ;
#163 = FACE_OUTER_BOUND ( 'NONE', #125, .T. ) ;
#164 = ORIENTED_EDGE ( 'NONE', *, *, #186, .T. ) ;
#165 = EDGE_CURVE ( 'NONE', #30, #127, #133, .T. ) ;
#166 = DIRECTION ( 'NONE',  ( -0.0000000000000000000, -0.0000000000000000000, -1.000000000000000000 ) ) ;
#167 = EDGE_LOOP ( 'NONE', ( #142, #111 ) ) ;
#168 = COLOUR_RGB ( '',0.7921568627450980005, 0.8196078431372548767, 0.9333333333333333481 ) ;
#169 = CIRCLE ( 'NONE', #218, 0.01000000000000000021 ) ;
#170 = VERTEX_POINT ( 'NONE', #152 ) ;
#171 = CARTESIAN_POINT ( 'NONE',  ( -0.1250000000000000000, 0.0000000000000000000, 2.500000000000000000 ) ) ;
#172 = PRESENTATION_LAYER_ASSIGNMENT (  '', '', ( #15 ) ) ;
#173 = DIRECTION ( 'NONE',  ( 0.0000000000000000000, 0.0000000000000000000, 1.000000000000000000 ) ) ;
#174 = DIRECTION ( 'NONE',  ( -1.000000000000000000, 0.0000000000000000000, 0.0000000000000000000 ) ) ;
#175 = DIRECTION ( 'NONE',  ( 0.2588190451025216832, 0.0000000000000000000, 0.9659258262890679791 ) ) ;
#176 = EDGE_LOOP ( 'NONE', ( #196, #164, #12, #28 ) ) ;
#177 = CARTESIAN_POINT ( 'NONE',  ( 0.0000000000000000000, 0.0000000000000000000, 0.0000000000000000000 ) ) ;
#178 = DIRECTION ( 'NONE',  ( -1.000000000000000000, 0.0000000000000000000, 0.0000000000000000000 ) ) ;
#179 = APPLICATION_PROTOCOL_DEFINITION ( 'draft international standard', 'automotive_design', 1998, #131 ) ;
#180 = VERTEX_POINT ( 'NONE', #233 ) ;
#181 = DIMENSIONAL_EXPONENTS ( 1.000000000000000000, 0.0000000000000000000, 0.0000000000000000000, 0.0000000000000000000, 0.0000000000000000000, 0.0000000000000000000, 0.0000000000000000000 ) ;
#182 = ORIENTED_EDGE ( 'NONE', *, *, #46, .T. ) ;
#183 = CARTESIAN_POINT ( 'NONE',  ( 0.0000000000000000000, 0.0000000000000000000, 0.0000000000000000000 ) ) ;
#184 = ORIENTED_EDGE ( 'NONE', *, *, #188, .F. ) ;
#185 =( CONVERSION_BASED_UNIT ( 'INCH', #112 ) LENGTH_UNIT ( ) NAMED_UNIT ( #145 ) );
#186 = EDGE_CURVE ( 'NONE', #180, #30, #63, .T. ) ;
#187 = MECHANICAL_DESIGN_GEOMETRIC_PRESENTATION_REPRESENTATION (  '', ( #15 ), #225 ) ;
#188 = EDGE_CURVE ( 'NONE', #30, #90, #138, .T. ) ;
#189 = LINE ( 'NONE', #79, #118 ) ;
#190 = FACE_OUTER_BOUND ( 'NONE', #10, .T. ) ;
#191 = FILL_AREA_STYLE_COLOUR ( '', #62 ) ;
#192 = CARTESIAN_POINT ( 'NONE',  ( 0.0000000000000000000, 0.0000000000000000000, 2.500000000000000000 ) ) ;
#193 = AXIS2_PLACEMENT_3D ( 'NONE', #203, #7, #89 ) ;
#194 = CARTESIAN_POINT ( 'NONE',  ( 0.1250000000000000000, 1.530808498934191509E-17, 2.070814157129580835 ) ) ;
#195 = DIRECTION ( 'NONE',  ( -1.000000000000000000, 0.0000000000000000000, 0.0000000000000000000 ) ) ;
#196 = ORIENTED_EDGE ( 'NONE', *, *, #59, .T. ) ;
#197 = SURFACE_SIDE_STYLE ('',( #49 ) ) ;
#198 = AXIS2_PLACEMENT_3D ( 'NONE', #17, #173, #99 ) ;
#199 = APPLICATION_PROTOCOL_DEFINITION ( 'draft international standard', 'automotive_design', 1998, #120 ) ;
#200 = DIRECTION ( 'NONE',  ( 0.0000000000000000000, 0.0000000000000000000, -1.000000000000000000 ) ) ;
#201 = CARTESIAN_POINT ( 'NONE',  ( 0.1250000000000000000, 1.530808498934191509E-17, 2.500000000000000000 ) ) ;
#202 =( LENGTH_UNIT ( ) NAMED_UNIT ( * ) SI_UNIT ( $, .METRE. ) );
#203 = CARTESIAN_POINT ( 'NONE',  ( 0.0000000000000000000, 0.0000000000000000000, 2.500000000000000000 ) ) ;
#204 = DIRECTION ( 'NONE',  ( 1.000000000000000000, 0.0000000000000000000, 0.0000000000000000000 ) ) ;
#205 = DIMENSIONAL_EXPONENTS ( 1.000000000000000000, 0.0000000000000000000, 0.0000000000000000000, 0.0000000000000000000, 0.0000000000000000000, 0.0000000000000000000, 0.0000000000000000000 ) ;
#206 = CARTESIAN_POINT ( 'NONE',  ( -0.1250000000000000000, 0.0000000000000000000, 2.070814157129580835 ) ) ;
#207 = EDGE_LOOP ( 'NONE', ( #129, #126, #45, #130 ) ) ;
#208 = PRODUCT_DEFINITION_CONTEXT ( 'detailed design', #131, 'design' ) ;
#209 = CIRCLE ( 'NONE', #151, 0.01000000000000000021 ) ;
#210 = EDGE_CURVE ( 'NONE', #55, #90, #160, .T. ) ;
#211 = FACE_OUTER_BOUND ( 'NONE', #207, .T. ) ;
#212 = AXIS2_PLACEMENT_3D ( 'NONE', #25, #223, #51 ) ;
#213 = CARTESIAN_POINT ( 'NONE',  ( 0.01000000000000000021, 0.0000000000000000000, 2.500000000000000000 ) ) ;
#214 = PRODUCT_DEFINITION ( 'UNKNOWN', '', #105, #208 ) ;
#215 = FACE_OUTER_BOUND ( 'NONE', #141, .T. ) ;
#216 = FILL_AREA_STYLE_COLOUR ( '', #168 ) ;
#217 =( NAMED_UNIT ( * ) PLANE_ANGLE_UNIT ( ) SI_UNIT ( $, .RADIAN. ) );
#218 = AXIS2_PLACEMENT_3D ( 'NONE', #192, #16, #174 ) ;
#219 = ORIENTED_EDGE ( 'NONE', *, *, #85, .T. ) ;
#220 = ADVANCED_FACE ( 'NONE', ( #70 ), #23, .T. ) ;
#221 = DIRECTION ( 'NONE',  ( 0.0000000000000000000, 0.0000000000000000000, 1.000000000000000000 ) ) ;
#222 = DIRECTION ( 'NONE',  ( -0.0000000000000000000, -0.0000000000000000000, -1.000000000000000000 ) ) ;
#223 = DIRECTION ( 'NONE',  ( -0.0000000000000000000, -0.0000000000000000000, -1.000000000000000000 ) ) ;
#224 = ORIENTED_EDGE ( 'NONE', *, *, #140, .F. ) ;
#225 =( GEOMETRIC_REPRESENTATION_CONTEXT ( 3 ) GLOBAL_UNCERTAINTY_ASSIGNED_CONTEXT ( ( #39 ) ) GLOBAL_UNIT_ASSIGNED_CONTEXT ( ( #38, #82, #229 ) ) REPRESENTATION_CONTEXT ( 'NONE', 'WORKASPACE' ) );
#226 = ORIENTED_EDGE ( 'NONE', *, *, #110, .T. ) ;
#227 = ORIENTED_EDGE ( 'NONE', *, *, #140, .T. ) ;
#228 = UNCERTAINTY_MEASURE_WITH_UNIT (LENGTH_MEASURE( 1.000000000000000082E-05 ), #185, 'distance_accuracy_value', 'NONE');
#229 =( NAMED_UNIT ( * ) SI_UNIT ( $, .STERADIAN. ) SOLID_ANGLE_UNIT ( ) );
#230 = CIRCLE ( 'NONE', #128, 0.1250000000000000000 ) ;
#231 = STYLED_ITEM ( 'NONE', ( #124 ), #108 ) ;
#232 = DIRECTION ( 'NONE',  ( 1.000000000000000000, 0.0000000000000000000, -0.0000000000000000000 ) ) ;
#233 = CARTESIAN_POINT ( 'NONE',  ( -0.01000000000000000021, -8.266365894244632793E-18, 2.500000000000000000 ) ) ;
#234 = CARTESIAN_POINT ( 'NONE',  ( 0.0000000000000000000, 0.0000000000000000000, 2.500000000000000000 ) ) ;
#235 = CYLINDRICAL_SURFACE ( 'NONE', #73, 0.1250000000000000000 ) ;
#236 = PRODUCT_CONTEXT ( 'NONE', #120, 'mechanical' ) ;
#237 = ADVANCED_FACE ( 'NONE', ( #56 ), #98, .T. ) ;
#238 = AXIS2_PLACEMENT_3D ( 'NONE', #95, #65, #195 ) ;
#239 = DIRECTION ( 'NONE',  ( 0.0000000000000000000, 0.0000000000000000000, 1.000000000000000000 ) ) ;
#240 = LINE ( 'NONE', #72, #156 ) ;
#241 = DIRECTION ( 'NONE',  ( -1.000000000000000000, 0.0000000000000000000, 0.0000000000000000000 ) ) ;
#242 = CONICAL_SURFACE ( 'NONE', #14, 0.01000000000000000021, 0.2617993877991502960 ) ;
#243 = ORIENTED_EDGE ( 'NONE', *, *, #85, .F. ) ;
#244 = EDGE_CURVE ( 'NONE', #180, #55, #169, .T. ) ;
#245 = ORIENTED_EDGE ( 'NONE', *, *, #46, .F. ) ;
#246 = CARTESIAN_POINT ( 'NONE',  ( 0.0000000000000000000, 0.0000000000000000000, 2.070814157129580835 ) ) ;
#247 = DIRECTION ( 'NONE',  ( -0.0000000000000000000, -0.0000000000000000000, -1.000000000000000000 ) ) ;
#248 = ADVANCED_FACE ( 'NONE', ( #115 ), #148, .T. ) ;
#249 = DIRECTION ( 'NONE',  ( -1.000000000000000000, 0.0000000000000000000, 0.0000000000000000000 ) ) ;
ENDSEC;
END-ISO-10303-21;
