ISO-10303-21;
HEADER;
FILE_DESCRIPTION (( 'STEP AP214' ),
    '1' );
FILE_NAME ('Micro_EMS-031-3.STEP',
    '2021-09-01T17:31:30',
    ( '' ),
    ( '' ),
    'SwSTEP 2.0',
    'SolidWorks 2020',
    '' );
FILE_SCHEMA (( 'AUTOMOTIVE_DESIGN' ));
ENDSEC;

DATA;
#1 = AXIS2_PLACEMENT_3D ( 'NONE', #82, #119, #147 ) ;
#2 = MANIFOLD_SOLID_BREP ( 'Cut-Revolve1', #205 ) ;
#3 = ORIENTED_EDGE ( 'NONE', *, *, #191, .F. ) ;
#4 = AXIS2_PLACEMENT_3D ( 'NONE', #95, #285, #32 ) ;
#5 = EDGE_CURVE ( 'NONE', #61, #105, #211, .T. ) ;
#6 = CARTESIAN_POINT ( 'NONE',  ( 0.01558440000000001387, 0.0000000000000000000, 0.07800000000000009703 ) ) ;
#7 = DIRECTION ( 'NONE',  ( -0.7071067811865462405, 0.0000000000000000000, -0.7071067811865486830 ) ) ;
#8 = DIRECTION ( 'NONE',  ( 0.0000000000000000000, 0.0000000000000000000, 1.000000000000000000 ) ) ;
#9 = APPLICATION_CONTEXT ( 'automotive_design' ) ;
#10 = AXIS2_PLACEMENT_3D ( 'NONE', #280, #263, #67 ) ;
#11 =( CONVERSION_BASED_UNIT ( 'INCH', #49 ) LENGTH_UNIT ( ) NAMED_UNIT ( #200 ) );
#12 = LINE ( 'NONE', #193, #108 ) ;
#13 = ADVANCED_FACE ( 'NONE', ( #137 ), #55, .T. ) ;
#14 = CARTESIAN_POINT ( 'NONE',  ( 4.213661705584329151E-17, 0.0000000000000000000, 0.3440715893364554301 ) ) ;
#15 = LENGTH_MEASURE_WITH_UNIT ( LENGTH_MEASURE( 0.02539999999999999897 ), #214 );
#16 = FACE_OUTER_BOUND ( 'NONE', #66, .T. ) ;
#17 = SURFACE_SIDE_STYLE ('',( #76 ) ) ;
#18 = CARTESIAN_POINT ( 'NONE',  ( 0.06250000000000002776, 7.654042494670959086E-18, 1.485000000000000764 ) ) ;
#19 = DIRECTION ( 'NONE',  ( -1.000000000000000000, 0.0000000000000000000, 1.224646799147353700E-16 ) ) ;
#20 = AXIS2_PLACEMENT_3D ( 'NONE', #192, #139, #117 ) ;
#21 = DIRECTION ( 'NONE',  ( -1.000000000000000000, 0.0000000000000000000, 1.224646799147353700E-16 ) ) ;
#22 = CIRCLE ( 'NONE', #68, 0.06250000000000002776 ) ;
#23 = CARTESIAN_POINT ( 'NONE',  ( -0.01558439999999999652, 4.781290526167081051E-18, 0.07800000000000009703 ) ) ;
#24 = CARTESIAN_POINT ( 'NONE',  ( -0.06250000000000002776, 0.0000000000000000000, 1.485000000000000764 ) ) ;
#25 = PRODUCT_DEFINITION ( 'UNKNOWN', '', #250, #297 ) ;
#26 = EDGE_LOOP ( 'NONE', ( #152, #64, #256, #159 ) ) ;
#27 = AXIS2_PLACEMENT_3D ( 'NONE', #249, #59, #73 ) ;
#28 = EDGE_CURVE ( 'NONE', #87, #134, #107, .T. ) ;
#29 = ORIENTED_EDGE ( 'NONE', *, *, #81, .T. ) ;
#30 =( NAMED_UNIT ( * ) SI_UNIT ( $, .STERADIAN. ) SOLID_ANGLE_UNIT ( ) );
#31 = AXIS2_PLACEMENT_3D ( 'NONE', #111, #8, #93 ) ;
#32 = DIRECTION ( 'NONE',  ( -1.000000000000000000, 0.0000000000000000000, 0.0000000000000000000 ) ) ;
#33 = PLANE ( 'NONE',  #31 ) ;
#34 = DIRECTION ( 'NONE',  ( -1.000000000000000000, 0.0000000000000000000, 1.224646799147353700E-16 ) ) ;
#35 = EDGE_CURVE ( 'NONE', #58, #254, #101, .T. ) ;
#36 = AXIS2_PLACEMENT_3D ( 'NONE', #38, #241, #51 ) ;
#37 = PRESENTATION_LAYER_ASSIGNMENT (  '', '', ( #150 ) ) ;
#38 = CARTESIAN_POINT ( 'NONE',  ( 9.552245033349369302E-18, 0.0000000000000000000, 0.07800000000000009703 ) ) ;
#39 = CARTESIAN_POINT ( 'NONE',  ( 0.04750000000000064587, 5.817072295950006528E-18, 1.500000000000000222 ) ) ;
#40 = LENGTH_MEASURE_WITH_UNIT ( LENGTH_MEASURE( 0.02539999999999999897 ), #175 );
#41 =( GEOMETRIC_REPRESENTATION_CONTEXT ( 3 ) GLOBAL_UNCERTAINTY_ASSIGNED_CONTEXT ( ( #130 ) ) GLOBAL_UNIT_ASSIGNED_CONTEXT ( ( #11, #219, #168 ) ) REPRESENTATION_CONTEXT ( 'NONE', 'WORKASPACE' ) );
#42 = ORIENTED_EDGE ( 'NONE', *, *, #115, .F. ) ;
#43 = AXIS2_PLACEMENT_3D ( 'NONE', #189, #282, #164 ) ;
#44 = ORIENTED_EDGE ( 'NONE', *, *, #124, .F. ) ;
#45 = CARTESIAN_POINT ( 'NONE',  ( -0.01558439999999999652, 1.908538557663201862E-18, 0.07800000000000009703 ) ) ;
#46 = ORIENTED_EDGE ( 'NONE', *, *, #204, .T. ) ;
#47 = ORIENTED_EDGE ( 'NONE', *, *, #204, .F. ) ;
#48 = AXIS2_PLACEMENT_3D ( 'NONE', #216, #123, #21 ) ;
#49 = LENGTH_MEASURE_WITH_UNIT ( LENGTH_MEASURE( 0.02539999999999999897 ), #244 );
#50 = ADVANCED_FACE ( 'NONE', ( #292 ), #227, .T. ) ;
#51 = DIRECTION ( 'NONE',  ( 1.000000000000000000, 0.0000000000000000000, 0.0000000000000000000 ) ) ;
#52 = DIRECTION ( 'NONE',  ( -1.000000000000000000, 0.0000000000000000000, 0.0000000000000000000 ) ) ;
#53 =( NAMED_UNIT ( * ) PLANE_ANGLE_UNIT ( ) SI_UNIT ( $, .RADIAN. ) );
#54 = CARTESIAN_POINT ( 'NONE',  ( -0.06250000000000002776, 0.0000000000000000000, 1.500000000000000222 ) ) ;
#55 = CONICAL_SURFACE ( 'NONE', #36, 0.01558440000000000519, 0.1745329251994338360 ) ;
#56 = DIRECTION ( 'NONE',  ( -1.224646799147353700E-16, -0.0000000000000000000, -1.000000000000000000 ) ) ;
#57 = SURFACE_STYLE_USAGE ( .BOTH. , #141 ) ;
#58 = VERTEX_POINT ( 'NONE', #172 ) ;
#59 = DIRECTION ( 'NONE',  ( -1.224646799147353700E-16, -0.0000000000000000000, -1.000000000000000000 ) ) ;
#60 = ORIENTED_EDGE ( 'NONE', *, *, #5, .T. ) ;
#61 = VERTEX_POINT ( 'NONE', #284 ) ;
#62 = CIRCLE ( 'NONE', #149, 0.04750000000000064587 ) ;
#63 = ORIENTED_EDGE ( 'NONE', *, *, #74, .T. ) ;
#64 = ORIENTED_EDGE ( 'NONE', *, *, #28, .F. ) ;
#65 = STYLED_ITEM ( 'NONE', ( #166 ), #2 ) ;
#66 = EDGE_LOOP ( 'NONE', ( #146, #279, #229, #171 ) ) ;
#67 = DIRECTION ( 'NONE',  ( 1.000000000000000000, 0.0000000000000000000, 0.0000000000000000000 ) ) ;
#68 = AXIS2_PLACEMENT_3D ( 'NONE', #14, #56, #268 ) ;
#69 = CARTESIAN_POINT ( 'NONE',  ( 2.337285635691549169E-34, 0.0000000000000000000, 1.908538557663203788E-18 ) ) ;
#70 = DIRECTION ( 'NONE',  ( -0.1736481776669311639, 2.126576849575782392E-17, 0.9848077530122080203 ) ) ;
#71 = LINE ( 'NONE', #54, #163 ) ;
#72 = DIRECTION ( 'NONE',  ( -0.0000000000000000000, -0.0000000000000000000, -1.000000000000000000 ) ) ;
#73 = DIRECTION ( 'NONE',  ( -1.000000000000000000, 0.0000000000000000000, 0.0000000000000000000 ) ) ;
#74 = EDGE_CURVE ( 'NONE', #162, #234, #71, .T. ) ;
#75 = CARTESIAN_POINT ( 'NONE',  ( -0.04750000000000064587, 0.0000000000000000000, 1.500000000000000222 ) ) ;
#76 = SURFACE_STYLE_FILL_AREA ( #151 ) ;
#77 = VECTOR ( 'NONE', #70, 39.37007874015747433 ) ;
#78 = DIRECTION ( 'NONE',  ( -0.0000000000000000000, -0.0000000000000000000, -1.000000000000000000 ) ) ;
#79 = CARTESIAN_POINT ( 'NONE',  ( 0.06250000000000006939, 7.654042494670963708E-18, 0.3440715893364554301 ) ) ;
#80 = ORIENTED_EDGE ( 'NONE', *, *, #126, .F. ) ;
#81 = EDGE_CURVE ( 'NONE', #234, #103, #22, .T. ) ;
#82 = CARTESIAN_POINT ( 'NONE',  ( 0.0000000000000000000, 0.0000000000000000000, 1.500000000000000222 ) ) ;
#83 =( GEOMETRIC_REPRESENTATION_CONTEXT ( 3 ) GLOBAL_UNCERTAINTY_ASSIGNED_CONTEXT ( ( #114 ) ) GLOBAL_UNIT_ASSIGNED_CONTEXT ( ( #286, #53, #186 ) ) REPRESENTATION_CONTEXT ( 'NONE', 'WORKASPACE' ) );
#84 = CARTESIAN_POINT ( 'NONE',  ( 4.213661705584329151E-17, 0.0000000000000000000, 0.3440715893364554301 ) ) ;
#85 = AXIS2_PLACEMENT_3D ( 'NONE', #84, #215, #120 ) ;
#86 = CARTESIAN_POINT ( 'NONE',  ( 0.0000000000000000000, 0.0000000000000000000, 1.485000000000000764 ) ) ;
#87 = VERTEX_POINT ( 'NONE', #266 ) ;
#88 = ORIENTED_EDGE ( 'NONE', *, *, #124, .T. ) ;
#89 = LINE ( 'NONE', #209, #298 ) ;
#90 = VECTOR ( 'NONE', #7, 39.37007874015748854 ) ;
#91 = ADVANCED_FACE ( 'NONE', ( #118 ), #98, .T. ) ;
#92 = DIRECTION ( 'NONE',  ( 0.7071067811865462405, 8.659560562354916834E-17, -0.7071067811865486830 ) ) ;
#93 = DIRECTION ( 'NONE',  ( 1.000000000000000000, 0.0000000000000000000, -0.0000000000000000000 ) ) ;
#94 = CARTESIAN_POINT ( 'NONE',  ( 0.01558440000000001560, 1.908538557663202632E-18, 0.0000000000000000000 ) ) ;
#95 = CARTESIAN_POINT ( 'NONE',  ( 0.0000000000000000000, 0.0000000000000000000, 1.500000000000000222 ) ) ;
#96 = LINE ( 'NONE', #144, #90 ) ;
#97 = CONICAL_SURFACE ( 'NONE', #274, 0.04750000000000064587, 0.7853981633974466137 ) ;
#98 = CYLINDRICAL_SURFACE ( 'NONE', #4, 0.06250000000000002776 ) ;
#99 = UNCERTAINTY_MEASURE_WITH_UNIT (LENGTH_MEASURE( 1.000000000000000082E-05 ), #203, 'distance_accuracy_value', 'NONE');
#100 = FACE_OUTER_BOUND ( 'NONE', #295, .T. ) ;
#101 = CIRCLE ( 'NONE', #277, 0.01558440000000001387 ) ;
#102 = EDGE_LOOP ( 'NONE', ( #181, #264, #106, #275 ) ) ;
#103 = VERTEX_POINT ( 'NONE', #79 ) ;
#104 = FACE_OUTER_BOUND ( 'NONE', #299, .T. ) ;
#105 = VERTEX_POINT ( 'NONE', #75 ) ;
#106 = ORIENTED_EDGE ( 'NONE', *, *, #35, .F. ) ;
#107 = CIRCLE ( 'NONE', #207, 0.01558440000000000519 ) ;
#108 = VECTOR ( 'NONE', #143, 39.37007874015748143 ) ;
#109 = PRODUCT_RELATED_PRODUCT_CATEGORY ( 'part', '', ( #145 ) ) ;
#110 = FILL_AREA_STYLE ('',( #197 ) ) ;
#111 = CARTESIAN_POINT ( 'NONE',  ( 0.0000000000000000000, 0.0000000000000000000, 1.500000000000000222 ) ) ;
#112 = SURFACE_STYLE_FILL_AREA ( #110 ) ;
#113 = DIRECTION ( 'NONE',  ( 1.000000000000000000, 0.0000000000000000000, 0.0000000000000000000 ) ) ;
#114 = UNCERTAINTY_MEASURE_WITH_UNIT (LENGTH_MEASURE( 1.000000000000000082E-05 ), #286, 'distance_accuracy_value', 'NONE');
#115 = EDGE_CURVE ( 'NONE', #105, #162, #96, .T. ) ;
#116 = MECHANICAL_DESIGN_GEOMETRIC_PRESENTATION_REPRESENTATION (  '', ( #65 ), #41 ) ;
#117 = DIRECTION ( 'NONE',  ( -1.000000000000000000, 0.0000000000000000000, 0.0000000000000000000 ) ) ;
#118 = FACE_OUTER_BOUND ( 'NONE', #222, .T. ) ;
#119 = DIRECTION ( 'NONE',  ( -0.0000000000000000000, -0.0000000000000000000, -1.000000000000000000 ) ) ;
#120 = DIRECTION ( 'NONE',  ( 1.000000000000000000, 0.0000000000000000000, 0.0000000000000000000 ) ) ;
#121 = EDGE_LOOP ( 'NONE', ( #230, #88, #269, #42 ) ) ;
#122 = VECTOR ( 'NONE', #176, 39.37007874015748143 ) ;
#123 = DIRECTION ( 'NONE',  ( -1.224646799147353700E-16, -0.0000000000000000000, -1.000000000000000000 ) ) ;
#124 = EDGE_CURVE ( 'NONE', #61, #180, #247, .T. ) ;
#125 = ORIENTED_EDGE ( 'NONE', *, *, #126, .T. ) ;
#126 = EDGE_CURVE ( 'NONE', #180, #162, #128, .T. ) ;
#127 = DIRECTION ( 'NONE',  ( 0.0000000000000000000, 0.0000000000000000000, 1.000000000000000000 ) ) ;
#128 = CIRCLE ( 'NONE', #43, 0.06250000000000002776 ) ;
#129 = MECHANICAL_DESIGN_GEOMETRIC_PRESENTATION_REPRESENTATION (  '', ( #150 ), #291 ) ;
#130 = UNCERTAINTY_MEASURE_WITH_UNIT (LENGTH_MEASURE( 1.000000000000000082E-05 ), #11, 'distance_accuracy_value', 'NONE');
#131 = CONICAL_SURFACE ( 'NONE', #10, 0.01558440000000000519, 0.1745329251994338360 ) ;
#132 = PLANE ( 'NONE',  #173 ) ;
#133 = FACE_OUTER_BOUND ( 'NONE', #102, .T. ) ;
#134 = VERTEX_POINT ( 'NONE', #23 ) ;
#135 = AXIS2_PLACEMENT_3D ( 'NONE', #86, #179, #232 ) ;
#136 = COLOUR_RGB ( '',0.7921568627450980005, 0.8196078431372548767, 0.9333333333333333481 ) ;
#137 = FACE_OUTER_BOUND ( 'NONE', #177, .T. ) ;
#138 = FACE_OUTER_BOUND ( 'NONE', #26, .T. ) ;
#139 = DIRECTION ( 'NONE',  ( 0.0000000000000000000, 0.0000000000000000000, -1.000000000000000000 ) ) ;
#140 = CARTESIAN_POINT ( 'NONE',  ( 0.0000000000000000000, 0.0000000000000000000, 0.0000000000000000000 ) ) ;
#141 = SURFACE_SIDE_STYLE ('',( #112 ) ) ;
#142 = AXIS2_PLACEMENT_3D ( 'NONE', #261, #213, #217 ) ;
#143 = DIRECTION ( 'NONE',  ( -1.224646799147353700E-16, -0.0000000000000000000, -1.000000000000000000 ) ) ;
#144 = CARTESIAN_POINT ( 'NONE',  ( -0.04750000000000064587, 0.0000000000000000000, 1.500000000000000222 ) ) ;
#145 = PRODUCT ( 'Micro_EMS-031-3', 'Micro_EMS-031-3', '', ( #178 ) ) ;
#146 = ORIENTED_EDGE ( 'NONE', *, *, #174, .F. ) ;
#147 = DIRECTION ( 'NONE',  ( -1.000000000000000000, 0.0000000000000000000, 0.0000000000000000000 ) ) ;
#148 = FACE_OUTER_BOUND ( 'NONE', #187, .T. ) ;
#149 = AXIS2_PLACEMENT_3D ( 'NONE', #190, #283, #113 ) ;
#150 = STYLED_ITEM ( 'NONE', ( #198 ), #182 ) ;
#151 = FILL_AREA_STYLE ('',( #223 ) ) ;
#152 = ORIENTED_EDGE ( 'NONE', *, *, #156, .F. ) ;
#153 = ORIENTED_EDGE ( 'NONE', *, *, #156, .T. ) ;
#154 = VECTOR ( 'NONE', #72, 39.37007874015748143 ) ;
#155 = SHAPE_DEFINITION_REPRESENTATION ( #252, #182 ) ;
#156 = EDGE_CURVE ( 'NONE', #134, #234, #157, .T. ) ;
#157 = LINE ( 'NONE', #45, #77 ) ;
#158 = CARTESIAN_POINT ( 'NONE',  ( 0.0000000000000000000, 0.0000000000000000000, 0.0000000000000000000 ) ) ;
#159 = ORIENTED_EDGE ( 'NONE', *, *, #170, .T. ) ;
#160 = ORIENTED_EDGE ( 'NONE', *, *, #81, .F. ) ;
#161 = DIRECTION ( 'NONE',  ( -1.224646799147353700E-16, -0.0000000000000000000, -1.000000000000000000 ) ) ;
#162 = VERTEX_POINT ( 'NONE', #24 ) ;
#163 = VECTOR ( 'NONE', #78, 39.37007874015748143 ) ;
#164 = DIRECTION ( 'NONE',  ( 1.000000000000000000, 0.0000000000000000000, 0.0000000000000000000 ) ) ;
#165 = FACE_OUTER_BOUND ( 'NONE', #236, .T. ) ;
#166 = PRESENTATION_STYLE_ASSIGNMENT (( #57 ) ) ;
#167 = VECTOR ( 'NONE', #92, 39.37007874015748854 ) ;
#168 =( NAMED_UNIT ( * ) SI_UNIT ( $, .STERADIAN. ) SOLID_ANGLE_UNIT ( ) );
#169 = DIRECTION ( 'NONE',  ( 1.000000000000000000, 0.0000000000000000000, 0.0000000000000000000 ) ) ;
#170 = EDGE_CURVE ( 'NONE', #103, #234, #257, .T. ) ;
#171 = ORIENTED_EDGE ( 'NONE', *, *, #183, .F. ) ;
#172 = CARTESIAN_POINT ( 'NONE',  ( -0.01558440000000001387, 0.0000000000000000000, 3.817077115326407575E-18 ) ) ;
#173 = AXIS2_PLACEMENT_3D ( 'NONE', #158, #127, #226 ) ;
#174 = EDGE_CURVE ( 'NONE', #87, #254, #12, .T. ) ;
#175 =( LENGTH_UNIT ( ) NAMED_UNIT ( * ) SI_UNIT ( $, .METRE. ) );
#176 = DIRECTION ( 'NONE',  ( 0.1736481776669313304, 0.0000000000000000000, 0.9848077530122077983 ) ) ;
#177 = EDGE_LOOP ( 'NONE', ( #185, #153, #29, #208 ) ) ;
#178 = PRODUCT_CONTEXT ( 'NONE', #9, 'mechanical' ) ;
#179 = DIRECTION ( 'NONE',  ( 0.0000000000000000000, 0.0000000000000000000, -1.000000000000000000 ) ) ;
#180 = VERTEX_POINT ( 'NONE', #18 ) ;
#181 = ORIENTED_EDGE ( 'NONE', *, *, #260, .T. ) ;
#182 = ADVANCED_BREP_SHAPE_REPRESENTATION ( 'Micro_EMS-031-3', ( #2, #184 ), #83 ) ;
#183 = EDGE_CURVE ( 'NONE', #254, #58, #255, .T. ) ;
#184 = AXIS2_PLACEMENT_3D ( 'NONE', #140, #243, #169 ) ;
#185 = ORIENTED_EDGE ( 'NONE', *, *, #260, .F. ) ;
#186 =( NAMED_UNIT ( * ) SI_UNIT ( $, .STERADIAN. ) SOLID_ANGLE_UNIT ( ) );
#187 = EDGE_LOOP ( 'NONE', ( #46, #60 ) ) ;
#188 = DIRECTION ( 'NONE',  ( -1.224646799147353700E-16, -0.0000000000000000000, -1.000000000000000000 ) ) ;
#189 = CARTESIAN_POINT ( 'NONE',  ( 0.0000000000000000000, 0.0000000000000000000, 1.485000000000000764 ) ) ;
#190 = CARTESIAN_POINT ( 'NONE',  ( 0.0000000000000000000, 0.0000000000000000000, 1.500000000000000222 ) ) ;
#191 = EDGE_CURVE ( 'NONE', #180, #103, #202, .T. ) ;
#192 = CARTESIAN_POINT ( 'NONE',  ( 0.0000000000000000000, 0.0000000000000000000, 1.500000000000000222 ) ) ;
#193 = CARTESIAN_POINT ( 'NONE',  ( 0.01558440000000000866, 1.908538557663202247E-18, -1.908538557663203017E-18 ) ) ;
#194 = DIRECTION ( 'NONE',  ( -1.224646799147353700E-16, -0.0000000000000000000, -1.000000000000000000 ) ) ;
#195 = CYLINDRICAL_SURFACE ( 'NONE', #1, 0.06250000000000002776 ) ;
#196 = ADVANCED_FACE ( 'NONE', ( #148 ), #33, .T. ) ;
#197 = FILL_AREA_STYLE_COLOUR ( '', #199 ) ;
#198 = PRESENTATION_STYLE_ASSIGNMENT (( #246 ) ) ;
#199 = COLOUR_RGB ( '',0.7921568627450980005, 0.8196078431372548767, 0.9333333333333333481 ) ;
#200 = DIMENSIONAL_EXPONENTS ( 1.000000000000000000, 0.0000000000000000000, 0.0000000000000000000, 0.0000000000000000000, 0.0000000000000000000, 0.0000000000000000000, 0.0000000000000000000 ) ;
#201 = DIRECTION ( 'NONE',  ( -1.000000000000000000, 0.0000000000000000000, 1.224646799147353700E-16 ) ) ;
#202 = LINE ( 'NONE', #293, #154 ) ;
#203 =( CONVERSION_BASED_UNIT ( 'INCH', #40 ) LENGTH_UNIT ( ) NAMED_UNIT ( #240 ) );
#204 = EDGE_CURVE ( 'NONE', #105, #61, #62, .T. ) ;
#205 = CLOSED_SHELL ( 'NONE', ( #245, #13, #50, #91, #253, #196, #206, #294, #271, #228 ) ) ;
#206 = ADVANCED_FACE ( 'NONE', ( #165 ), #97, .T. ) ;
#207 = AXIS2_PLACEMENT_3D ( 'NONE', #288, #238, #212 ) ;
#208 = ORIENTED_EDGE ( 'NONE', *, *, #218, .F. ) ;
#209 = CARTESIAN_POINT ( 'NONE',  ( -0.01558440000000000866, 0.0000000000000000000, 1.908538557663203017E-18 ) ) ;
#210 = ORIENTED_EDGE ( 'NONE', *, *, #191, .T. ) ;
#211 = CIRCLE ( 'NONE', #142, 0.04750000000000064587 ) ;
#212 = DIRECTION ( 'NONE',  ( -1.000000000000000000, 0.0000000000000000000, 0.0000000000000000000 ) ) ;
#213 = DIRECTION ( 'NONE',  ( 0.0000000000000000000, 0.0000000000000000000, 1.000000000000000000 ) ) ;
#214 =( LENGTH_UNIT ( ) NAMED_UNIT ( * ) SI_UNIT ( $, .METRE. ) );
#215 = DIRECTION ( 'NONE',  ( -1.224646799147353700E-16, -0.0000000000000000000, -1.000000000000000000 ) ) ;
#216 = CARTESIAN_POINT ( 'NONE',  ( 0.0000000000000000000, 0.0000000000000000000, 0.0000000000000000000 ) ) ;
#217 = DIRECTION ( 'NONE',  ( 1.000000000000000000, 0.0000000000000000000, 0.0000000000000000000 ) ) ;
#218 = EDGE_CURVE ( 'NONE', #87, #103, #265, .T. ) ;
#219 =( NAMED_UNIT ( * ) PLANE_ANGLE_UNIT ( ) SI_UNIT ( $, .RADIAN. ) );
#220 = DIRECTION ( 'NONE',  ( -1.224646799147353700E-16, -0.0000000000000000000, -1.000000000000000000 ) ) ;
#221 = DIMENSIONAL_EXPONENTS ( 1.000000000000000000, 0.0000000000000000000, 0.0000000000000000000, 0.0000000000000000000, 0.0000000000000000000, 0.0000000000000000000, 0.0000000000000000000 ) ;
#222 = EDGE_LOOP ( 'NONE', ( #278, #210, #160, #296 ) ) ;
#223 = FILL_AREA_STYLE_COLOUR ( '', #136 ) ;
#224 = ORIENTED_EDGE ( 'NONE', *, *, #35, .T. ) ;
#225 = EDGE_CURVE ( 'NONE', #162, #180, #237, .T. ) ;
#226 = DIRECTION ( 'NONE',  ( 1.000000000000000000, 0.0000000000000000000, -0.0000000000000000000 ) ) ;
#227 = CONICAL_SURFACE ( 'NONE', #20, 0.04750000000000064587, 0.7853981633974466137 ) ;
#228 = ADVANCED_FACE ( 'NONE', ( #104 ), #132, .F. ) ;
#229 = ORIENTED_EDGE ( 'NONE', *, *, #276, .T. ) ;
#230 = ORIENTED_EDGE ( 'NONE', *, *, #5, .F. ) ;
#231 = ORIENTED_EDGE ( 'NONE', *, *, #183, .T. ) ;
#232 = DIRECTION ( 'NONE',  ( 1.000000000000000000, 0.0000000000000000000, 0.0000000000000000000 ) ) ;
#233 = AXIS2_PLACEMENT_3D ( 'NONE', #267, #161, #34 ) ;
#234 = VERTEX_POINT ( 'NONE', #272 ) ;
#235 = CYLINDRICAL_SURFACE ( 'NONE', #48, 0.01558440000000000866 ) ;
#236 = EDGE_LOOP ( 'NONE', ( #44, #47, #248, #80 ) ) ;
#237 = CIRCLE ( 'NONE', #135, 0.06250000000000002776 ) ;
#238 = DIRECTION ( 'NONE',  ( -1.224646799147353700E-16, -0.0000000000000000000, -1.000000000000000000 ) ) ;
#239 = APPLICATION_PROTOCOL_DEFINITION ( 'draft international standard', 'automotive_design', 1998, #9 ) ;
#240 = DIMENSIONAL_EXPONENTS ( 1.000000000000000000, 0.0000000000000000000, 0.0000000000000000000, 0.0000000000000000000, 0.0000000000000000000, 0.0000000000000000000, 0.0000000000000000000 ) ;
#241 = DIRECTION ( 'NONE',  ( 1.224646799147353700E-16, 0.0000000000000000000, 1.000000000000000000 ) ) ;
#242 = DIRECTION ( 'NONE',  ( 0.0000000000000000000, 0.0000000000000000000, -1.000000000000000000 ) ) ;
#243 = DIRECTION ( 'NONE',  ( 0.0000000000000000000, 0.0000000000000000000, 1.000000000000000000 ) ) ;
#244 =( LENGTH_UNIT ( ) NAMED_UNIT ( * ) SI_UNIT ( $, .METRE. ) );
#245 = ADVANCED_FACE ( 'NONE', ( #133 ), #235, .T. ) ;
#246 = SURFACE_STYLE_USAGE ( .BOTH. , #17 ) ;
#247 = LINE ( 'NONE', #39, #167 ) ;
#248 = ORIENTED_EDGE ( 'NONE', *, *, #115, .T. ) ;
#249 = CARTESIAN_POINT ( 'NONE',  ( 9.552245033349369302E-18, 0.0000000000000000000, 0.07800000000000009703 ) ) ;
#250 = PRODUCT_DEFINITION_FORMATION_WITH_SPECIFIED_SOURCE ( 'ANY', '', #145, .NOT_KNOWN. ) ;
#251 = ORIENTED_EDGE ( 'NONE', *, *, #170, .F. ) ;
#252 = PRODUCT_DEFINITION_SHAPE ( 'NONE', 'NONE',  #25 ) ;
#253 = ADVANCED_FACE ( 'NONE', ( #100 ), #195, .T. ) ;
#254 = VERTEX_POINT ( 'NONE', #94 ) ;
#255 = CIRCLE ( 'NONE', #290, 0.01558440000000001387 ) ;
#256 = ORIENTED_EDGE ( 'NONE', *, *, #218, .T. ) ;
#257 = CIRCLE ( 'NONE', #85, 0.06250000000000002776 ) ;
#258 = APPLICATION_CONTEXT ( 'automotive_design' ) ;
#259 = APPLICATION_PROTOCOL_DEFINITION ( 'draft international standard', 'automotive_design', 1998, #258 ) ;
#260 = EDGE_CURVE ( 'NONE', #134, #87, #281, .T. ) ;
#261 = CARTESIAN_POINT ( 'NONE',  ( 0.0000000000000000000, 0.0000000000000000000, 1.500000000000000222 ) ) ;
#262 = CARTESIAN_POINT ( 'NONE',  ( 0.0000000000000000000, 0.0000000000000000000, 1.500000000000000222 ) ) ;
#263 = DIRECTION ( 'NONE',  ( 1.224646799147353700E-16, 0.0000000000000000000, 1.000000000000000000 ) ) ;
#264 = ORIENTED_EDGE ( 'NONE', *, *, #174, .T. ) ;
#265 = LINE ( 'NONE', #6, #122 ) ;
#266 = CARTESIAN_POINT ( 'NONE',  ( 0.01558440000000001387, 0.0000000000000000000, 0.07800000000000009703 ) ) ;
#267 = CARTESIAN_POINT ( 'NONE',  ( 0.0000000000000000000, 0.0000000000000000000, 0.0000000000000000000 ) ) ;
#268 = DIRECTION ( 'NONE',  ( 1.000000000000000000, 0.0000000000000000000, 0.0000000000000000000 ) ) ;
#269 = ORIENTED_EDGE ( 'NONE', *, *, #225, .F. ) ;
#270 = PRESENTATION_LAYER_ASSIGNMENT (  '', '', ( #65 ) ) ;
#271 = ADVANCED_FACE ( 'NONE', ( #16 ), #287, .T. ) ;
#272 = CARTESIAN_POINT ( 'NONE',  ( -0.06249999999999997918, 0.0000000000000000000, 0.3440715893364554301 ) ) ;
#273 =( NAMED_UNIT ( * ) PLANE_ANGLE_UNIT ( ) SI_UNIT ( $, .RADIAN. ) );
#274 = AXIS2_PLACEMENT_3D ( 'NONE', #262, #242, #52 ) ;
#275 = ORIENTED_EDGE ( 'NONE', *, *, #276, .F. ) ;
#276 = EDGE_CURVE ( 'NONE', #134, #58, #89, .T. ) ;
#277 = AXIS2_PLACEMENT_3D ( 'NONE', #69, #194, #201 ) ;
#278 = ORIENTED_EDGE ( 'NONE', *, *, #225, .T. ) ;
#279 = ORIENTED_EDGE ( 'NONE', *, *, #28, .T. ) ;
#280 = CARTESIAN_POINT ( 'NONE',  ( 9.552245033349369302E-18, 0.0000000000000000000, 0.07800000000000009703 ) ) ;
#281 = CIRCLE ( 'NONE', #27, 0.01558440000000000519 ) ;
#282 = DIRECTION ( 'NONE',  ( 0.0000000000000000000, 0.0000000000000000000, -1.000000000000000000 ) ) ;
#283 = DIRECTION ( 'NONE',  ( 0.0000000000000000000, 0.0000000000000000000, 1.000000000000000000 ) ) ;
#284 = CARTESIAN_POINT ( 'NONE',  ( 0.04750000000000064587, 6.735557395310483192E-18, 1.500000000000000222 ) ) ;
#285 = DIRECTION ( 'NONE',  ( -0.0000000000000000000, -0.0000000000000000000, -1.000000000000000000 ) ) ;
#286 =( CONVERSION_BASED_UNIT ( 'INCH', #15 ) LENGTH_UNIT ( ) NAMED_UNIT ( #221 ) );
#287 = CYLINDRICAL_SURFACE ( 'NONE', #233, 0.01558440000000000866 ) ;
#288 = CARTESIAN_POINT ( 'NONE',  ( 9.552245033349369302E-18, 0.0000000000000000000, 0.07800000000000009703 ) ) ;
#289 = CARTESIAN_POINT ( 'NONE',  ( 2.337285635691549169E-34, 0.0000000000000000000, 1.908538557663203788E-18 ) ) ;
#290 = AXIS2_PLACEMENT_3D ( 'NONE', #289, #220, #19 ) ;
#291 =( GEOMETRIC_REPRESENTATION_CONTEXT ( 3 ) GLOBAL_UNCERTAINTY_ASSIGNED_CONTEXT ( ( #99 ) ) GLOBAL_UNIT_ASSIGNED_CONTEXT ( ( #203, #273, #30 ) ) REPRESENTATION_CONTEXT ( 'NONE', 'WORKASPACE' ) );
#292 = FACE_OUTER_BOUND ( 'NONE', #121, .T. ) ;
#293 = CARTESIAN_POINT ( 'NONE',  ( 0.06250000000000002776, 7.654042494670959086E-18, 1.500000000000000222 ) ) ;
#294 = ADVANCED_FACE ( 'NONE', ( #138 ), #131, .T. ) ;
#295 = EDGE_LOOP ( 'NONE', ( #3, #125, #63, #251 ) ) ;
#296 = ORIENTED_EDGE ( 'NONE', *, *, #74, .F. ) ;
#297 = PRODUCT_DEFINITION_CONTEXT ( 'detailed design', #258, 'design' ) ;
#298 = VECTOR ( 'NONE', #188, 39.37007874015748143 ) ;
#299 = EDGE_LOOP ( 'NONE', ( #224, #231 ) ) ;
ENDSEC;
END-ISO-10303-21;
