ISO-10303-21;
HEADER;
FILE_DESCRIPTION (( 'STEP AP214' ),
    '1' );
FILE_NAME ('Micro_SFPM-100-10.STEP',
    '2021-09-02T07:39:48',
    ( '' ),
    ( '' ),
    'SwSTEP 2.0',
    'SolidWorks 2020',
    '' );
FILE_SCHEMA (( 'AUTOMOTIVE_DESIGN' ));
ENDSEC;

DATA;
#1 = PLANE ( 'NONE',  #172 ) ;
#2 = DIRECTION ( 'NONE',  ( 0.0000000000000000000, 0.0000000000000000000, 1.000000000000000000 ) ) ;
#3 =( GEOMETRIC_REPRESENTATION_CONTEXT ( 3 ) GLOBAL_UNCERTAINTY_ASSIGNED_CONTEXT ( ( #239 ) ) GLOBAL_UNIT_ASSIGNED_CONTEXT ( ( #101, #54, #32 ) ) REPRESENTATION_CONTEXT ( 'NONE', 'WORKASPACE' ) );
#4 = DIRECTION ( 'NONE',  ( 1.000000000000000000, 0.0000000000000000000, -0.0000000000000000000 ) ) ;
#5 = FACE_OUTER_BOUND ( 'NONE', #81, .T. ) ;
#6 = ORIENTED_EDGE ( 'NONE', *, *, #67, .T. ) ;
#7 = CIRCLE ( 'NONE', #36, 0.1818505000000002481 ) ;
#8 = ORIENTED_EDGE ( 'NONE', *, *, #70, .F. ) ;
#9 = DIRECTION ( 'NONE',  ( 0.7071067811865354713, 8.659560562354783714E-17, -0.7071067811865594521 ) ) ;
#10 = EDGE_LOOP ( 'NONE', ( #143, #48, #28, #280 ) ) ;
#11 = ADVANCED_FACE ( 'NONE', ( #199 ), #87, .T. ) ;
#12 = AXIS2_PLACEMENT_3D ( 'NONE', #108, #85, #268 ) ;
#13 = EDGE_LOOP ( 'NONE', ( #261, #211, #126, #187 ) ) ;
#14 = CYLINDRICAL_SURFACE ( 'NONE', #12, 0.1966536495000000273 ) ;
#15 = DIRECTION ( 'NONE',  ( 1.000000000000000000, 0.0000000000000000000, 0.0000000000000000000 ) ) ;
#16 = CARTESIAN_POINT ( 'NONE',  ( -0.1968504999999998450, 0.0000000000000000000, 0.9853683946618323475 ) ) ;
#17 = DIRECTION ( 'NONE',  ( -0.0000000000000000000, -0.0000000000000000000, -1.000000000000000000 ) ) ;
#18 = FACE_OUTER_BOUND ( 'NONE', #180, .T. ) ;
#19 = AXIS2_PLACEMENT_3D ( 'NONE', #99, #2, #226 ) ;
#20 =( NAMED_UNIT ( * ) PLANE_ANGLE_UNIT ( ) SI_UNIT ( $, .RADIAN. ) );
#21 = DIRECTION ( 'NONE',  ( -1.000000000000000000, 0.0000000000000000000, 1.224646799147353207E-16 ) ) ;
#22 = PRODUCT_DEFINITION_CONTEXT ( 'detailed design', #43, 'design' ) ;
#23 = CARTESIAN_POINT ( 'NONE',  ( -0.1966536494999999163, 2.409517985681882908E-17, 0.9842519999999999047 ) ) ;
#24 = CYLINDRICAL_SURFACE ( 'NONE', #45, 0.1968504999999999838 ) ;
#25 = VECTOR ( 'NONE', #127, 39.37007874015748143 ) ;
#26 = CIRCLE ( 'NONE', #160, 0.1966536495000000273 ) ;
#27 = DIRECTION ( 'NONE',  ( 0.0000000000000000000, 0.0000000000000000000, 1.000000000000000000 ) ) ;
#28 = ORIENTED_EDGE ( 'NONE', *, *, #166, .F. ) ;
#29 = EDGE_LOOP ( 'NONE', ( #8, #84, #213, #260 ) ) ;
#30 = VECTOR ( 'NONE', #171, 39.37007874015748143 ) ;
#31 = AXIS2_PLACEMENT_3D ( 'NONE', #57, #33, #83 ) ;
#32 =( NAMED_UNIT ( * ) SI_UNIT ( $, .STERADIAN. ) SOLID_ANGLE_UNIT ( ) );
#33 = DIRECTION ( 'NONE',  ( 0.0000000000000000000, 0.0000000000000000000, 1.000000000000000000 ) ) ;
#34 = ADVANCED_FACE ( 'NONE', ( #215 ), #245, .T. ) ;
#35 = EDGE_LOOP ( 'NONE', ( #233, #76 ) ) ;
#36 = AXIS2_PLACEMENT_3D ( 'NONE', #50, #27, #277 ) ;
#37 = FACE_OUTER_BOUND ( 'NONE', #186, .T. ) ;
#38 = EDGE_CURVE ( 'NONE', #283, #97, #52, .T. ) ;
#39 = CARTESIAN_POINT ( 'NONE',  ( 2.949332346337811403E-33, 0.0000000000000000000, 2.408312624008205170E-17 ) ) ;
#40 = DIRECTION ( 'NONE',  ( -1.224646799147353207E-16, -0.0000000000000000000, -1.000000000000000000 ) ) ;
#41 = CARTESIAN_POINT ( 'NONE',  ( 0.1966536495000000273, 2.408312624008205478E-17, -2.408312624008205478E-17 ) ) ;
#42 = FACE_OUTER_BOUND ( 'NONE', #29, .T. ) ;
#43 = APPLICATION_CONTEXT ( 'automotive_design' ) ;
#44 = CARTESIAN_POINT ( 'NONE',  ( 0.1966536495000001661, 0.0000000000000000000, 0.9842519999999999047 ) ) ;
#45 = AXIS2_PLACEMENT_3D ( 'NONE', #274, #73, #201 ) ;
#46 = ADVANCED_FACE ( 'NONE', ( #18 ), #196, .T. ) ;
#47 = DIRECTION ( 'NONE',  ( -1.224646799147353207E-16, -0.0000000000000000000, -1.000000000000000000 ) ) ;
#48 = ORIENTED_EDGE ( 'NONE', *, *, #256, .T. ) ;
#49 = SURFACE_SIDE_STYLE ('',( #249 ) ) ;
#50 = CARTESIAN_POINT ( 'NONE',  ( 0.0000000000000000000, 0.0000000000000000000, 2.834646000000000665 ) ) ;
#51 = PRODUCT ( 'Micro_SFPM-100-10', 'Micro_SFPM-100-10', '', ( #106 ) ) ;
#52 = CIRCLE ( 'NONE', #125, 0.1818505000000002481 ) ;
#53 = PRESENTATION_STYLE_ASSIGNMENT (( #234 ) ) ;
#54 =( NAMED_UNIT ( * ) PLANE_ANGLE_UNIT ( ) SI_UNIT ( $, .RADIAN. ) );
#55 = ORIENTED_EDGE ( 'NONE', *, *, #293, .T. ) ;
#56 = ORIENTED_EDGE ( 'NONE', *, *, #269, .T. ) ;
#57 = CARTESIAN_POINT ( 'NONE',  ( 0.0000000000000000000, 0.0000000000000000000, 0.0000000000000000000 ) ) ;
#58 = ORIENTED_EDGE ( 'NONE', *, *, #220, .F. ) ;
#59 = VERTEX_POINT ( 'NONE', #146 ) ;
#60 = ORIENTED_EDGE ( 'NONE', *, *, #86, .T. ) ;
#61 = VECTOR ( 'NONE', #207, 39.37007874015748143 ) ;
#62 = CARTESIAN_POINT ( 'NONE',  ( 1.206728250503578783E-16, 0.0000000000000000000, 0.9853683946618323475 ) ) ;
#63 = EDGE_CURVE ( 'NONE', #141, #68, #147, .T. ) ;
#64 = DIRECTION ( 'NONE',  ( -1.000000000000000000, 0.0000000000000000000, 0.0000000000000000000 ) ) ;
#65 = CARTESIAN_POINT ( 'NONE',  ( 0.0000000000000000000, 0.0000000000000000000, 2.834646000000000665 ) ) ;
#66 = DIRECTION ( 'NONE',  ( -1.000000000000000000, 0.0000000000000000000, 1.224646799147353207E-16 ) ) ;
#67 = EDGE_CURVE ( 'NONE', #236, #68, #91, .T. ) ;
#68 = VERTEX_POINT ( 'NONE', #16 ) ;
#69 = DIMENSIONAL_EXPONENTS ( 1.000000000000000000, 0.0000000000000000000, 0.0000000000000000000, 0.0000000000000000000, 0.0000000000000000000, 0.0000000000000000000, 0.0000000000000000000 ) ;
#70 = EDGE_CURVE ( 'NONE', #206, #262, #271, .T. ) ;
#71 = EDGE_CURVE ( 'NONE', #283, #141, #90, .T. ) ;
#72 = DIMENSIONAL_EXPONENTS ( 1.000000000000000000, 0.0000000000000000000, 0.0000000000000000000, 0.0000000000000000000, 0.0000000000000000000, 0.0000000000000000000, 0.0000000000000000000 ) ;
#73 = DIRECTION ( 'NONE',  ( -0.0000000000000000000, -0.0000000000000000000, -1.000000000000000000 ) ) ;
#74 = LINE ( 'NONE', #212, #208 ) ;
#75 = CARTESIAN_POINT ( 'NONE',  ( 0.0000000000000000000, 0.0000000000000000000, 2.819646000000000097 ) ) ;
#76 = ORIENTED_EDGE ( 'NONE', *, *, #278, .T. ) ;
#77 = PRODUCT_DEFINITION_SHAPE ( 'NONE', 'NONE',  #117 ) ;
#78 = ORIENTED_EDGE ( 'NONE', *, *, #142, .T. ) ;
#79 = VERTEX_POINT ( 'NONE', #109 ) ;
#80 = ADVANCED_FACE ( 'NONE', ( #42 ), #291, .T. ) ;
#81 = EDGE_LOOP ( 'NONE', ( #159, #78 ) ) ;
#82 = EDGE_LOOP ( 'NONE', ( #176, #105, #229, #235 ) ) ;
#83 = DIRECTION ( 'NONE',  ( 1.000000000000000000, 0.0000000000000000000, 0.0000000000000000000 ) ) ;
#84 = ORIENTED_EDGE ( 'NONE', *, *, #220, .T. ) ;
#85 = DIRECTION ( 'NONE',  ( -1.224646799147353207E-16, -0.0000000000000000000, -1.000000000000000000 ) ) ;
#86 = EDGE_CURVE ( 'NONE', #59, #68, #285, .T. ) ;
#87 = CONICAL_SURFACE ( 'NONE', #246, 0.1818505000000002481, 0.7853981633974312926 ) ;
#88 = STYLED_ITEM ( 'NONE', ( #53 ), #224 ) ;
#89 = DIRECTION ( 'NONE',  ( 0.0000000000000000000, 0.0000000000000000000, -1.000000000000000000 ) ) ;
#90 = LINE ( 'NONE', #219, #275 ) ;
#91 = LINE ( 'NONE', #198, #30 ) ;
#92 = EDGE_LOOP ( 'NONE', ( #122, #287, #104, #281 ) ) ;
#93 = PRODUCT_DEFINITION_FORMATION_WITH_SPECIFIED_SOURCE ( 'ANY', '', #51, .NOT_KNOWN. ) ;
#94 = LENGTH_MEASURE_WITH_UNIT ( LENGTH_MEASURE( 0.02539999999999999897 ), #152 );
#95 = DIRECTION ( 'NONE',  ( 1.000000000000000000, 0.0000000000000000000, 0.0000000000000000000 ) ) ;
#96 = LINE ( 'NONE', #44, #133 ) ;
#97 = VERTEX_POINT ( 'NONE', #150 ) ;
#98 = AXIS2_PLACEMENT_3D ( 'NONE', #202, #157, #182 ) ;
#99 = CARTESIAN_POINT ( 'NONE',  ( 0.0000000000000000000, 0.0000000000000000000, 0.0000000000000000000 ) ) ;
#100 = ADVANCED_FACE ( 'NONE', ( #37 ), #259, .T. ) ;
#101 =( CONVERSION_BASED_UNIT ( 'INCH', #230 ) LENGTH_UNIT ( ) NAMED_UNIT ( #69 ) );
#102 = ORIENTED_EDGE ( 'NONE', *, *, #166, .T. ) ;
#103 = CIRCLE ( 'NONE', #197, 0.1968504999999999838 ) ;
#104 = ORIENTED_EDGE ( 'NONE', *, *, #161, .F. ) ;
#105 = ORIENTED_EDGE ( 'NONE', *, *, #232, .T. ) ;
#106 = PRODUCT_CONTEXT ( 'NONE', #253, 'mechanical' ) ;
#107 =( GEOMETRIC_REPRESENTATION_CONTEXT ( 3 ) GLOBAL_UNCERTAINTY_ASSIGNED_CONTEXT ( ( #290 ) ) GLOBAL_UNIT_ASSIGNED_CONTEXT ( ( #192, #20, #288 ) ) REPRESENTATION_CONTEXT ( 'NONE', 'WORKASPACE' ) );
#108 = CARTESIAN_POINT ( 'NONE',  ( 0.0000000000000000000, 0.0000000000000000000, 0.0000000000000000000 ) ) ;
#109 = CARTESIAN_POINT ( 'NONE',  ( 0.1968504999999999838, 2.410723347355560646E-17, 2.819646000000000097 ) ) ;
#110 = DIRECTION ( 'NONE',  ( -1.224646799147353207E-16, -0.0000000000000000000, -1.000000000000000000 ) ) ;
#111 = EDGE_CURVE ( 'NONE', #236, #162, #214, .T. ) ;
#112 = DIRECTION ( 'NONE',  ( 0.0000000000000000000, 0.0000000000000000000, -1.000000000000000000 ) ) ;
#113 = CARTESIAN_POINT ( 'NONE',  ( 0.0000000000000000000, 0.0000000000000000000, 2.834646000000000665 ) ) ;
#114 = CARTESIAN_POINT ( 'NONE',  ( 0.0000000000000000000, 0.0000000000000000000, 2.834646000000000665 ) ) ;
#115 = AXIS2_PLACEMENT_3D ( 'NONE', #75, #175, #95 ) ;
#116 = DIRECTION ( 'NONE',  ( 0.0000000000000000000, 0.0000000000000000000, 1.000000000000000000 ) ) ;
#117 = PRODUCT_DEFINITION ( 'UNKNOWN', '', #93, #22 ) ;
#118 = LINE ( 'NONE', #299, #61 ) ;
#119 = AXIS2_PLACEMENT_3D ( 'NONE', #273, #194, #66 ) ;
#120 = CIRCLE ( 'NONE', #184, 0.1968504999999999838 ) ;
#121 = PRESENTATION_STYLE_ASSIGNMENT (( #135 ) ) ;
#122 = ORIENTED_EDGE ( 'NONE', *, *, #195, .T. ) ;
#123 = ADVANCED_FACE ( 'NONE', ( #169 ), #289, .T. ) ;
#124 = ORIENTED_EDGE ( 'NONE', *, *, #67, .F. ) ;
#125 = AXIS2_PLACEMENT_3D ( 'NONE', #65, #237, #15 ) ;
#126 = ORIENTED_EDGE ( 'NONE', *, *, #71, .T. ) ;
#127 = DIRECTION ( 'NONE',  ( -1.224646799147353207E-16, -0.0000000000000000000, -1.000000000000000000 ) ) ;
#128 = CARTESIAN_POINT ( 'NONE',  ( -0.1968504999999999838, 0.0000000000000000000, 2.834646000000000665 ) ) ;
#129 = DIRECTION ( 'NONE',  ( -1.000000000000000000, 0.0000000000000000000, 1.224646799147353207E-16 ) ) ;
#130 = DIMENSIONAL_EXPONENTS ( 1.000000000000000000, 0.0000000000000000000, 0.0000000000000000000, 0.0000000000000000000, 0.0000000000000000000, 0.0000000000000000000, 0.0000000000000000000 ) ;
#131 = CARTESIAN_POINT ( 'NONE',  ( 0.0000000000000000000, 0.0000000000000000000, 2.834646000000000665 ) ) ;
#132 = DIRECTION ( 'NONE',  ( 1.224646799147353207E-16, 0.0000000000000000000, 1.000000000000000000 ) ) ;
#133 = VECTOR ( 'NONE', #179, 39.37007874015748143 ) ;
#134 = CARTESIAN_POINT ( 'NONE',  ( 0.0000000000000000000, 0.0000000000000000000, 2.819646000000000097 ) ) ;
#135 = SURFACE_STYLE_USAGE ( .BOTH. , #49 ) ;
#136 = CARTESIAN_POINT ( 'NONE',  ( 0.1966536495000001661, 0.0000000000000000000, 0.9842519999999999047 ) ) ;
#137 = AXIS2_PLACEMENT_3D ( 'NONE', #113, #297, #270 ) ;
#138 = ADVANCED_FACE ( 'NONE', ( #240 ), #14, .T. ) ;
#139 = APPLICATION_PROTOCOL_DEFINITION ( 'draft international standard', 'automotive_design', 1998, #253 ) ;
#140 = PRODUCT_RELATED_PRODUCT_CATEGORY ( 'part', '', ( #51 ) ) ;
#141 = VERTEX_POINT ( 'NONE', #238 ) ;
#142 = EDGE_CURVE ( 'NONE', #262, #162, #155, .T. ) ;
#143 = ORIENTED_EDGE ( 'NONE', *, *, #203, .T. ) ;
#144 = PRESENTATION_LAYER_ASSIGNMENT (  '', '', ( #168 ) ) ;
#145 = DIRECTION ( 'NONE',  ( -1.224646799147353207E-16, -0.0000000000000000000, -1.000000000000000000 ) ) ;
#146 = CARTESIAN_POINT ( 'NONE',  ( 0.1968505000000001226, 2.410723347355561878E-17, 0.9853683946618323475 ) ) ;
#147 = LINE ( 'NONE', #128, #178 ) ;
#148 = VECTOR ( 'NONE', #145, 39.37007874015748143 ) ;
#149 = AXIS2_PLACEMENT_3D ( 'NONE', #216, #110, #21 ) ;
#150 = CARTESIAN_POINT ( 'NONE',  ( 0.1818505000000002481, 2.318874837419510283E-17, 2.834646000000000665 ) ) ;
#151 = DIRECTION ( 'NONE',  ( 1.000000000000000000, 0.0000000000000000000, 0.0000000000000000000 ) ) ;
#152 =( LENGTH_UNIT ( ) NAMED_UNIT ( * ) SI_UNIT ( $, .METRE. ) );
#153 = FACE_OUTER_BOUND ( 'NONE', #10, .T. ) ;
#154 =( GEOMETRIC_REPRESENTATION_CONTEXT ( 3 ) GLOBAL_UNCERTAINTY_ASSIGNED_CONTEXT ( ( #204 ) ) GLOBAL_UNIT_ASSIGNED_CONTEXT ( ( #174, #244, #254 ) ) REPRESENTATION_CONTEXT ( 'NONE', 'WORKASPACE' ) );
#155 = CIRCLE ( 'NONE', #221, 0.1966536494999999996 ) ;
#156 = FILL_AREA_STYLE_COLOUR ( '', #294 ) ;
#157 = DIRECTION ( 'NONE',  ( -1.224646799147353207E-16, -0.0000000000000000000, -1.000000000000000000 ) ) ;
#158 = SURFACE_SIDE_STYLE ('',( #191 ) ) ;
#159 = ORIENTED_EDGE ( 'NONE', *, *, #161, .T. ) ;
#160 = AXIS2_PLACEMENT_3D ( 'NONE', #248, #47, #250 ) ;
#161 = EDGE_CURVE ( 'NONE', #162, #262, #272, .T. ) ;
#162 = VERTEX_POINT ( 'NONE', #276 ) ;
#163 = APPLICATION_PROTOCOL_DEFINITION ( 'draft international standard', 'automotive_design', 1998, #43 ) ;
#164 = ORIENTED_EDGE ( 'NONE', *, *, #278, .F. ) ;
#165 = CARTESIAN_POINT ( 'NONE',  ( -0.1966536495000000273, 0.0000000000000000000, 2.408312624008205478E-17 ) ) ;
#166 = EDGE_CURVE ( 'NONE', #68, #59, #120, .T. ) ;
#167 = ADVANCED_FACE ( 'NONE', ( #209 ), #1, .T. ) ;
#168 = STYLED_ITEM ( 'NONE', ( #121 ), #282 ) ;
#169 = FACE_OUTER_BOUND ( 'NONE', #82, .T. ) ;
#170 = DIRECTION ( 'NONE',  ( -1.224646799147353207E-16, -0.0000000000000000000, -1.000000000000000000 ) ) ;
#171 = DIRECTION ( 'NONE',  ( -0.1736481776669312194, 2.126576849575783625E-17, 0.9848077530122077983 ) ) ;
#172 = AXIS2_PLACEMENT_3D ( 'NONE', #114, #116, #4 ) ;
#173 = DIRECTION ( 'NONE',  ( 1.000000000000000000, 0.0000000000000000000, 0.0000000000000000000 ) ) ;
#174 =( CONVERSION_BASED_UNIT ( 'INCH', #94 ) LENGTH_UNIT ( ) NAMED_UNIT ( #72 ) );
#175 = DIRECTION ( 'NONE',  ( 0.0000000000000000000, 0.0000000000000000000, -1.000000000000000000 ) ) ;
#176 = ORIENTED_EDGE ( 'NONE', *, *, #256, .F. ) ;
#177 = ADVANCED_FACE ( 'NONE', ( #153 ), #24, .T. ) ;
#178 = VECTOR ( 'NONE', #17, 39.37007874015748143 ) ;
#179 = DIRECTION ( 'NONE',  ( 0.1736481776669314414, 0.0000000000000000000, 0.9848077530122077983 ) ) ;
#180 = EDGE_LOOP ( 'NONE', ( #225, #6, #102, #188 ) ) ;
#181 = CARTESIAN_POINT ( 'NONE',  ( 0.1966536494999999996, 2.408312624008205170E-17, 3.791200677927629740E-33 ) ) ;
#182 = DIRECTION ( 'NONE',  ( -1.000000000000000000, 0.0000000000000000000, 0.0000000000000000000 ) ) ;
#183 = FILL_AREA_STYLE ('',( #228 ) ) ;
#184 = AXIS2_PLACEMENT_3D ( 'NONE', #222, #279, #151 ) ;
#185 =( LENGTH_UNIT ( ) NAMED_UNIT ( * ) SI_UNIT ( $, .METRE. ) );
#186 = EDGE_LOOP ( 'NONE', ( #124, #58, #56, #60 ) ) ;
#187 = ORIENTED_EDGE ( 'NONE', *, *, #232, .F. ) ;
#188 = ORIENTED_EDGE ( 'NONE', *, *, #269, .F. ) ;
#189 = AXIS2_PLACEMENT_3D ( 'NONE', #242, #132, #241 ) ;
#190 = MECHANICAL_DESIGN_GEOMETRIC_PRESENTATION_REPRESENTATION (  '', ( #88 ), #107 ) ;
#191 = SURFACE_STYLE_FILL_AREA ( #183 ) ;
#192 =( CONVERSION_BASED_UNIT ( 'INCH', #257 ) LENGTH_UNIT ( ) NAMED_UNIT ( #130 ) );
#193 = DIRECTION ( 'NONE',  ( -1.000000000000000000, 0.0000000000000000000, 0.0000000000000000000 ) ) ;
#194 = DIRECTION ( 'NONE',  ( -1.224646799147353207E-16, -0.0000000000000000000, -1.000000000000000000 ) ) ;
#195 = EDGE_CURVE ( 'NONE', #236, #206, #286, .T. ) ;
#196 = CONICAL_SURFACE ( 'NONE', #231, 0.1966536495000000273, 0.1745329251994339470 ) ;
#197 = AXIS2_PLACEMENT_3D ( 'NONE', #134, #223, #243 ) ;
#198 = CARTESIAN_POINT ( 'NONE',  ( -0.1966536494999999163, 2.408312624008205478E-17, 0.9842519999999999047 ) ) ;
#199 = FACE_OUTER_BOUND ( 'NONE', #13, .T. ) ;
#200 = DIRECTION ( 'NONE',  ( 1.224646799147353207E-16, 0.0000000000000000000, 1.000000000000000000 ) ) ;
#201 = DIRECTION ( 'NONE',  ( -1.000000000000000000, 0.0000000000000000000, 0.0000000000000000000 ) ) ;
#202 = CARTESIAN_POINT ( 'NONE',  ( 1.205361061354380629E-16, 0.0000000000000000000, 0.9842519999999999047 ) ) ;
#203 = EDGE_CURVE ( 'NONE', #141, #79, #267, .T. ) ;
#204 = UNCERTAINTY_MEASURE_WITH_UNIT (LENGTH_MEASURE( 1.000000000000000082E-05 ), #174, 'distance_accuracy_value', 'NONE');
#205 = PLANE ( 'NONE',  #19 ) ;
#206 = VERTEX_POINT ( 'NONE', #136 ) ;
#207 = DIRECTION ( 'NONE',  ( -0.0000000000000000000, -0.0000000000000000000, -1.000000000000000000 ) ) ;
#208 = VECTOR ( 'NONE', #9, 39.37007874015748854 ) ;
#209 = FACE_OUTER_BOUND ( 'NONE', #35, .T. ) ;
#210 = EDGE_LOOP ( 'NONE', ( #164, #55, #258, #255 ) ) ;
#211 = ORIENTED_EDGE ( 'NONE', *, *, #38, .F. ) ;
#212 = CARTESIAN_POINT ( 'NONE',  ( 0.1818505000000002481, 2.227026327483460228E-17, 2.834646000000000665 ) ) ;
#213 = ORIENTED_EDGE ( 'NONE', *, *, #111, .T. ) ;
#214 = LINE ( 'NONE', #165, #148 ) ;
#215 = FACE_OUTER_BOUND ( 'NONE', #210, .T. ) ;
#216 = CARTESIAN_POINT ( 'NONE',  ( 2.949332346337811403E-33, 0.0000000000000000000, 2.408312624008205170E-17 ) ) ;
#217 = AXIS2_PLACEMENT_3D ( 'NONE', #62, #170, #173 ) ;
#218 = CARTESIAN_POINT ( 'NONE',  ( 1.205361061354380629E-16, 0.0000000000000000000, 0.9842519999999999047 ) ) ;
#219 = CARTESIAN_POINT ( 'NONE',  ( -0.1818505000000002481, 0.0000000000000000000, 2.834646000000000665 ) ) ;
#220 = EDGE_CURVE ( 'NONE', #206, #236, #26, .T. ) ;
#221 = AXIS2_PLACEMENT_3D ( 'NONE', #39, #40, #129 ) ;
#222 = CARTESIAN_POINT ( 'NONE',  ( 1.206728250503578783E-16, 0.0000000000000000000, 0.9853683946618323475 ) ) ;
#223 = DIRECTION ( 'NONE',  ( 0.0000000000000000000, 0.0000000000000000000, -1.000000000000000000 ) ) ;
#224 = ADVANCED_BREP_SHAPE_REPRESENTATION ( 'Micro_SFPM-100-10', ( #282, #31 ), #3 ) ;
#225 = ORIENTED_EDGE ( 'NONE', *, *, #195, .F. ) ;
#226 = DIRECTION ( 'NONE',  ( 1.000000000000000000, 0.0000000000000000000, -0.0000000000000000000 ) ) ;
#227 = FILL_AREA_STYLE ('',( #156 ) ) ;
#228 = FILL_AREA_STYLE_COLOUR ( '', #298 ) ;
#229 = ORIENTED_EDGE ( 'NONE', *, *, #63, .T. ) ;
#230 = LENGTH_MEASURE_WITH_UNIT ( LENGTH_MEASURE( 0.02539999999999999897 ), #284 );
#231 = AXIS2_PLACEMENT_3D ( 'NONE', #218, #200, #296 ) ;
#232 = EDGE_CURVE ( 'NONE', #79, #141, #103, .T. ) ;
#233 = ORIENTED_EDGE ( 'NONE', *, *, #38, .T. ) ;
#234 = SURFACE_STYLE_USAGE ( .BOTH. , #158 ) ;
#235 = ORIENTED_EDGE ( 'NONE', *, *, #86, .F. ) ;
#236 = VERTEX_POINT ( 'NONE', #23 ) ;
#237 = DIRECTION ( 'NONE',  ( 0.0000000000000000000, 0.0000000000000000000, 1.000000000000000000 ) ) ;
#238 = CARTESIAN_POINT ( 'NONE',  ( -0.1968504999999999838, 0.0000000000000000000, 2.819646000000000097 ) ) ;
#239 = UNCERTAINTY_MEASURE_WITH_UNIT (LENGTH_MEASURE( 1.000000000000000082E-05 ), #101, 'distance_accuracy_value', 'NONE');
#240 = FACE_OUTER_BOUND ( 'NONE', #92, .T. ) ;
#241 = DIRECTION ( 'NONE',  ( 1.000000000000000000, 0.0000000000000000000, 0.0000000000000000000 ) ) ;
#242 = CARTESIAN_POINT ( 'NONE',  ( 1.205361061354380629E-16, 0.0000000000000000000, 0.9842519999999999047 ) ) ;
#243 = DIRECTION ( 'NONE',  ( 1.000000000000000000, 0.0000000000000000000, 0.0000000000000000000 ) ) ;
#244 =( NAMED_UNIT ( * ) PLANE_ANGLE_UNIT ( ) SI_UNIT ( $, .RADIAN. ) );
#245 = CONICAL_SURFACE ( 'NONE', #292, 0.1818505000000002481, 0.7853981633974312926 ) ;
#246 = AXIS2_PLACEMENT_3D ( 'NONE', #266, #89, #193 ) ;
#247 = PRESENTATION_LAYER_ASSIGNMENT (  '', '', ( #88 ) ) ;
#248 = CARTESIAN_POINT ( 'NONE',  ( 1.205361061354380629E-16, 0.0000000000000000000, 0.9842519999999999047 ) ) ;
#249 = SURFACE_STYLE_FILL_AREA ( #227 ) ;
#250 = DIRECTION ( 'NONE',  ( -1.000000000000000000, 0.0000000000000000000, 0.0000000000000000000 ) ) ;
#251 = CARTESIAN_POINT ( 'NONE',  ( -0.1818505000000002481, 0.0000000000000000000, 2.834646000000000665 ) ) ;
#252 = MECHANICAL_DESIGN_GEOMETRIC_PRESENTATION_REPRESENTATION (  '', ( #168 ), #154 ) ;
#253 = APPLICATION_CONTEXT ( 'automotive_design' ) ;
#254 =( NAMED_UNIT ( * ) SI_UNIT ( $, .STERADIAN. ) SOLID_ANGLE_UNIT ( ) );
#255 = ORIENTED_EDGE ( 'NONE', *, *, #71, .F. ) ;
#256 = EDGE_CURVE ( 'NONE', #79, #59, #118, .T. ) ;
#257 = LENGTH_MEASURE_WITH_UNIT ( LENGTH_MEASURE( 0.02539999999999999897 ), #185 );
#258 = ORIENTED_EDGE ( 'NONE', *, *, #203, .F. ) ;
#259 = CONICAL_SURFACE ( 'NONE', #189, 0.1966536495000000273, 0.1745329251994339470 ) ;
#260 = ORIENTED_EDGE ( 'NONE', *, *, #142, .F. ) ;
#261 = ORIENTED_EDGE ( 'NONE', *, *, #293, .F. ) ;
#262 = VERTEX_POINT ( 'NONE', #181 ) ;
#263 = SHAPE_DEFINITION_REPRESENTATION ( #77, #224 ) ;
#264 = ADVANCED_FACE ( 'NONE', ( #5 ), #205, .F. ) ;
#265 = CLOSED_SHELL ( 'NONE', ( #138, #46, #34, #177, #123, #167, #11, #100, #80, #264 ) ) ;
#266 = CARTESIAN_POINT ( 'NONE',  ( 0.0000000000000000000, 0.0000000000000000000, 2.834646000000000665 ) ) ;
#267 = CIRCLE ( 'NONE', #115, 0.1968504999999999838 ) ;
#268 = DIRECTION ( 'NONE',  ( -1.000000000000000000, 0.0000000000000000000, 1.224646799147353207E-16 ) ) ;
#269 = EDGE_CURVE ( 'NONE', #206, #59, #96, .T. ) ;
#270 = DIRECTION ( 'NONE',  ( -1.000000000000000000, 0.0000000000000000000, 0.0000000000000000000 ) ) ;
#271 = LINE ( 'NONE', #41, #25 ) ;
#272 = CIRCLE ( 'NONE', #149, 0.1966536494999999996 ) ;
#273 = CARTESIAN_POINT ( 'NONE',  ( 0.0000000000000000000, 0.0000000000000000000, 0.0000000000000000000 ) ) ;
#274 = CARTESIAN_POINT ( 'NONE',  ( 0.0000000000000000000, 0.0000000000000000000, 2.834646000000000665 ) ) ;
#275 = VECTOR ( 'NONE', #295, 39.37007874015748854 ) ;
#276 = CARTESIAN_POINT ( 'NONE',  ( -0.1966536494999999996, 0.0000000000000000000, 4.816625248016410340E-17 ) ) ;
#277 = DIRECTION ( 'NONE',  ( 1.000000000000000000, 0.0000000000000000000, 0.0000000000000000000 ) ) ;
#278 = EDGE_CURVE ( 'NONE', #97, #283, #7, .T. ) ;
#279 = DIRECTION ( 'NONE',  ( -1.224646799147353207E-16, -0.0000000000000000000, -1.000000000000000000 ) ) ;
#280 = ORIENTED_EDGE ( 'NONE', *, *, #63, .F. ) ;
#281 = ORIENTED_EDGE ( 'NONE', *, *, #111, .F. ) ;
#282 = MANIFOLD_SOLID_BREP ( 'Cut-Revolve1', #265 ) ;
#283 = VERTEX_POINT ( 'NONE', #251 ) ;
#284 =( LENGTH_UNIT ( ) NAMED_UNIT ( * ) SI_UNIT ( $, .METRE. ) );
#285 = CIRCLE ( 'NONE', #217, 0.1968504999999999838 ) ;
#286 = CIRCLE ( 'NONE', #98, 0.1966536495000000273 ) ;
#287 = ORIENTED_EDGE ( 'NONE', *, *, #70, .T. ) ;
#288 =( NAMED_UNIT ( * ) SI_UNIT ( $, .STERADIAN. ) SOLID_ANGLE_UNIT ( ) );
#289 = CYLINDRICAL_SURFACE ( 'NONE', #137, 0.1968504999999999838 ) ;
#290 = UNCERTAINTY_MEASURE_WITH_UNIT (LENGTH_MEASURE( 1.000000000000000082E-05 ), #192, 'distance_accuracy_value', 'NONE');
#291 = CYLINDRICAL_SURFACE ( 'NONE', #119, 0.1966536495000000273 ) ;
#292 = AXIS2_PLACEMENT_3D ( 'NONE', #131, #112, #64 ) ;
#293 = EDGE_CURVE ( 'NONE', #97, #79, #74, .T. ) ;
#294 = COLOUR_RGB ( '',0.7921568627450980005, 0.8196078431372548767, 0.9333333333333333481 ) ;
#295 = DIRECTION ( 'NONE',  ( -0.7071067811865354713, 0.0000000000000000000, -0.7071067811865594521 ) ) ;
#296 = DIRECTION ( 'NONE',  ( 1.000000000000000000, 0.0000000000000000000, 0.0000000000000000000 ) ) ;
#297 = DIRECTION ( 'NONE',  ( -0.0000000000000000000, -0.0000000000000000000, -1.000000000000000000 ) ) ;
#298 = COLOUR_RGB ( '',0.7921568627450980005, 0.8196078431372548767, 0.9333333333333333481 ) ;
#299 = CARTESIAN_POINT ( 'NONE',  ( 0.1968504999999999838, 2.410723347355560646E-17, 2.834646000000000665 ) ) ;
ENDSEC;
END-ISO-10303-21;
