ISO-10303-21;
HEADER;
FILE_DESCRIPTION (( 'STEP AP214' ),
    '1' );
FILE_NAME ('01780.STEP',
    '2023-06-22T14:48:29',
    ( '' ),
    ( '' ),
    'SwSTEP 2.0',
    'SolidWorks 2023',
    '' );
FILE_SCHEMA (( 'AUTOMOTIVE_DESIGN' ));
ENDSEC;

DATA;
#1 = PRESENTATION_LAYER_ASSIGNMENT (  '', '', ( #73 ) ) ;
#2 = PLANE ( 'NONE',  #163 ) ;
#3 = AXIS2_PLACEMENT_3D ( 'NONE', #59, #166, #265 ) ;
#4 =( NAMED_UNIT ( * ) PLANE_ANGLE_UNIT ( ) SI_UNIT ( $, .RADIAN. ) );
#5 = FILL_AREA_STYLE ('',( #250 ) ) ;
#6 = FACE_OUTER_BOUND ( 'NONE', #121, .T. ) ;
#7 =( LENGTH_UNIT ( ) NAMED_UNIT ( * ) SI_UNIT ( $, .METRE. ) );
#8 = CYLINDRICAL_SURFACE ( 'NONE', #144, 0.5000000000000000000 ) ;
#9 =( GEOMETRIC_REPRESENTATION_CONTEXT ( 3 ) GLOBAL_UNCERTAINTY_ASSIGNED_CONTEXT ( ( #168 ) ) GLOBAL_UNIT_ASSIGNED_CONTEXT ( ( #276, #214, #178 ) ) REPRESENTATION_CONTEXT ( 'NONE', 'WORKASPACE' ) );
#10 = LENGTH_MEASURE_WITH_UNIT ( LENGTH_MEASURE( 0.02539999999999999897 ), #231 );
#11 = FILL_AREA_STYLE_COLOUR ( '', #53 ) ;
#12 = FILL_AREA_STYLE ('',( #261 ) ) ;
#13 = DIRECTION ( 'NONE',  ( 0.000000000000000000, 0.000000000000000000, -1.000000000000000000 ) ) ;
#14 = VECTOR ( 'NONE', #209, 39.37007874015748143 ) ;
#15 = STYLED_ITEM ( 'NONE', ( #88 ), #277 ) ;
#16 = CARTESIAN_POINT ( 'NONE',  ( 4.957883579047472087E-34, 3.250000000000000000, 0.000000000000000000 ) ) ;
#17 = CIRCLE ( 'NONE', #39, 0.5000000000000000000 ) ;
#18 = FACE_OUTER_BOUND ( 'NONE', #284, .T. ) ;
#19 = EDGE_CURVE ( 'NONE', #289, #40, #253, .T. ) ;
#20 = EDGE_LOOP ( 'NONE', ( #117, #123 ) ) ;
#21 = CARTESIAN_POINT ( 'NONE',  ( 0.000000000000000000, 0.000000000000000000, 0.000000000000000000 ) ) ;
#22 = VERTEX_POINT ( 'NONE', #273 ) ;
#23 = COLOUR_RGB ( '',1.000000000000000000, 0.000000000000000000, 0.000000000000000000 ) ;
#24 = CARTESIAN_POINT ( 'NONE',  ( -1.224646799147354440E-16, 6.000000000000000888, 0.000000000000000000 ) ) ;
#25 = DIMENSIONAL_EXPONENTS ( 1.000000000000000000, 0.000000000000000000, 0.000000000000000000, 0.000000000000000000, 0.000000000000000000, 0.000000000000000000, 0.000000000000000000 ) ;
#26 = EDGE_LOOP ( 'NONE', ( #153, #192 ) ) ;
#27 =( LENGTH_UNIT ( ) NAMED_UNIT ( * ) SI_UNIT ( $, .METRE. ) );
#28 = VECTOR ( 'NONE', #220, 39.37007874015748143 ) ;
#29 = PRESENTATION_STYLE_ASSIGNMENT (( #68 ) ) ;
#30 =( NAMED_UNIT ( * ) PLANE_ANGLE_UNIT ( ) SI_UNIT ( $, .RADIAN. ) );
#31 = CARTESIAN_POINT ( 'NONE',  ( 0.4999999999999999445, 6.000000000000000888, 6.123233995736767268E-17 ) ) ;
#32 = DIRECTION ( 'NONE',  ( -4.453261087808560759E-17, 1.000000000000000000, -0.000000000000000000 ) ) ;
#33 = ADVANCED_FACE ( 'NONE', ( #6 ), #129, .T. ) ;
#34 = SURFACE_STYLE_FILL_AREA ( #12 ) ;
#35 = CARTESIAN_POINT ( 'NONE',  ( 0.000000000000000000, 3.250000000000000000, -0.5000000000000000000 ) ) ;
#36 = FACE_OUTER_BOUND ( 'NONE', #45, .T. ) ;
#37 = ADVANCED_FACE ( 'NONE', ( #72 ), #8, .T. ) ;
#38 = MECHANICAL_DESIGN_GEOMETRIC_PRESENTATION_REPRESENTATION (  '', ( #73 ), #263 ) ;
#39 = AXIS2_PLACEMENT_3D ( 'NONE', #175, #97, #244 ) ;
#40 = VERTEX_POINT ( 'NONE', #164 ) ;
#41 = DIRECTION ( 'NONE',  ( -4.453261087808560759E-17, 1.000000000000000000, -0.000000000000000000 ) ) ;
#42 = VERTEX_POINT ( 'NONE', #77 ) ;
#43 = EDGE_LOOP ( 'NONE', ( #248, #126, #170, #245 ) ) ;
#44 =( CONVERSION_BASED_UNIT ( 'INCH', #227 ) LENGTH_UNIT ( ) NAMED_UNIT ( #128 ) );
#45 = EDGE_LOOP ( 'NONE', ( #95, #93, #282, #87 ) ) ;
#46 = PRODUCT_DEFINITION_CONTEXT ( 'detailed design', #213, 'design' ) ;
#47 = DIMENSIONAL_EXPONENTS ( 1.000000000000000000, 0.000000000000000000, 0.000000000000000000, 0.000000000000000000, 0.000000000000000000, 0.000000000000000000, 0.000000000000000000 ) ;
#48 = LENGTH_MEASURE_WITH_UNIT ( LENGTH_MEASURE( 0.02539999999999999897 ), #7 );
#49 = CLOSED_SHELL ( 'NONE', ( #33, #85, #37, #277 ) ) ;
#50 = VERTEX_POINT ( 'NONE', #161 ) ;
#51 = DIRECTION ( 'NONE',  ( 0.000000000000000000, 1.000000000000000000, 0.000000000000000000 ) ) ;
#52 = DIRECTION ( 'NONE',  ( 0.000000000000000000, 0.000000000000000000, -1.000000000000000000 ) ) ;
#53 = COLOUR_RGB ( '',1.000000000000000000, 0.000000000000000000, 0.000000000000000000 ) ;
#54 = COLOUR_RGB ( '',0.7921568627450980005, 0.8196078431372548767, 0.9333333333333333481 ) ;
#55 = DIRECTION ( 'NONE',  ( -4.453261087808560759E-17, 1.000000000000000000, -0.000000000000000000 ) ) ;
#56 = DIRECTION ( 'NONE',  ( 1.000000000000000000, 4.453261087808560759E-17, 0.000000000000000000 ) ) ;
#57 = ORIENTED_EDGE ( 'NONE', *, *, #124, .F. ) ;
#58 = EDGE_CURVE ( 'NONE', #271, #66, #119, .T. ) ;
#59 = CARTESIAN_POINT ( 'NONE',  ( 0.000000000000000000, 3.250000000000000000, 0.000000000000000000 ) ) ;
#60 = ORIENTED_EDGE ( 'NONE', *, *, #185, .T. ) ;
#61 = COLOUR_RGB ( '',0.7921568627450980005, 0.8196078431372548767, 0.9333333333333333481 ) ;
#62 =( NAMED_UNIT ( * ) PLANE_ANGLE_UNIT ( ) SI_UNIT ( $, .RADIAN. ) );
#63 = FACE_OUTER_BOUND ( 'NONE', #26, .T. ) ;
#64 = ORIENTED_EDGE ( 'NONE', *, *, #291, .F. ) ;
#65 = CARTESIAN_POINT ( 'NONE',  ( 6.123233995736766036E-17, 3.250000000000000000, 0.5000000000000000000 ) ) ;
#66 = VERTEX_POINT ( 'NONE', #35 ) ;
#67 =( NAMED_UNIT ( * ) SI_UNIT ( $, .STERADIAN. ) SOLID_ANGLE_UNIT ( ) );
#68 = SURFACE_STYLE_USAGE ( .BOTH. , #232 ) ;
#69 = DIMENSIONAL_EXPONENTS ( 1.000000000000000000, 0.000000000000000000, 0.000000000000000000, 0.000000000000000000, 0.000000000000000000, 0.000000000000000000, 0.000000000000000000 ) ;
#70 = FILL_AREA_STYLE ('',( #99 ) ) ;
#71 = ADVANCED_FACE ( 'NONE', ( #279 ), #212, .F. ) ;
#72 = FACE_OUTER_BOUND ( 'NONE', #43, .T. ) ;
#73 = STYLED_ITEM ( 'NONE', ( #29 ), #37 ) ;
#74 = CIRCLE ( 'NONE', #110, 0.5000000000000001110 ) ;
#75 = EDGE_CURVE ( 'NONE', #66, #22, #299, .T. ) ;
#76 = APPLICATION_PROTOCOL_DEFINITION ( 'draft international standard', 'automotive_design', 1998, #213 ) ;
#77 = CARTESIAN_POINT ( 'NONE',  ( -0.5000000000000002220, 6.000000000000000888, 0.000000000000000000 ) ) ;
#78 = CARTESIAN_POINT ( 'NONE',  ( 0.000000000000000000, 0.000000000000000000, 0.000000000000000000 ) ) ;
#79 = DIRECTION ( 'NONE',  ( 0.000000000000000000, -0.000000000000000000, 1.000000000000000000 ) ) ;
#80 = SURFACE_STYLE_FILL_AREA ( #215 ) ;
#81 = STYLED_ITEM ( 'NONE', ( #269 ), #306 ) ;
#82 =( LENGTH_UNIT ( ) NAMED_UNIT ( * ) SI_UNIT ( $, .METRE. ) );
#83 = CARTESIAN_POINT ( 'NONE',  ( 0.000000000000000000, 3.250000000000000000, 0.000000000000000000 ) ) ;
#84 = PRODUCT_DEFINITION ( 'UNKNOWN', '', #240, #46 ) ;
#85 = ADVANCED_FACE ( 'NONE', ( #302 ), #132, .T. ) ;
#86 = DIRECTION ( 'NONE',  ( -0.000000000000000000, -1.000000000000000000, -0.000000000000000000 ) ) ;
#87 = ORIENTED_EDGE ( 'NONE', *, *, #139, .F. ) ;
#88 = PRESENTATION_STYLE_ASSIGNMENT (( #167 ) ) ;
#89 = ADVANCED_BREP_SHAPE_REPRESENTATION ( '01780', ( #102, #306, #222 ), #9 ) ;
#90 = COLOUR_RGB ( '',1.000000000000000000, 0.000000000000000000, 0.000000000000000000 ) ;
#91 = CIRCLE ( 'NONE', #3, 0.5000000000000000000 ) ;
#92 = FILL_AREA_STYLE_COLOUR ( '', #54 ) ;
#93 = ORIENTED_EDGE ( 'NONE', *, *, #19, .T. ) ;
#94 = ORIENTED_EDGE ( 'NONE', *, *, #19, .F. ) ;
#95 = ORIENTED_EDGE ( 'NONE', *, *, #291, .T. ) ;
#96 = MECHANICAL_DESIGN_GEOMETRIC_PRESENTATION_REPRESENTATION (  '', ( #15 ), #239 ) ;
#97 = DIRECTION ( 'NONE',  ( -4.453261087808560759E-17, 1.000000000000000000, -0.000000000000000000 ) ) ;
#98 = PRESENTATION_LAYER_ASSIGNMENT (  '', '', ( #234 ) ) ;
#99 = FILL_AREA_STYLE_COLOUR ( '', #23 ) ;
#100 = DIMENSIONAL_EXPONENTS ( 1.000000000000000000, 0.000000000000000000, 0.000000000000000000, 0.000000000000000000, 0.000000000000000000, 0.000000000000000000, 0.000000000000000000 ) ;
#101 =( LENGTH_UNIT ( ) NAMED_UNIT ( * ) SI_UNIT ( $, .METRE. ) );
#102 = MANIFOLD_SOLID_BREP ( 'Revolve - Cutting Edge', #49 ) ;
#103 = CARTESIAN_POINT ( 'NONE',  ( -1.224646799147354440E-16, 6.000000000000000888, 0.000000000000000000 ) ) ;
#104 = AXIS2_PLACEMENT_3D ( 'NONE', #155, #256, #278 ) ;
#105 = SURFACE_STYLE_FILL_AREA ( #70 ) ;
#106 = DIRECTION ( 'NONE',  ( 1.000000000000000000, 0.000000000000000000, 0.000000000000000000 ) ) ;
#107 = DIRECTION ( 'NONE',  ( -0.000000000000000000, -1.000000000000000000, -0.000000000000000000 ) ) ;
#108 = SHAPE_DEFINITION_REPRESENTATION ( #188, #89 ) ;
#109 = DIRECTION ( 'NONE',  ( -0.000000000000000000, -1.000000000000000000, -0.000000000000000000 ) ) ;
#110 = AXIS2_PLACEMENT_3D ( 'NONE', #103, #32, #208 ) ;
#111 = PRODUCT ( '01780', '01780', '', ( #297 ) ) ;
#112 = CARTESIAN_POINT ( 'NONE',  ( 6.123233995736766036E-17, 0.000000000000000000, 0.5000000000000000000 ) ) ;
#113 = AXIS2_PLACEMENT_3D ( 'NONE', #83, #109, #281 ) ;
#114 = AXIS2_PLACEMENT_3D ( 'NONE', #16, #219, #304 ) ;
#115 = LINE ( 'NONE', #262, #259 ) ;
#116 = EDGE_LOOP ( 'NONE', ( #64, #267 ) ) ;
#117 = ORIENTED_EDGE ( 'NONE', *, *, #300, .T. ) ;
#118 = FILL_AREA_STYLE ('',( #246 ) ) ;
#119 = CIRCLE ( 'NONE', #113, 0.5000000000000000000 ) ;
#120 = PRESENTATION_LAYER_ASSIGNMENT (  '', '', ( #193 ) ) ;
#121 = EDGE_LOOP ( 'NONE', ( #224, #60, #229, #270 ) ) ;
#122 = FILL_AREA_STYLE ('',( #92 ) ) ;
#123 = ORIENTED_EDGE ( 'NONE', *, *, #124, .T. ) ;
#124 = EDGE_CURVE ( 'NONE', #40, #42, #74, .T. ) ;
#125 = DIRECTION ( 'NONE',  ( 0.000000000000000000, -1.000000000000000000, -0.000000000000000000 ) ) ;
#126 = ORIENTED_EDGE ( 'NONE', *, *, #58, .T. ) ;
#127 = MECHANICAL_DESIGN_GEOMETRIC_PRESENTATION_REPRESENTATION (  '', ( #234 ), #159 ) ;
#128 = DIMENSIONAL_EXPONENTS ( 1.000000000000000000, 0.000000000000000000, 0.000000000000000000, 0.000000000000000000, 0.000000000000000000, 0.000000000000000000, 0.000000000000000000 ) ;
#129 = CYLINDRICAL_SURFACE ( 'NONE', #200, 0.5000000000000000000 ) ;
#130 = PRESENTATION_STYLE_ASSIGNMENT (( #296 ) ) ;
#131 = CARTESIAN_POINT ( 'NONE',  ( 0.000000000000000000, 0.000000000000000000, 0.000000000000000000 ) ) ;
#132 = PLANE ( 'NONE',  #295 ) ;
#133 = CARTESIAN_POINT ( 'NONE',  ( 0.000000000000000000, 0.000000000000000000, -0.5000000000000000000 ) ) ;
#134 = EDGE_CURVE ( 'NONE', #50, #22, #286, .T. ) ;
#135 = SURFACE_SIDE_STYLE ('',( #34 ) ) ;
#136 = CARTESIAN_POINT ( 'NONE',  ( -1.224646799147354440E-16, 6.000000000000000888, 0.000000000000000000 ) ) ;
#137 = DIRECTION ( 'NONE',  ( 4.453261087808560759E-17, -1.000000000000000000, 0.000000000000000000 ) ) ;
#138 = CIRCLE ( 'NONE', #233, 0.5000000000000001110 ) ;
#139 = EDGE_CURVE ( 'NONE', #228, #42, #115, .T. ) ;
#140 = PRESENTATION_STYLE_ASSIGNMENT (( #160 ) ) ;
#141 = DIRECTION ( 'NONE',  ( -4.453261087808560759E-17, 1.000000000000000000, -0.000000000000000000 ) ) ;
#142 =( NAMED_UNIT ( * ) SI_UNIT ( $, .STERADIAN. ) SOLID_ANGLE_UNIT ( ) );
#143 = ORIENTED_EDGE ( 'NONE', *, *, #243, .F. ) ;
#144 = AXIS2_PLACEMENT_3D ( 'NONE', #156, #107, #13 ) ;
#145 = DIRECTION ( 'NONE',  ( -1.000000000000000000, 0.000000000000000000, 0.000000000000000000 ) ) ;
#146 = ORIENTED_EDGE ( 'NONE', *, *, #303, .T. ) ;
#147 = DIMENSIONAL_EXPONENTS ( 1.000000000000000000, 0.000000000000000000, 0.000000000000000000, 0.000000000000000000, 0.000000000000000000, 0.000000000000000000, 0.000000000000000000 ) ;
#148 = SURFACE_STYLE_USAGE ( .BOTH. , #268 ) ;
#149 =( NAMED_UNIT ( * ) SI_UNIT ( $, .STERADIAN. ) SOLID_ANGLE_UNIT ( ) );
#150 = CLOSED_SHELL ( 'NONE', ( #182, #195, #255, #71 ) ) ;
#151 = CIRCLE ( 'NONE', #216, 0.5000000000000000000 ) ;
#152 =( CONVERSION_BASED_UNIT ( 'INCH', #154 ) LENGTH_UNIT ( ) NAMED_UNIT ( #199 ) );
#153 = ORIENTED_EDGE ( 'NONE', *, *, #236, .T. ) ;
#154 = LENGTH_MEASURE_WITH_UNIT ( LENGTH_MEASURE( 0.02539999999999999897 ), #82 );
#155 = CARTESIAN_POINT ( 'NONE',  ( 0.000000000000000000, 0.000000000000000000, 0.000000000000000000 ) ) ;
#156 = CARTESIAN_POINT ( 'NONE',  ( 0.000000000000000000, 0.000000000000000000, 0.000000000000000000 ) ) ;
#157 = AXIS2_PLACEMENT_3D ( 'NONE', #187, #137, #56 ) ;
#158 =( NAMED_UNIT ( * ) PLANE_ANGLE_UNIT ( ) SI_UNIT ( $, .RADIAN. ) );
#159 =( GEOMETRIC_REPRESENTATION_CONTEXT ( 3 ) GLOBAL_UNCERTAINTY_ASSIGNED_CONTEXT ( ( #264 ) ) GLOBAL_UNIT_ASSIGNED_CONTEXT ( ( #152, #30, #205 ) ) REPRESENTATION_CONTEXT ( 'NONE', 'WORKASPACE' ) );
#160 = SURFACE_STYLE_USAGE ( .BOTH. , #184 ) ;
#161 = CARTESIAN_POINT ( 'NONE',  ( 6.123233995736766036E-17, 0.000000000000000000, 0.5000000000000000000 ) ) ;
#162 = PLANE ( 'NONE',  #114 ) ;
#163 = AXIS2_PLACEMENT_3D ( 'NONE', #21, #125, #190 ) ;
#164 = CARTESIAN_POINT ( 'NONE',  ( 0.5000000000000000000, 6.000000000000000888, 6.123233995736767268E-17 ) ) ;
#165 = FACE_OUTER_BOUND ( 'NONE', #116, .T. ) ;
#166 = DIRECTION ( 'NONE',  ( -0.000000000000000000, -1.000000000000000000, -0.000000000000000000 ) ) ;
#167 = SURFACE_STYLE_USAGE ( .BOTH. , #196 ) ;
#168 = UNCERTAINTY_MEASURE_WITH_UNIT (LENGTH_MEASURE( 1.000000000000000082E-05 ), #276, 'distance_accuracy_value', 'NONE');
#169 = CARTESIAN_POINT ( 'NONE',  ( -1.224646799147354440E-16, 6.000000000000000888, 0.000000000000000000 ) ) ;
#170 = ORIENTED_EDGE ( 'NONE', *, *, #75, .T. ) ;
#171 = SURFACE_STYLE_FILL_AREA ( #118 ) ;
#172 = ORIENTED_EDGE ( 'NONE', *, *, #139, .T. ) ;
#173 = COLOUR_RGB ( '',1.000000000000000000, 0.000000000000000000, 0.000000000000000000 ) ;
#174 =( CONVERSION_BASED_UNIT ( 'INCH', #272 ) LENGTH_UNIT ( ) NAMED_UNIT ( #47 ) );
#175 = CARTESIAN_POINT ( 'NONE',  ( 0.000000000000000000, 3.250000000000000000, 0.000000000000000000 ) ) ;
#176 = DIRECTION ( 'NONE',  ( 0.000000000000000000, 0.000000000000000000, 1.000000000000000000 ) ) ;
#177 = MECHANICAL_DESIGN_GEOMETRIC_PRESENTATION_REPRESENTATION (  '', ( #81 ), #207 ) ;
#178 =( NAMED_UNIT ( * ) SI_UNIT ( $, .STERADIAN. ) SOLID_ANGLE_UNIT ( ) );
#179 =( NAMED_UNIT ( * ) SI_UNIT ( $, .STERADIAN. ) SOLID_ANGLE_UNIT ( ) );
#180 = PRESENTATION_STYLE_ASSIGNMENT (( #217 ) ) ;
#181 =( CONVERSION_BASED_UNIT ( 'INCH', #48 ) LENGTH_UNIT ( ) NAMED_UNIT ( #147 ) );
#182 = ADVANCED_FACE ( 'NONE', ( #36 ), #309, .T. ) ;
#183 = AXIS2_PLACEMENT_3D ( 'NONE', #169, #41, #287 ) ;
#184 = SURFACE_SIDE_STYLE ('',( #80 ) ) ;
#185 = EDGE_CURVE ( 'NONE', #271, #50, #235, .T. ) ;
#186 = DIRECTION ( 'NONE',  ( -4.453261087808560759E-17, 1.000000000000000000, -0.000000000000000000 ) ) ;
#187 = CARTESIAN_POINT ( 'NONE',  ( 0.5000000000000000000, 6.000000000000000888, 0.000000000000000000 ) ) ;
#188 = PRODUCT_DEFINITION_SHAPE ( 'NONE', 'NONE',  #84 ) ;
#189 = UNCERTAINTY_MEASURE_WITH_UNIT (LENGTH_MEASURE( 1.000000000000000082E-05 ), #211, 'distance_accuracy_value', 'NONE');
#190 = DIRECTION ( 'NONE',  ( 0.000000000000000000, 0.000000000000000000, -1.000000000000000000 ) ) ;
#191 = MECHANICAL_DESIGN_GEOMETRIC_PRESENTATION_REPRESENTATION (  '', ( #206 ), #221 ) ;
#192 = ORIENTED_EDGE ( 'NONE', *, *, #134, .T. ) ;
#193 = STYLED_ITEM ( 'NONE', ( #140 ), #85 ) ;
#194 = SURFACE_STYLE_FILL_AREA ( #122 ) ;
#195 = ADVANCED_FACE ( 'NONE', ( #165 ), #162, .F. ) ;
#196 = SURFACE_SIDE_STYLE ('',( #171 ) ) ;
#197 = CYLINDRICAL_SURFACE ( 'NONE', #183, 0.5000000000000001110 ) ;
#198 = VECTOR ( 'NONE', #218, 39.37007874015748143 ) ;
#199 = DIMENSIONAL_EXPONENTS ( 1.000000000000000000, 0.000000000000000000, 0.000000000000000000, 0.000000000000000000, 0.000000000000000000, 0.000000000000000000, 0.000000000000000000 ) ;
#200 = AXIS2_PLACEMENT_3D ( 'NONE', #131, #292, #52 ) ;
#201 = AXIS2_PLACEMENT_3D ( 'NONE', #226, #251, #145 ) ;
#202 = EDGE_LOOP ( 'NONE', ( #143, #241 ) ) ;
#203 = LENGTH_MEASURE_WITH_UNIT ( LENGTH_MEASURE( 0.02539999999999999897 ), #101 );
#204 =( LENGTH_UNIT ( ) NAMED_UNIT ( * ) SI_UNIT ( $, .METRE. ) );
#205 =( NAMED_UNIT ( * ) SI_UNIT ( $, .STERADIAN. ) SOLID_ANGLE_UNIT ( ) );
#206 = STYLED_ITEM ( 'NONE', ( #130 ), #33 ) ;
#207 =( GEOMETRIC_REPRESENTATION_CONTEXT ( 3 ) GLOBAL_UNCERTAINTY_ASSIGNED_CONTEXT ( ( #308 ) ) GLOBAL_UNIT_ASSIGNED_CONTEXT ( ( #44, #4, #67 ) ) REPRESENTATION_CONTEXT ( 'NONE', 'WORKASPACE' ) );
#208 = DIRECTION ( 'NONE',  ( -1.000000000000000000, 0.000000000000000000, 0.000000000000000000 ) ) ;
#209 = DIRECTION ( 'NONE',  ( -4.453261087808560759E-17, 1.000000000000000000, -0.000000000000000000 ) ) ;
#210 = APPLICATION_PROTOCOL_DEFINITION ( 'draft international standard', 'automotive_design', 1998, #247 ) ;
#211 =( CONVERSION_BASED_UNIT ( 'INCH', #10 ) LENGTH_UNIT ( ) NAMED_UNIT ( #25 ) );
#212 = PLANE ( 'NONE',  #157 ) ;
#213 = APPLICATION_CONTEXT ( 'automotive_design' ) ;
#214 =( NAMED_UNIT ( * ) PLANE_ANGLE_UNIT ( ) SI_UNIT ( $, .RADIAN. ) );
#215 = FILL_AREA_STYLE ('',( #11 ) ) ;
#216 = AXIS2_PLACEMENT_3D ( 'NONE', #307, #86, #283 ) ;
#217 = SURFACE_STYLE_USAGE ( .BOTH. , #135 ) ;
#218 = DIRECTION ( 'NONE',  ( -0.000000000000000000, -1.000000000000000000, -0.000000000000000000 ) ) ;
#219 = DIRECTION ( 'NONE',  ( -4.453261087808560759E-17, 1.000000000000000000, 0.000000000000000000 ) ) ;
#220 = DIRECTION ( 'NONE',  ( -0.000000000000000000, -1.000000000000000000, -0.000000000000000000 ) ) ;
#221 =( GEOMETRIC_REPRESENTATION_CONTEXT ( 3 ) GLOBAL_UNCERTAINTY_ASSIGNED_CONTEXT ( ( #249 ) ) GLOBAL_UNIT_ASSIGNED_CONTEXT ( ( #181, #257, #149 ) ) REPRESENTATION_CONTEXT ( 'NONE', 'WORKASPACE' ) );
#222 = AXIS2_PLACEMENT_3D ( 'NONE', #78, #176, #106 ) ;
#223 = CARTESIAN_POINT ( 'NONE',  ( -0.5000000000000000000, 3.250000000000000000, 0.000000000000000000 ) ) ;
#224 = ORIENTED_EDGE ( 'NONE', *, *, #243, .T. ) ;
#225 = UNCERTAINTY_MEASURE_WITH_UNIT (LENGTH_MEASURE( 1.000000000000000082E-05 ), #174, 'distance_accuracy_value', 'NONE');
#226 = CARTESIAN_POINT ( 'NONE',  ( 0.000000000000000000, 3.250000000000000000, 0.000000000000000000 ) ) ;
#227 = LENGTH_MEASURE_WITH_UNIT ( LENGTH_MEASURE( 0.02539999999999999897 ), #288 );
#228 = VERTEX_POINT ( 'NONE', #223 ) ;
#229 = ORIENTED_EDGE ( 'NONE', *, *, #236, .F. ) ;
#230 = CIRCLE ( 'NONE', #201, 0.5000000000000000000 ) ;
#231 =( LENGTH_UNIT ( ) NAMED_UNIT ( * ) SI_UNIT ( $, .METRE. ) );
#232 = SURFACE_SIDE_STYLE ('',( #290 ) ) ;
#233 = AXIS2_PLACEMENT_3D ( 'NONE', #24, #141, #242 ) ;
#234 = STYLED_ITEM ( 'NONE', ( #180 ), #102 ) ;
#235 = LINE ( 'NONE', #112, #28 ) ;
#236 = EDGE_CURVE ( 'NONE', #22, #50, #151, .T. ) ;
#237 = DIRECTION ( 'NONE',  ( -1.000000000000000000, 0.000000000000000000, 0.000000000000000000 ) ) ;
#238 = PRODUCT_RELATED_PRODUCT_CATEGORY ( 'part', '', ( #111 ) ) ;
#239 =( GEOMETRIC_REPRESENTATION_CONTEXT ( 3 ) GLOBAL_UNCERTAINTY_ASSIGNED_CONTEXT ( ( #225 ) ) GLOBAL_UNIT_ASSIGNED_CONTEXT ( ( #174, #62, #142 ) ) REPRESENTATION_CONTEXT ( 'NONE', 'WORKASPACE' ) );
#240 = PRODUCT_DEFINITION_FORMATION_WITH_SPECIFIED_SOURCE ( 'ANY', '', #111, .NOT_KNOWN. ) ;
#241 = ORIENTED_EDGE ( 'NONE', *, *, #58, .F. ) ;
#242 = DIRECTION ( 'NONE',  ( -1.000000000000000000, 0.000000000000000000, 0.000000000000000000 ) ) ;
#243 = EDGE_CURVE ( 'NONE', #66, #271, #91, .T. ) ;
#244 = DIRECTION ( 'NONE',  ( -1.000000000000000000, 0.000000000000000000, 0.000000000000000000 ) ) ;
#245 = ORIENTED_EDGE ( 'NONE', *, *, #134, .F. ) ;
#246 = FILL_AREA_STYLE_COLOUR ( '', #173 ) ;
#247 = APPLICATION_CONTEXT ( 'automotive_design' ) ;
#248 = ORIENTED_EDGE ( 'NONE', *, *, #185, .F. ) ;
#249 = UNCERTAINTY_MEASURE_WITH_UNIT (LENGTH_MEASURE( 1.000000000000000082E-05 ), #181, 'distance_accuracy_value', 'NONE');
#250 = FILL_AREA_STYLE_COLOUR ( '', #90 ) ;
#251 = DIRECTION ( 'NONE',  ( -4.453261087808560759E-17, 1.000000000000000000, -0.000000000000000000 ) ) ;
#252 =( GEOMETRIC_REPRESENTATION_CONTEXT ( 3 ) GLOBAL_UNCERTAINTY_ASSIGNED_CONTEXT ( ( #189 ) ) GLOBAL_UNIT_ASSIGNED_CONTEXT ( ( #211, #158, #298 ) ) REPRESENTATION_CONTEXT ( 'NONE', 'WORKASPACE' ) );
#253 = LINE ( 'NONE', #31, #14 ) ;
#254 = SURFACE_SIDE_STYLE ('',( #105 ) ) ;
#255 = ADVANCED_FACE ( 'NONE', ( #18 ), #197, .T. ) ;
#256 = DIRECTION ( 'NONE',  ( -0.000000000000000000, -1.000000000000000000, -0.000000000000000000 ) ) ;
#257 =( NAMED_UNIT ( * ) PLANE_ANGLE_UNIT ( ) SI_UNIT ( $, .RADIAN. ) );
#258 = PRESENTATION_LAYER_ASSIGNMENT (  '', '', ( #206 ) ) ;
#259 = VECTOR ( 'NONE', #186, 39.37007874015748143 ) ;
#260 = CARTESIAN_POINT ( 'NONE',  ( 0.000000000000000000, 3.250000000000000000, 0.000000000000000000 ) ) ;
#261 = FILL_AREA_STYLE_COLOUR ( '', #61 ) ;
#262 = CARTESIAN_POINT ( 'NONE',  ( -0.5000000000000002220, 6.000000000000000888, 0.000000000000000000 ) ) ;
#263 =( GEOMETRIC_REPRESENTATION_CONTEXT ( 3 ) GLOBAL_UNCERTAINTY_ASSIGNED_CONTEXT ( ( #280 ) ) GLOBAL_UNIT_ASSIGNED_CONTEXT ( ( #293, #274, #179 ) ) REPRESENTATION_CONTEXT ( 'NONE', 'WORKASPACE' ) );
#264 = UNCERTAINTY_MEASURE_WITH_UNIT (LENGTH_MEASURE( 1.000000000000000082E-05 ), #152, 'distance_accuracy_value', 'NONE');
#265 = DIRECTION ( 'NONE',  ( 0.000000000000000000, 0.000000000000000000, -1.000000000000000000 ) ) ;
#266 = PRESENTATION_LAYER_ASSIGNMENT (  '', '', ( #81 ) ) ;
#267 = ORIENTED_EDGE ( 'NONE', *, *, #303, .F. ) ;
#268 = SURFACE_SIDE_STYLE ('',( #194 ) ) ;
#269 = PRESENTATION_STYLE_ASSIGNMENT (( #148 ) ) ;
#270 = ORIENTED_EDGE ( 'NONE', *, *, #75, .F. ) ;
#271 = VERTEX_POINT ( 'NONE', #65 ) ;
#272 = LENGTH_MEASURE_WITH_UNIT ( LENGTH_MEASURE( 0.02539999999999999897 ), #27 );
#273 = CARTESIAN_POINT ( 'NONE',  ( 0.000000000000000000, 0.000000000000000000, -0.5000000000000000000 ) ) ;
#274 =( NAMED_UNIT ( * ) PLANE_ANGLE_UNIT ( ) SI_UNIT ( $, .RADIAN. ) );
#275 = PRESENTATION_LAYER_ASSIGNMENT (  '', '', ( #15 ) ) ;
#276 =( CONVERSION_BASED_UNIT ( 'INCH', #294 ) LENGTH_UNIT ( ) NAMED_UNIT ( #100 ) );
#277 = ADVANCED_FACE ( 'NONE', ( #63 ), #2, .T. ) ;
#278 = DIRECTION ( 'NONE',  ( 0.000000000000000000, 0.000000000000000000, -1.000000000000000000 ) ) ;
#279 = FACE_OUTER_BOUND ( 'NONE', #20, .T. ) ;
#280 = UNCERTAINTY_MEASURE_WITH_UNIT (LENGTH_MEASURE( 1.000000000000000082E-05 ), #293, 'distance_accuracy_value', 'NONE');
#281 = DIRECTION ( 'NONE',  ( 0.000000000000000000, 0.000000000000000000, -1.000000000000000000 ) ) ;
#282 = ORIENTED_EDGE ( 'NONE', *, *, #300, .F. ) ;
#283 = DIRECTION ( 'NONE',  ( 0.000000000000000000, 0.000000000000000000, -1.000000000000000000 ) ) ;
#284 = EDGE_LOOP ( 'NONE', ( #94, #146, #172, #57 ) ) ;
#285 = CARTESIAN_POINT ( 'NONE',  ( 0.5000000000000000000, 3.250000000000000000, 6.123233995736767268E-17 ) ) ;
#286 = CIRCLE ( 'NONE', #104, 0.5000000000000000000 ) ;
#287 = DIRECTION ( 'NONE',  ( -1.000000000000000000, 0.000000000000000000, 0.000000000000000000 ) ) ;
#288 =( LENGTH_UNIT ( ) NAMED_UNIT ( * ) SI_UNIT ( $, .METRE. ) );
#289 = VERTEX_POINT ( 'NONE', #285 ) ;
#290 = SURFACE_STYLE_FILL_AREA ( #5 ) ;
#291 = EDGE_CURVE ( 'NONE', #228, #289, #17, .T. ) ;
#292 = DIRECTION ( 'NONE',  ( -0.000000000000000000, -1.000000000000000000, -0.000000000000000000 ) ) ;
#293 =( CONVERSION_BASED_UNIT ( 'INCH', #203 ) LENGTH_UNIT ( ) NAMED_UNIT ( #69 ) );
#294 = LENGTH_MEASURE_WITH_UNIT ( LENGTH_MEASURE( 0.02539999999999999897 ), #204 );
#295 = AXIS2_PLACEMENT_3D ( 'NONE', #260, #51, #79 ) ;
#296 = SURFACE_STYLE_USAGE ( .BOTH. , #254 ) ;
#297 = PRODUCT_CONTEXT ( 'NONE', #247, 'mechanical' ) ;
#298 =( NAMED_UNIT ( * ) SI_UNIT ( $, .STERADIAN. ) SOLID_ANGLE_UNIT ( ) );
#299 = LINE ( 'NONE', #133, #198 ) ;
#300 = EDGE_CURVE ( 'NONE', #42, #40, #138, .T. ) ;
#301 = MECHANICAL_DESIGN_GEOMETRIC_PRESENTATION_REPRESENTATION (  '', ( #193 ), #252 ) ;
#302 = FACE_OUTER_BOUND ( 'NONE', #202, .T. ) ;
#303 = EDGE_CURVE ( 'NONE', #289, #228, #230, .T. ) ;
#304 = DIRECTION ( 'NONE',  ( -1.000000000000000000, -4.453261087808560759E-17, 0.000000000000000000 ) ) ;
#305 = AXIS2_PLACEMENT_3D ( 'NONE', #136, #55, #237 ) ;
#306 = MANIFOLD_SOLID_BREP ( 'Revolve - Tool Body (Straight Shanked)', #150 ) ;
#307 = CARTESIAN_POINT ( 'NONE',  ( 0.000000000000000000, 0.000000000000000000, 0.000000000000000000 ) ) ;
#308 = UNCERTAINTY_MEASURE_WITH_UNIT (LENGTH_MEASURE( 1.000000000000000082E-05 ), #44, 'distance_accuracy_value', 'NONE');
#309 = CYLINDRICAL_SURFACE ( 'NONE', #305, 0.5000000000000001110 ) ;
ENDSEC;
END-ISO-10303-21;
