ISO-10303-21;
HEADER;
FILE_DESCRIPTION (( 'STEP AP214' ),
    '1' );
FILE_NAME ('59437.STEP',
    '2023-06-30T22:15:30',
    ( '' ),
    ( '' ),
    'SwSTEP 2.0',
    'SolidWorks 2023',
    '' );
FILE_SCHEMA (( 'AUTOMOTIVE_DESIGN' ));
ENDSEC;

DATA;
#1 = PLANE ( 'NONE',  #103 ) ;
#2 = ORIENTED_EDGE ( 'NONE', *, *, #154, .F. ) ;
#3 = EDGE_CURVE ( 'NONE', #141, #149, #300, .T. ) ;
#4 =( CONVERSION_BASED_UNIT ( 'INCH', #353 ) LENGTH_UNIT ( ) NAMED_UNIT ( #110 ) );
#5 = SURFACE_STYLE_FILL_AREA ( #132 ) ;
#6 = PRODUCT ( '59437', '59437', '', ( #253 ) ) ;
#7 = PRESENTATION_STYLE_ASSIGNMENT (( #36 ) ) ;
#8 = FACE_OUTER_BOUND ( 'NONE', #112, .T. ) ;
#9 = DIRECTION ( 'NONE',  ( 1.224646799147353207E-16, -0.000000000000000000, 1.000000000000000000 ) ) ;
#10 = AXIS2_PLACEMENT_3D ( 'NONE', #75, #32, #101 ) ;
#11 = MECHANICAL_DESIGN_GEOMETRIC_PRESENTATION_REPRESENTATION (  '', ( #34 ), #172 ) ;
#12 = FILL_AREA_STYLE ('',( #354 ) ) ;
#13 = LINE ( 'NONE', #164, #301 ) ;
#14 =( NAMED_UNIT ( * ) SI_UNIT ( $, .STERADIAN. ) SOLID_ANGLE_UNIT ( ) );
#15 = CARTESIAN_POINT ( 'NONE',  ( 0.000000000000000000, 0.000000000000000000, 0.000000000000000000 ) ) ;
#16 = DIMENSIONAL_EXPONENTS ( 1.000000000000000000, 0.000000000000000000, 0.000000000000000000, 0.000000000000000000, 0.000000000000000000, 0.000000000000000000, 0.000000000000000000 ) ;
#17 = CARTESIAN_POINT ( 'NONE',  ( -0.1249999999999999029, 0.1249999999999999029, 1.530808498934189968E-17 ) ) ;
#18 = DIMENSIONAL_EXPONENTS ( 1.000000000000000000, 0.000000000000000000, 0.000000000000000000, 0.000000000000000000, 0.000000000000000000, 0.000000000000000000, 0.000000000000000000 ) ;
#19 = DIRECTION ( 'NONE',  ( 1.000000000000000000, 0.000000000000000000, 0.000000000000000000 ) ) ;
#20 = CARTESIAN_POINT ( 'NONE',  ( -1.530808498934190893E-17, 0.1249999999999999029, 0.000000000000000000 ) ) ;
#21 = ORIENTED_EDGE ( 'NONE', *, *, #169, .T. ) ;
#22 = SURFACE_STYLE_FILL_AREA ( #111 ) ;
#23 =( GEOMETRIC_REPRESENTATION_CONTEXT ( 3 ) GLOBAL_UNCERTAINTY_ASSIGNED_CONTEXT ( ( #224 ) ) GLOBAL_UNIT_ASSIGNED_CONTEXT ( ( #153, #284, #26 ) ) REPRESENTATION_CONTEXT ( 'NONE', 'WORKASPACE' ) );
#24 = SURFACE_STYLE_USAGE ( .BOTH. , #320 ) ;
#25 = ADVANCED_FACE ( 'NONE', ( #8 ), #100, .T. ) ;
#26 =( NAMED_UNIT ( * ) SI_UNIT ( $, .STERADIAN. ) SOLID_ANGLE_UNIT ( ) );
#27 = DIRECTION ( 'NONE',  ( -1.224646799147353700E-16, 1.000000000000000000, 0.000000000000000000 ) ) ;
#28 = CLOSED_SHELL ( 'NONE', ( #220, #238, #246, #79 ) ) ;
#29 = MECHANICAL_DESIGN_GEOMETRIC_PRESENTATION_REPRESENTATION (  '', ( #138 ), #23 ) ;
#30 = FILL_AREA_STYLE ('',( #240 ) ) ;
#31 = DIRECTION ( 'NONE',  ( -1.000000000000000000, -1.224646799147353700E-16, 0.000000000000000000 ) ) ;
#32 = DIRECTION ( 'NONE',  ( -0.000000000000000000, -1.000000000000000000, -0.000000000000000000 ) ) ;
#33 = AXIS2_PLACEMENT_3D ( 'NONE', #191, #298, #106 ) ;
#34 = STYLED_ITEM ( 'NONE', ( #104 ), #337 ) ;
#35 = CARTESIAN_POINT ( 'NONE',  ( -1.530808498934190893E-17, 0.1249999999999999029, 0.000000000000000000 ) ) ;
#36 = SURFACE_STYLE_USAGE ( .BOTH. , #332 ) ;
#37 = EDGE_CURVE ( 'NONE', #340, #204, #339, .T. ) ;
#38 = FILL_AREA_STYLE_COLOUR ( '', #185 ) ;
#39 = DIRECTION ( 'NONE',  ( -0.000000000000000000, -1.000000000000000000, -0.000000000000000000 ) ) ;
#40 = CARTESIAN_POINT ( 'NONE',  ( 1.530808498934190276E-17, 0.1249999999999999029, 0.1249999999999999029 ) ) ;
#41 = FACE_OUTER_BOUND ( 'NONE', #144, .T. ) ;
#42 = DIRECTION ( 'NONE',  ( 0.000000000000000000, 0.000000000000000000, 1.000000000000000000 ) ) ;
#43 = CIRCLE ( 'NONE', #52, 0.1249999999999999445 ) ;
#44 =( NAMED_UNIT ( * ) SI_UNIT ( $, .STERADIAN. ) SOLID_ANGLE_UNIT ( ) );
#45 = EDGE_CURVE ( 'NONE', #315, #260, #43, .T. ) ;
#46 = LINE ( 'NONE', #311, #257 ) ;
#47 = FACE_OUTER_BOUND ( 'NONE', #55, .T. ) ;
#48 = ADVANCED_FACE ( 'NONE', ( #41 ), #331, .T. ) ;
#49 = CARTESIAN_POINT ( 'NONE',  ( -6.123233995736772199E-17, 3.000000000000000444, 0.000000000000000000 ) ) ;
#50 = CARTESIAN_POINT ( 'NONE',  ( 0.1249999999999998751, 1.000000000000000000, 1.530808498934190276E-17 ) ) ;
#51 = DIRECTION ( 'NONE',  ( -1.224646799147353700E-16, 1.000000000000000000, -0.000000000000000000 ) ) ;
#52 = AXIS2_PLACEMENT_3D ( 'NONE', #68, #268, #195 ) ;
#53 = ORIENTED_EDGE ( 'NONE', *, *, #361, .F. ) ;
#54 = LENGTH_MEASURE_WITH_UNIT ( LENGTH_MEASURE( 0.02539999999999999897 ), #150 );
#55 = EDGE_LOOP ( 'NONE', ( #326, #152, #344, #97 ) ) ;
#56 = LENGTH_MEASURE_WITH_UNIT ( LENGTH_MEASURE( 0.02539999999999999897 ), #324 );
#57 = FACE_OUTER_BOUND ( 'NONE', #369, .T. ) ;
#58 = CIRCLE ( 'NONE', #322, 0.1249999999999999029 ) ;
#59 = VECTOR ( 'NONE', #83, 39.37007874015748143 ) ;
#60 = FACE_OUTER_BOUND ( 'NONE', #259, .T. ) ;
#61 = CARTESIAN_POINT ( 'NONE',  ( -0.1249999999999995143, 1.000000000000000000, 0.000000000000000000 ) ) ;
#62 = ORIENTED_EDGE ( 'NONE', *, *, #361, .T. ) ;
#63 = CARTESIAN_POINT ( 'NONE',  ( 0.1249999999999999029, 0.1249999999999999029, 0.000000000000000000 ) ) ;
#64 = PRESENTATION_STYLE_ASSIGNMENT (( #159 ) ) ;
#65 = EDGE_CURVE ( 'NONE', #87, #279, #58, .T. ) ;
#66 = COLOUR_RGB ( '',0.7921568627450980005, 0.8196078431372548767, 0.9333333333333333481 ) ;
#67 =( LENGTH_UNIT ( ) NAMED_UNIT ( * ) SI_UNIT ( $, .METRE. ) );
#68 = CARTESIAN_POINT ( 'NONE',  ( -6.123233995736772199E-17, 3.000000000000000444, 0.000000000000000000 ) ) ;
#69 = FILL_AREA_STYLE ('',( #38 ) ) ;
#70 = LENGTH_MEASURE_WITH_UNIT ( LENGTH_MEASURE( 0.02539999999999999897 ), #71 );
#71 =( LENGTH_UNIT ( ) NAMED_UNIT ( * ) SI_UNIT ( $, .METRE. ) );
#72 = DIMENSIONAL_EXPONENTS ( 1.000000000000000000, 0.000000000000000000, 0.000000000000000000, 0.000000000000000000, 0.000000000000000000, 0.000000000000000000, 0.000000000000000000 ) ;
#73 = AXIS2_PLACEMENT_3D ( 'NONE', #225, #293, #266 ) ;
#74 = CIRCLE ( 'NONE', #333, 0.1249999999999999029 ) ;
#75 = CARTESIAN_POINT ( 'NONE',  ( 0.000000000000000000, 0.000000000000000000, 0.000000000000000000 ) ) ;
#76 = EDGE_CURVE ( 'NONE', #279, #366, #160, .T. ) ;
#77 = DIRECTION ( 'NONE',  ( -0.000000000000000000, -1.000000000000000000, -0.000000000000000000 ) ) ;
#78 = DIRECTION ( 'NONE',  ( -0.000000000000000000, -1.000000000000000000, -0.000000000000000000 ) ) ;
#79 = ADVANCED_FACE ( 'NONE', ( #205 ), #336, .F. ) ;
#80 = DIRECTION ( 'NONE',  ( 0.000000000000000000, 0.000000000000000000, -1.000000000000000000 ) ) ;
#81 = AXIS2_PLACEMENT_3D ( 'NONE', #15, #108, #201 ) ;
#82 = EDGE_LOOP ( 'NONE', ( #371, #342, #243, #21 ) ) ;
#83 = DIRECTION ( 'NONE',  ( -0.000000000000000000, -1.000000000000000000, -0.000000000000000000 ) ) ;
#84 = DIRECTION ( 'NONE',  ( -1.000000000000000000, 0.000000000000000000, 0.000000000000000000 ) ) ;
#85 = ORIENTED_EDGE ( 'NONE', *, *, #76, .T. ) ;
#86 = DIRECTION ( 'NONE',  ( 1.224646799147353700E-16, -1.000000000000000000, 0.000000000000000000 ) ) ;
#87 = VERTEX_POINT ( 'NONE', #203 ) ;
#88 = AXIS2_PLACEMENT_3D ( 'NONE', #230, #365, #280 ) ;
#89 = MECHANICAL_DESIGN_GEOMETRIC_PRESENTATION_REPRESENTATION (  '', ( #251 ), #210 ) ;
#90 = ORIENTED_EDGE ( 'NONE', *, *, #3, .F. ) ;
#91 = PRODUCT_DEFINITION_SHAPE ( 'NONE', 'NONE',  #109 ) ;
#92 = SURFACE_STYLE_USAGE ( .BOTH. , #349 ) ;
#93 = PRODUCT_RELATED_PRODUCT_CATEGORY ( 'part', '', ( #6 ) ) ;
#94 = PRESENTATION_LAYER_ASSIGNMENT (  '', '', ( #356 ) ) ;
#95 = CIRCLE ( 'NONE', #363, 0.1249999999999997086 ) ;
#96 = CARTESIAN_POINT ( 'NONE',  ( -1.530808498934190893E-17, 0.1249999999999999029, 0.000000000000000000 ) ) ;
#97 = ORIENTED_EDGE ( 'NONE', *, *, #343, .F. ) ;
#98 = UNCERTAINTY_MEASURE_WITH_UNIT (LENGTH_MEASURE( 1.000000000000000082E-05 ), #193, 'distance_accuracy_value', 'NONE');
#99 = DIRECTION ( 'NONE',  ( -1.000000000000000000, 0.000000000000000000, 0.000000000000000000 ) ) ;
#100 = PLANE ( 'NONE',  #33 ) ;
#101 = DIRECTION ( 'NONE',  ( 0.000000000000000000, 0.000000000000000000, -1.000000000000000000 ) ) ;
#102 = CLOSED_SHELL ( 'NONE', ( #337, #48, #25, #198, #241 ) ) ;
#103 = AXIS2_PLACEMENT_3D ( 'NONE', #120, #27, #31 ) ;
#104 = PRESENTATION_STYLE_ASSIGNMENT (( #297 ) ) ;
#105 = CARTESIAN_POINT ( 'NONE',  ( 0.000000000000000000, 0.1249999999999999029, 0.000000000000000000 ) ) ;
#106 = DIRECTION ( 'NONE',  ( 0.000000000000000000, -0.000000000000000000, 1.000000000000000000 ) ) ;
#107 = EDGE_CURVE ( 'NONE', #141, #340, #46, .T. ) ;
#108 = DIRECTION ( 'NONE',  ( -0.000000000000000000, -1.000000000000000000, -0.000000000000000000 ) ) ;
#109 = PRODUCT_DEFINITION ( 'UNKNOWN', '', #234, #352 ) ;
#110 = DIMENSIONAL_EXPONENTS ( 1.000000000000000000, 0.000000000000000000, 0.000000000000000000, 0.000000000000000000, 0.000000000000000000, 0.000000000000000000, 0.000000000000000000 ) ;
#111 = FILL_AREA_STYLE ('',( #258 ) ) ;
#112 = EDGE_LOOP ( 'NONE', ( #151, #90 ) ) ;
#113 = LENGTH_MEASURE_WITH_UNIT ( LENGTH_MEASURE( 0.02539999999999999897 ), #228 );
#114 = PRESENTATION_LAYER_ASSIGNMENT (  '', '', ( #358 ) ) ;
#115 = ORIENTED_EDGE ( 'NONE', *, *, #3, .T. ) ;
#116 = CARTESIAN_POINT ( 'NONE',  ( 0.000000000000000000, 1.000000000000000000, -0.1249999999999998751 ) ) ;
#117 = ORIENTED_EDGE ( 'NONE', *, *, #107, .T. ) ;
#118 = SPHERICAL_SURFACE ( 'NONE', #288, 0.1249999999999999029 ) ;
#119 = DIRECTION ( 'NONE',  ( -1.224646799147353700E-16, 1.000000000000000000, -0.000000000000000000 ) ) ;
#120 = CARTESIAN_POINT ( 'NONE',  ( 1.836970198721030181E-16, 1.000000000000000000, 0.000000000000000000 ) ) ;
#121 = EDGE_CURVE ( 'NONE', #260, #315, #146, .T. ) ;
#122 = DIRECTION ( 'NONE',  ( -1.000000000000000000, 0.000000000000000000, 0.000000000000000000 ) ) ;
#123 = EDGE_LOOP ( 'NONE', ( #372, #115, #62, #181, #319 ) ) ;
#124 = AXIS2_PLACEMENT_3D ( 'NONE', #254, #86, #139 ) ;
#125 = STYLED_ITEM ( 'NONE', ( #212 ), #241 ) ;
#126 = PRESENTATION_STYLE_ASSIGNMENT (( #216 ) ) ;
#127 = UNCERTAINTY_MEASURE_WITH_UNIT (LENGTH_MEASURE( 1.000000000000000082E-05 ), #147, 'distance_accuracy_value', 'NONE');
#128 = DIRECTION ( 'NONE',  ( 1.000000000000000000, 0.000000000000000000, -1.224646799147353207E-16 ) ) ;
#129 = DIRECTION ( 'NONE',  ( 1.000000000000000000, 0.000000000000000000, 0.000000000000000000 ) ) ;
#130 = SURFACE_SIDE_STYLE ('',( #5 ) ) ;
#131 = PRESENTATION_LAYER_ASSIGNMENT (  '', '', ( #251 ) ) ;
#132 = FILL_AREA_STYLE ('',( #247 ) ) ;
#133 = DIMENSIONAL_EXPONENTS ( 1.000000000000000000, 0.000000000000000000, 0.000000000000000000, 0.000000000000000000, 0.000000000000000000, 0.000000000000000000, 0.000000000000000000 ) ;
#134 = DIRECTION ( 'NONE',  ( 0.000000000000000000, 0.000000000000000000, -1.000000000000000000 ) ) ;
#135 =( CONVERSION_BASED_UNIT ( 'INCH', #304 ) LENGTH_UNIT ( ) NAMED_UNIT ( #133 ) );
#136 =( NAMED_UNIT ( * ) PLANE_ANGLE_UNIT ( ) SI_UNIT ( $, .RADIAN. ) );
#137 = CIRCLE ( 'NONE', #347, 0.1249999999999999029 ) ;
#138 = STYLED_ITEM ( 'NONE', ( #213 ), #223 ) ;
#139 = DIRECTION ( 'NONE',  ( 1.000000000000000000, 1.224646799147353700E-16, 0.000000000000000000 ) ) ;
#140 = CYLINDRICAL_SURFACE ( 'NONE', #267, 0.1249999999999998335 ) ;
#141 = VERTEX_POINT ( 'NONE', #143 ) ;
#142 = DIMENSIONAL_EXPONENTS ( 1.000000000000000000, 0.000000000000000000, 0.000000000000000000, 0.000000000000000000, 0.000000000000000000, 0.000000000000000000, 0.000000000000000000 ) ;
#143 = CARTESIAN_POINT ( 'NONE',  ( 1.530808498934189968E-17, 1.000000000000000000, 0.1249999999999998751 ) ) ;
#144 = EDGE_LOOP ( 'NONE', ( #261, #117, #177, #346, #53 ) ) ;
#145 = DIRECTION ( 'NONE',  ( 0.000000000000000000, 0.000000000000000000, 1.000000000000000000 ) ) ;
#146 = CIRCLE ( 'NONE', #362, 0.1249999999999999445 ) ;
#147 =( CONVERSION_BASED_UNIT ( 'INCH', #113 ) LENGTH_UNIT ( ) NAMED_UNIT ( #142 ) );
#148 = ADVANCED_BREP_SHAPE_REPRESENTATION ( '59437', ( #223, #334, #221 ), #351 ) ;
#149 = VERTEX_POINT ( 'NONE', #116 ) ;
#150 =( LENGTH_UNIT ( ) NAMED_UNIT ( * ) SI_UNIT ( $, .METRE. ) );
#151 = ORIENTED_EDGE ( 'NONE', *, *, #183, .F. ) ;
#152 = ORIENTED_EDGE ( 'NONE', *, *, #157, .T. ) ;
#153 =( CONVERSION_BASED_UNIT ( 'INCH', #54 ) LENGTH_UNIT ( ) NAMED_UNIT ( #310 ) );
#154 = EDGE_CURVE ( 'NONE', #283, #182, #250, .T. ) ;
#155 = AXIS2_PLACEMENT_3D ( 'NONE', #252, #78, #275 ) ;
#156 = SURFACE_STYLE_FILL_AREA ( #30 ) ;
#157 = EDGE_CURVE ( 'NONE', #182, #315, #231, .T. ) ;
#158 = DIRECTION ( 'NONE',  ( -1.224646799147353700E-16, 1.000000000000000000, -0.000000000000000000 ) ) ;
#159 = SURFACE_STYLE_USAGE ( .BOTH. , #130 ) ;
#160 = CIRCLE ( 'NONE', #165, 0.1249999999999999029 ) ;
#161 =( NAMED_UNIT ( * ) PLANE_ANGLE_UNIT ( ) SI_UNIT ( $, .RADIAN. ) );
#162 = UNCERTAINTY_MEASURE_WITH_UNIT (LENGTH_MEASURE( 1.000000000000000082E-05 ), #245, 'distance_accuracy_value', 'NONE');
#163 =( NAMED_UNIT ( * ) PLANE_ANGLE_UNIT ( ) SI_UNIT ( $, .RADIAN. ) );
#164 = CARTESIAN_POINT ( 'NONE',  ( -0.1249999999999999029, 3.000000000000000444, 0.000000000000000000 ) ) ;
#165 = AXIS2_PLACEMENT_3D ( 'NONE', #20, #175, #84 ) ;
#166 = COLOUR_RGB ( '',0.7921568627450980005, 0.8196078431372548767, 0.9333333333333333481 ) ;
#167 = LENGTH_MEASURE_WITH_UNIT ( LENGTH_MEASURE( 0.02539999999999999897 ), #328 );
#168 = CARTESIAN_POINT ( 'NONE',  ( 0.1249999999999997641, 3.000000000000000444, 1.530808498934189352E-17 ) ) ;
#169 = EDGE_CURVE ( 'NONE', #279, #340, #137, .T. ) ;
#170 = CARTESIAN_POINT ( 'NONE',  ( -7.654042494670956004E-18, 0.000000000000000000, 0.000000000000000000 ) ) ;
#171 = DIRECTION ( 'NONE',  ( 0.000000000000000000, 0.000000000000000000, -1.000000000000000000 ) ) ;
#172 =( GEOMETRIC_REPRESENTATION_CONTEXT ( 3 ) GLOBAL_UNCERTAINTY_ASSIGNED_CONTEXT ( ( #227 ) ) GLOBAL_UNIT_ASSIGNED_CONTEXT ( ( #194, #163, #299 ) ) REPRESENTATION_CONTEXT ( 'NONE', 'WORKASPACE' ) );
#173 = FACE_OUTER_BOUND ( 'NONE', #123, .T. ) ;
#174 = DIMENSIONAL_EXPONENTS ( 1.000000000000000000, 0.000000000000000000, 0.000000000000000000, 0.000000000000000000, 0.000000000000000000, 0.000000000000000000, 0.000000000000000000 ) ;
#175 = DIRECTION ( 'NONE',  ( 0.000000000000000000, 0.000000000000000000, -1.000000000000000000 ) ) ;
#176 = EDGE_CURVE ( 'NONE', #204, #87, #189, .T. ) ;
#177 = ORIENTED_EDGE ( 'NONE', *, *, #169, .F. ) ;
#178 = MECHANICAL_DESIGN_GEOMETRIC_PRESENTATION_REPRESENTATION (  '', ( #356 ), #287 ) ;
#179 = DIRECTION ( 'NONE',  ( -1.000000000000000000, 0.000000000000000000, 0.000000000000000000 ) ) ;
#180 = AXIS2_PLACEMENT_3D ( 'NONE', #242, #51, #179 ) ;
#181 = ORIENTED_EDGE ( 'NONE', *, *, #176, .F. ) ;
#182 = VERTEX_POINT ( 'NONE', #50 ) ;
#183 = EDGE_CURVE ( 'NONE', #149, #141, #273, .T. ) ;
#184 = SURFACE_STYLE_FILL_AREA ( #263 ) ;
#185 = COLOUR_RGB ( '',1.000000000000000000, 0.000000000000000000, 0.000000000000000000 ) ;
#186 = SURFACE_STYLE_FILL_AREA ( #192 ) ;
#187 = ORIENTED_EDGE ( 'NONE', *, *, #121, .T. ) ;
#188 = CARTESIAN_POINT ( 'NONE',  ( 0.1249999999999998751, 3.000000000000000444, 1.530808498934190276E-17 ) ) ;
#189 = CIRCLE ( 'NONE', #317, 0.1249999999999999029 ) ;
#190 = SURFACE_SIDE_STYLE ('',( #186 ) ) ;
#191 = CARTESIAN_POINT ( 'NONE',  ( 0.000000000000000000, 1.000000000000000000, 0.000000000000000000 ) ) ;
#192 = FILL_AREA_STYLE ('',( #295 ) ) ;
#193 =( CONVERSION_BASED_UNIT ( 'INCH', #327 ) LENGTH_UNIT ( ) NAMED_UNIT ( #174 ) );
#194 =( CONVERSION_BASED_UNIT ( 'INCH', #167 ) LENGTH_UNIT ( ) NAMED_UNIT ( #72 ) );
#195 = DIRECTION ( 'NONE',  ( -1.000000000000000000, 0.000000000000000000, 0.000000000000000000 ) ) ;
#196 = UNCERTAINTY_MEASURE_WITH_UNIT (LENGTH_MEASURE( 1.000000000000000082E-05 ), #135, 'distance_accuracy_value', 'NONE');
#197 = COLOUR_RGB ( '',1.000000000000000000, 0.000000000000000000, 0.000000000000000000 ) ;
#198 = ADVANCED_FACE ( 'NONE', ( #173 ), #341, .T. ) ;
#199 = DIRECTION ( 'NONE',  ( -1.000000000000000000, 0.000000000000000000, 0.000000000000000000 ) ) ;
#200 =( LENGTH_UNIT ( ) NAMED_UNIT ( * ) SI_UNIT ( $, .METRE. ) );
#201 = DIRECTION ( 'NONE',  ( 0.000000000000000000, 0.000000000000000000, -1.000000000000000000 ) ) ;
#202 =( GEOMETRIC_REPRESENTATION_CONTEXT ( 3 ) GLOBAL_UNCERTAINTY_ASSIGNED_CONTEXT ( ( #127 ) ) GLOBAL_UNIT_ASSIGNED_CONTEXT ( ( #147, #235, #14 ) ) REPRESENTATION_CONTEXT ( 'NONE', 'WORKASPACE' ) );
#203 = CARTESIAN_POINT ( 'NONE',  ( 0.000000000000000000, 0.1249999999999999029, -0.1249999999999999029 ) ) ;
#204 = VERTEX_POINT ( 'NONE', #17 ) ;
#205 = FACE_OUTER_BOUND ( 'NONE', #308, .T. ) ;
#206 = ORIENTED_EDGE ( 'NONE', *, *, #65, .T. ) ;
#207 = ORIENTED_EDGE ( 'NONE', *, *, #45, .T. ) ;
#208 = STYLED_ITEM ( 'NONE', ( #64 ), #25 ) ;
#209 = FILL_AREA_STYLE_COLOUR ( '', #166 ) ;
#210 =( GEOMETRIC_REPRESENTATION_CONTEXT ( 3 ) GLOBAL_UNCERTAINTY_ASSIGNED_CONTEXT ( ( #215 ) ) GLOBAL_UNIT_ASSIGNED_CONTEXT ( ( #4, #265, #291 ) ) REPRESENTATION_CONTEXT ( 'NONE', 'WORKASPACE' ) );
#211 = ORIENTED_EDGE ( 'NONE', *, *, #321, .T. ) ;
#212 = PRESENTATION_STYLE_ASSIGNMENT (( #24 ) ) ;
#213 = PRESENTATION_STYLE_ASSIGNMENT (( #92 ) ) ;
#214 =( NAMED_UNIT ( * ) PLANE_ANGLE_UNIT ( ) SI_UNIT ( $, .RADIAN. ) );
#215 = UNCERTAINTY_MEASURE_WITH_UNIT (LENGTH_MEASURE( 1.000000000000000082E-05 ), #4, 'distance_accuracy_value', 'NONE');
#216 = SURFACE_STYLE_USAGE ( .BOTH. , #190 ) ;
#217 = ORIENTED_EDGE ( 'NONE', *, *, #314, .F. ) ;
#218 = SURFACE_STYLE_FILL_AREA ( #69 ) ;
#219 = DIRECTION ( 'NONE',  ( -0.000000000000000000, -1.000000000000000000, -0.000000000000000000 ) ) ;
#220 = ADVANCED_FACE ( 'NONE', ( #47 ), #140, .T. ) ;
#221 = AXIS2_PLACEMENT_3D ( 'NONE', #274, #145, #19 ) ;
#222 =( LENGTH_UNIT ( ) NAMED_UNIT ( * ) SI_UNIT ( $, .METRE. ) );
#223 = MANIFOLD_SOLID_BREP ( 'Revolve - Cutting Edge', #102 ) ;
#224 = UNCERTAINTY_MEASURE_WITH_UNIT (LENGTH_MEASURE( 1.000000000000000082E-05 ), #153, 'distance_accuracy_value', 'NONE');
#225 = CARTESIAN_POINT ( 'NONE',  ( 0.000000000000000000, 0.1249999999999999029, 0.000000000000000000 ) ) ;
#226 =( GEOMETRIC_REPRESENTATION_CONTEXT ( 3 ) GLOBAL_UNCERTAINTY_ASSIGNED_CONTEXT ( ( #98 ) ) GLOBAL_UNIT_ASSIGNED_CONTEXT ( ( #193, #161, #271 ) ) REPRESENTATION_CONTEXT ( 'NONE', 'WORKASPACE' ) );
#227 = UNCERTAINTY_MEASURE_WITH_UNIT (LENGTH_MEASURE( 1.000000000000000082E-05 ), #194, 'distance_accuracy_value', 'NONE');
#228 =( LENGTH_UNIT ( ) NAMED_UNIT ( * ) SI_UNIT ( $, .METRE. ) );
#229 =( NAMED_UNIT ( * ) SI_UNIT ( $, .STERADIAN. ) SOLID_ANGLE_UNIT ( ) );
#230 = CARTESIAN_POINT ( 'NONE',  ( 1.836970198721030427E-16, 1.000000000000000000, 0.000000000000000000 ) ) ;
#231 = LINE ( 'NONE', #168, #292 ) ;
#232 = APPLICATION_CONTEXT ( 'automotive_design' ) ;
#233 = AXIS2_PLACEMENT_3D ( 'NONE', #35, #42, #129 ) ;
#234 = PRODUCT_DEFINITION_FORMATION_WITH_SPECIFIED_SOURCE ( 'ANY', '', #6, .NOT_KNOWN. ) ;
#235 =( NAMED_UNIT ( * ) PLANE_ANGLE_UNIT ( ) SI_UNIT ( $, .RADIAN. ) );
#236 = EDGE_LOOP ( 'NONE', ( #2, #290 ) ) ;
#237 = DIRECTION ( 'NONE',  ( -1.224646799147353700E-16, 1.000000000000000000, -0.000000000000000000 ) ) ;
#238 = ADVANCED_FACE ( 'NONE', ( #318 ), #1, .F. ) ;
#239 =( NAMED_UNIT ( * ) SI_UNIT ( $, .STERADIAN. ) SOLID_ANGLE_UNIT ( ) );
#240 = FILL_AREA_STYLE_COLOUR ( '', #197 ) ;
#241 = ADVANCED_FACE ( 'NONE', ( #60 ), #118, .T. ) ;
#242 = CARTESIAN_POINT ( 'NONE',  ( -6.123233995736772199E-17, 3.000000000000000444, 0.000000000000000000 ) ) ;
#243 = ORIENTED_EDGE ( 'NONE', *, *, #76, .F. ) ;
#244 = MECHANICAL_DESIGN_GEOMETRIC_PRESENTATION_REPRESENTATION (  '', ( #125 ), #306 ) ;
#245 =( CONVERSION_BASED_UNIT ( 'INCH', #70 ) LENGTH_UNIT ( ) NAMED_UNIT ( #18 ) );
#246 = ADVANCED_FACE ( 'NONE', ( #57 ), #264, .T. ) ;
#247 = FILL_AREA_STYLE_COLOUR ( '', #276 ) ;
#248 = PRESENTATION_LAYER_ASSIGNMENT (  '', '', ( #208 ) ) ;
#249 = PRESENTATION_LAYER_ASSIGNMENT (  '', '', ( #125 ) ) ;
#250 = CIRCLE ( 'NONE', #88, 0.1249999999999997086 ) ;
#251 = STYLED_ITEM ( 'NONE', ( #126 ), #334 ) ;
#252 = CARTESIAN_POINT ( 'NONE',  ( 0.000000000000000000, 1.000000000000000000, 0.000000000000000000 ) ) ;
#253 = PRODUCT_CONTEXT ( 'NONE', #232, 'mechanical' ) ;
#254 = CARTESIAN_POINT ( 'NONE',  ( 0.1249999999999998751, 3.000000000000000444, 0.000000000000000000 ) ) ;
#255 = ORIENTED_EDGE ( 'NONE', *, *, #343, .T. ) ;
#256 = ORIENTED_EDGE ( 'NONE', *, *, #45, .F. ) ;
#257 = VECTOR ( 'NONE', #302, 39.37007874015748143 ) ;
#258 = FILL_AREA_STYLE_COLOUR ( '', #373 ) ;
#259 = EDGE_LOOP ( 'NONE', ( #217, #312, #206, #85 ) ) ;
#260 = VERTEX_POINT ( 'NONE', #282 ) ;
#261 = ORIENTED_EDGE ( 'NONE', *, *, #183, .T. ) ;
#262 = AXIS2_PLACEMENT_3D ( 'NONE', #285, #39, #134 ) ;
#263 = FILL_AREA_STYLE ('',( #209 ) ) ;
#264 = CYLINDRICAL_SURFACE ( 'NONE', #180, 0.1249999999999998335 ) ;
#265 =( NAMED_UNIT ( * ) PLANE_ANGLE_UNIT ( ) SI_UNIT ( $, .RADIAN. ) );
#266 = DIRECTION ( 'NONE',  ( 0.000000000000000000, 0.000000000000000000, -1.000000000000000000 ) ) ;
#267 = AXIS2_PLACEMENT_3D ( 'NONE', #289, #119, #122 ) ;
#268 = DIRECTION ( 'NONE',  ( -1.224646799147353700E-16, 1.000000000000000000, -0.000000000000000000 ) ) ;
#269 = APPLICATION_CONTEXT ( 'automotive_design' ) ;
#270 = DIRECTION ( 'NONE',  ( -1.224646799147353700E-16, 1.000000000000000000, -0.000000000000000000 ) ) ;
#271 =( NAMED_UNIT ( * ) SI_UNIT ( $, .STERADIAN. ) SOLID_ANGLE_UNIT ( ) );
#272 = MECHANICAL_DESIGN_GEOMETRIC_PRESENTATION_REPRESENTATION (  '', ( #208 ), #226 ) ;
#273 = CIRCLE ( 'NONE', #155, 0.1249999999999998751 ) ;
#274 = CARTESIAN_POINT ( 'NONE',  ( 0.000000000000000000, 0.000000000000000000, 0.000000000000000000 ) ) ;
#275 = DIRECTION ( 'NONE',  ( 0.000000000000000000, 0.000000000000000000, -1.000000000000000000 ) ) ;
#276 = COLOUR_RGB ( '',1.000000000000000000, 0.000000000000000000, 0.000000000000000000 ) ;
#277 = PRESENTATION_STYLE_ASSIGNMENT (( #278 ) ) ;
#278 = SURFACE_STYLE_USAGE ( .BOTH. , #364 ) ;
#279 = VERTEX_POINT ( 'NONE', #63 ) ;
#280 = DIRECTION ( 'NONE',  ( -1.000000000000000000, 0.000000000000000000, 0.000000000000000000 ) ) ;
#281 = ORIENTED_EDGE ( 'NONE', *, *, #157, .F. ) ;
#282 = CARTESIAN_POINT ( 'NONE',  ( -0.1250000000000000278, 3.000000000000000444, 0.000000000000000000 ) ) ;
#283 = VERTEX_POINT ( 'NONE', #61 ) ;
#284 =( NAMED_UNIT ( * ) PLANE_ANGLE_UNIT ( ) SI_UNIT ( $, .RADIAN. ) );
#285 = CARTESIAN_POINT ( 'NONE',  ( 0.000000000000000000, 1.000000000000000000, 0.000000000000000000 ) ) ;
#286 =( CONVERSION_BASED_UNIT ( 'INCH', #56 ) LENGTH_UNIT ( ) NAMED_UNIT ( #16 ) );
#287 =( GEOMETRIC_REPRESENTATION_CONTEXT ( 3 ) GLOBAL_UNCERTAINTY_ASSIGNED_CONTEXT ( ( #162 ) ) GLOBAL_UNIT_ASSIGNED_CONTEXT ( ( #245, #296, #44 ) ) REPRESENTATION_CONTEXT ( 'NONE', 'WORKASPACE' ) );
#288 = AXIS2_PLACEMENT_3D ( 'NONE', #345, #313, #350 ) ;
#289 = CARTESIAN_POINT ( 'NONE',  ( -6.123233995736772199E-17, 3.000000000000000444, 0.000000000000000000 ) ) ;
#290 = ORIENTED_EDGE ( 'NONE', *, *, #321, .F. ) ;
#291 =( NAMED_UNIT ( * ) SI_UNIT ( $, .STERADIAN. ) SOLID_ANGLE_UNIT ( ) );
#292 = VECTOR ( 'NONE', #237, 39.37007874015748143 ) ;
#293 = DIRECTION ( 'NONE',  ( -0.000000000000000000, -1.000000000000000000, -0.000000000000000000 ) ) ;
#294 = UNCERTAINTY_MEASURE_WITH_UNIT (LENGTH_MEASURE( 1.000000000000000082E-05 ), #286, 'distance_accuracy_value', 'NONE');
#295 = FILL_AREA_STYLE_COLOUR ( '', #66 ) ;
#296 =( NAMED_UNIT ( * ) PLANE_ANGLE_UNIT ( ) SI_UNIT ( $, .RADIAN. ) );
#297 = SURFACE_STYLE_USAGE ( .BOTH. , #355 ) ;
#298 = DIRECTION ( 'NONE',  ( 0.000000000000000000, 1.000000000000000000, 0.000000000000000000 ) ) ;
#299 =( NAMED_UNIT ( * ) SI_UNIT ( $, .STERADIAN. ) SOLID_ANGLE_UNIT ( ) );
#300 = CIRCLE ( 'NONE', #262, 0.1249999999999998751 ) ;
#301 = VECTOR ( 'NONE', #270, 39.37007874015748143 ) ;
#302 = DIRECTION ( 'NONE',  ( -0.000000000000000000, -1.000000000000000000, -0.000000000000000000 ) ) ;
#303 = CARTESIAN_POINT ( 'NONE',  ( 0.000000000000000000, 0.1249999999999999029, 0.000000000000000000 ) ) ;
#304 = LENGTH_MEASURE_WITH_UNIT ( LENGTH_MEASURE( 0.02539999999999999897 ), #200 );
#305 = DIRECTION ( 'NONE',  ( -0.000000000000000000, -1.000000000000000000, -0.000000000000000000 ) ) ;
#306 =( GEOMETRIC_REPRESENTATION_CONTEXT ( 3 ) GLOBAL_UNCERTAINTY_ASSIGNED_CONTEXT ( ( #294 ) ) GLOBAL_UNIT_ASSIGNED_CONTEXT ( ( #286, #214, #239 ) ) REPRESENTATION_CONTEXT ( 'NONE', 'WORKASPACE' ) );
#307 = CARTESIAN_POINT ( 'NONE',  ( 0.000000000000000000, 0.1249999999999999029, 0.000000000000000000 ) ) ;
#308 = EDGE_LOOP ( 'NONE', ( #187, #207 ) ) ;
#309 = APPLICATION_PROTOCOL_DEFINITION ( 'draft international standard', 'automotive_design', 1998, #232 ) ;
#310 = DIMENSIONAL_EXPONENTS ( 1.000000000000000000, 0.000000000000000000, 0.000000000000000000, 0.000000000000000000, 0.000000000000000000, 0.000000000000000000, 0.000000000000000000 ) ;
#311 = CARTESIAN_POINT ( 'NONE',  ( 1.530808498934190276E-17, 0.000000000000000000, 0.1249999999999999029 ) ) ;
#312 = ORIENTED_EDGE ( 'NONE', *, *, #176, .T. ) ;
#313 = DIRECTION ( 'NONE',  ( 0.000000000000000000, 0.000000000000000000, 1.000000000000000000 ) ) ;
#314 = EDGE_CURVE ( 'NONE', #204, #366, #74, .T. ) ;
#315 = VERTEX_POINT ( 'NONE', #188 ) ;
#316 = COLOUR_RGB ( '',1.000000000000000000, 0.000000000000000000, 0.000000000000000000 ) ;
#317 = AXIS2_PLACEMENT_3D ( 'NONE', #307, #77, #80 ) ;
#318 = FACE_OUTER_BOUND ( 'NONE', #236, .T. ) ;
#319 = ORIENTED_EDGE ( 'NONE', *, *, #37, .F. ) ;
#320 = SURFACE_SIDE_STYLE ('',( #156 ) ) ;
#321 = EDGE_CURVE ( 'NONE', #182, #283, #95, .T. ) ;
#322 = AXIS2_PLACEMENT_3D ( 'NONE', #105, #219, #171 ) ;
#323 = MECHANICAL_DESIGN_GEOMETRIC_PRESENTATION_REPRESENTATION (  '', ( #358 ), #202 ) ;
#324 =( LENGTH_UNIT ( ) NAMED_UNIT ( * ) SI_UNIT ( $, .METRE. ) );
#325 = CARTESIAN_POINT ( 'NONE',  ( 1.836970198721030427E-16, 1.000000000000000000, 0.000000000000000000 ) ) ;
#326 = ORIENTED_EDGE ( 'NONE', *, *, #154, .T. ) ;
#327 = LENGTH_MEASURE_WITH_UNIT ( LENGTH_MEASURE( 0.02539999999999999897 ), #222 );
#328 =( LENGTH_UNIT ( ) NAMED_UNIT ( * ) SI_UNIT ( $, .METRE. ) );
#329 = SPHERICAL_SURFACE ( 'NONE', #233, 0.1249999999999999029 ) ;
#330 = FACE_OUTER_BOUND ( 'NONE', #82, .T. ) ;
#331 = CYLINDRICAL_SURFACE ( 'NONE', #10, 0.1249999999999999029 ) ;
#332 = SURFACE_SIDE_STYLE ('',( #357 ) ) ;
#333 = AXIS2_PLACEMENT_3D ( 'NONE', #96, #9, #128 ) ;
#334 = MANIFOLD_SOLID_BREP ( 'Revolve - Tool Body (Straight Shanked)', #28 ) ;
#335 = SHAPE_DEFINITION_REPRESENTATION ( #91, #148 ) ;
#336 = PLANE ( 'NONE',  #124 ) ;
#337 = ADVANCED_FACE ( 'NONE', ( #330 ), #329, .T. ) ;
#338 = DIRECTION ( 'NONE',  ( -1.224646799147353700E-16, 1.000000000000000000, -0.000000000000000000 ) ) ;
#339 = CIRCLE ( 'NONE', #73, 0.1249999999999999029 ) ;
#340 = VERTEX_POINT ( 'NONE', #40 ) ;
#341 = CYLINDRICAL_SURFACE ( 'NONE', #81, 0.1249999999999999029 ) ;
#342 = ORIENTED_EDGE ( 'NONE', *, *, #314, .T. ) ;
#343 = EDGE_CURVE ( 'NONE', #283, #260, #13, .T. ) ;
#344 = ORIENTED_EDGE ( 'NONE', *, *, #121, .F. ) ;
#345 = CARTESIAN_POINT ( 'NONE',  ( -1.530808498934190893E-17, 0.1249999999999999029, 0.000000000000000000 ) ) ;
#346 = ORIENTED_EDGE ( 'NONE', *, *, #65, .F. ) ;
#347 = AXIS2_PLACEMENT_3D ( 'NONE', #303, #305, #370 ) ;
#348 = PRESENTATION_LAYER_ASSIGNMENT (  '', '', ( #34 ) ) ;
#349 = SURFACE_SIDE_STYLE ('',( #184 ) ) ;
#350 = DIRECTION ( 'NONE',  ( 1.000000000000000000, 0.000000000000000000, 0.000000000000000000 ) ) ;
#351 =( GEOMETRIC_REPRESENTATION_CONTEXT ( 3 ) GLOBAL_UNCERTAINTY_ASSIGNED_CONTEXT ( ( #196 ) ) GLOBAL_UNIT_ASSIGNED_CONTEXT ( ( #135, #136, #229 ) ) REPRESENTATION_CONTEXT ( 'NONE', 'WORKASPACE' ) );
#352 = PRODUCT_DEFINITION_CONTEXT ( 'detailed design', #269, 'design' ) ;
#353 = LENGTH_MEASURE_WITH_UNIT ( LENGTH_MEASURE( 0.02539999999999999897 ), #67 );
#354 = FILL_AREA_STYLE_COLOUR ( '', #316 ) ;
#355 = SURFACE_SIDE_STYLE ('',( #218 ) ) ;
#356 = STYLED_ITEM ( 'NONE', ( #7 ), #48 ) ;
#357 = SURFACE_STYLE_FILL_AREA ( #12 ) ;
#358 = STYLED_ITEM ( 'NONE', ( #277 ), #198 ) ;
#359 = LINE ( 'NONE', #367, #59 ) ;
#360 = APPLICATION_PROTOCOL_DEFINITION ( 'draft international standard', 'automotive_design', 1998, #269 ) ;
#361 = EDGE_CURVE ( 'NONE', #149, #87, #359, .T. ) ;
#362 = AXIS2_PLACEMENT_3D ( 'NONE', #49, #338, #199 ) ;
#363 = AXIS2_PLACEMENT_3D ( 'NONE', #325, #158, #99 ) ;
#364 = SURFACE_SIDE_STYLE ('',( #22 ) ) ;
#365 = DIRECTION ( 'NONE',  ( -1.224646799147353700E-16, 1.000000000000000000, -0.000000000000000000 ) ) ;
#366 = VERTEX_POINT ( 'NONE', #170 ) ;
#367 = CARTESIAN_POINT ( 'NONE',  ( 0.000000000000000000, 0.000000000000000000, -0.1249999999999999029 ) ) ;
#368 = PRESENTATION_LAYER_ASSIGNMENT (  '', '', ( #138 ) ) ;
#369 = EDGE_LOOP ( 'NONE', ( #281, #211, #255, #256 ) ) ;
#370 = DIRECTION ( 'NONE',  ( 0.000000000000000000, 0.000000000000000000, -1.000000000000000000 ) ) ;
#371 = ORIENTED_EDGE ( 'NONE', *, *, #37, .T. ) ;
#372 = ORIENTED_EDGE ( 'NONE', *, *, #107, .F. ) ;
#373 = COLOUR_RGB ( '',1.000000000000000000, 0.000000000000000000, 0.000000000000000000 ) ;
ENDSEC;
END-ISO-10303-21;
