ISO-10303-21;
HEADER;
FILE_DESCRIPTION (( 'STEP AP214' ),
    '1' );
FILE_NAME ('Micro_RME-017-2.STEP',
    '2021-09-01T22:38:25',
    ( '' ),
    ( '' ),
    'SwSTEP 2.0',
    'SolidWorks 2020',
    '' );
FILE_SCHEMA (( 'AUTOMOTIVE_DESIGN' ));
ENDSEC;

DATA;
#1 = ORIENTED_EDGE ( 'NONE', *, *, #161, .F. ) ;
#2 = CIRCLE ( 'NONE', #241, 0.06250000000000002776 ) ;
#3 = VERTEX_POINT ( 'NONE', #158 ) ;
#4 = DIRECTION ( 'NONE',  ( -1.224646799147353454E-16, -0.0000000000000000000, -1.000000000000000000 ) ) ;
#5 = EDGE_CURVE ( 'NONE', #116, #186, #265, .T. ) ;
#6 = APPLICATION_PROTOCOL_DEFINITION ( 'draft international standard', 'automotive_design', 1998, #64 ) ;
#7 = DIRECTION ( 'NONE',  ( 1.000000000000000000, 0.0000000000000000000, 0.0000000000000000000 ) ) ;
#8 = DIRECTION ( 'NONE',  ( -1.000000000000000000, 0.0000000000000000000, 1.224646799147353207E-16 ) ) ;
#9 = MECHANICAL_DESIGN_GEOMETRIC_PRESENTATION_REPRESENTATION (  '', ( #66 ), #47 ) ;
#10 = DIRECTION ( 'NONE',  ( 1.000000000000000000, 0.0000000000000000000, -0.0000000000000000000 ) ) ;
#11 = CARTESIAN_POINT ( 'NONE',  ( 1.273521019447317588E-34, 0.0000000000000000000, 1.039908829495975638E-18 ) ) ;
#12 = EDGE_LOOP ( 'NONE', ( #25, #119, #92, #1 ) ) ;
#13 = FACE_OUTER_BOUND ( 'NONE', #297, .T. ) ;
#14 = CYLINDRICAL_SURFACE ( 'NONE', #289, 0.06250000000000002776 ) ;
#15 = CLOSED_SHELL ( 'NONE', ( #260, #99, #249, #136, #295, #41, #211, #22, #85, #106 ) ) ;
#16 = DIRECTION ( 'NONE',  ( 1.000000000000000000, 0.0000000000000000000, 0.0000000000000000000 ) ) ;
#17 = SURFACE_SIDE_STYLE ('',( #89 ) ) ;
#18 = EDGE_CURVE ( 'NONE', #299, #206, #28, .T. ) ;
#19 = DIRECTION ( 'NONE',  ( -1.000000000000000000, 0.0000000000000000000, 0.0000000000000000000 ) ) ;
#20 = ORIENTED_EDGE ( 'NONE', *, *, #224, .F. ) ;
#21 = CIRCLE ( 'NONE', #94, 0.06250000000000002776 ) ;
#22 = ADVANCED_FACE ( 'NONE', ( #150 ), #202, .T. ) ;
#23 = STYLED_ITEM ( 'NONE', ( #278 ), #26 ) ;
#24 = ORIENTED_EDGE ( 'NONE', *, *, #255, .F. ) ;
#25 = ORIENTED_EDGE ( 'NONE', *, *, #46, .T. ) ;
#26 = ADVANCED_BREP_SHAPE_REPRESENTATION ( 'Micro_RME-017-2', ( #233, #199 ), #63 ) ;
#27 = ORIENTED_EDGE ( 'NONE', *, *, #49, .F. ) ;
#28 = CIRCLE ( 'NONE', #251, 0.008491500000000004253 ) ;
#29 = CIRCLE ( 'NONE', #55, 0.06250000000000002776 ) ;
#30 = SURFACE_STYLE_USAGE ( .BOTH. , #51 ) ;
#31 = VERTEX_POINT ( 'NONE', #124 ) ;
#32 = DIRECTION ( 'NONE',  ( -1.224646799147353454E-16, -0.0000000000000000000, -1.000000000000000000 ) ) ;
#33 = DIRECTION ( 'NONE',  ( -1.224646799147353454E-16, -0.0000000000000000000, -1.000000000000000000 ) ) ;
#34 = DIRECTION ( 'NONE',  ( 1.224646799147353454E-16, 0.0000000000000000000, 1.000000000000000000 ) ) ;
#35 = DIRECTION ( 'NONE',  ( -1.224646799147353454E-16, -0.0000000000000000000, -1.000000000000000000 ) ) ;
#36 = DIRECTION ( 'NONE',  ( -0.1736481776669311916, 2.126576849575783316E-17, 0.9848077530122080203 ) ) ;
#37 = CYLINDRICAL_SURFACE ( 'NONE', #71, 0.008491500000000002518 ) ;
#38 = EDGE_CURVE ( 'NONE', #31, #72, #286, .T. ) ;
#39 = AXIS2_PLACEMENT_3D ( 'NONE', #195, #173, #210 ) ;
#40 = CARTESIAN_POINT ( 'NONE',  ( 4.375631468347964977E-17, 0.0000000000000000000, 0.3572974241548214636 ) ) ;
#41 = ADVANCED_FACE ( 'NONE', ( #54 ), #52, .T. ) ;
#42 = DIRECTION ( 'NONE',  ( -1.000000000000000000, 0.0000000000000000000, 0.0000000000000000000 ) ) ;
#43 = CARTESIAN_POINT ( 'NONE',  ( 0.008491500000000004253, 1.039908829495975445E-18, -2.369500423704768587E-34 ) ) ;
#44 =( LENGTH_UNIT ( ) NAMED_UNIT ( * ) SI_UNIT ( $, .METRE. ) );
#45 = ORIENTED_EDGE ( 'NONE', *, *, #111, .T. ) ;
#46 = EDGE_CURVE ( 'NONE', #3, #186, #159, .T. ) ;
#47 =( GEOMETRIC_REPRESENTATION_CONTEXT ( 3 ) GLOBAL_UNCERTAINTY_ASSIGNED_CONTEXT ( ( #118 ) ) GLOBAL_UNIT_ASSIGNED_CONTEXT ( ( #183, #222, #110 ) ) REPRESENTATION_CONTEXT ( 'NONE', 'WORKASPACE' ) );
#48 = ORIENTED_EDGE ( 'NONE', *, *, #167, .F. ) ;
#49 = EDGE_CURVE ( 'NONE', #31, #206, #231, .T. ) ;
#50 = VERTEX_POINT ( 'NONE', #216 ) ;
#51 = SURFACE_SIDE_STYLE ('',( #207 ) ) ;
#52 = PLANE ( 'NONE',  #193 ) ;
#53 = VERTEX_POINT ( 'NONE', #81 ) ;
#54 = FACE_OUTER_BOUND ( 'NONE', #272, .T. ) ;
#55 = AXIS2_PLACEMENT_3D ( 'NONE', #84, #178, #131 ) ;
#56 = MECHANICAL_DESIGN_GEOMETRIC_PRESENTATION_REPRESENTATION (  '', ( #23 ), #242 ) ;
#57 = DIRECTION ( 'NONE',  ( 1.000000000000000000, 0.0000000000000000000, 0.0000000000000000000 ) ) ;
#58 = CARTESIAN_POINT ( 'NONE',  ( 0.0000000000000000000, 0.0000000000000000000, 1.485000000000000764 ) ) ;
#59 = DIRECTION ( 'NONE',  ( -1.224646799147353454E-16, -0.0000000000000000000, -1.000000000000000000 ) ) ;
#60 = EDGE_CURVE ( 'NONE', #190, #116, #148, .T. ) ;
#61 = VECTOR ( 'NONE', #292, 39.37007874015748143 ) ;
#62 = CARTESIAN_POINT ( 'NONE',  ( 0.0000000000000000000, 0.0000000000000000000, 1.500000000000000222 ) ) ;
#63 =( GEOMETRIC_REPRESENTATION_CONTEXT ( 3 ) GLOBAL_UNCERTAINTY_ASSIGNED_CONTEXT ( ( #204 ) ) GLOBAL_UNIT_ASSIGNED_CONTEXT ( ( #259, #209, #80 ) ) REPRESENTATION_CONTEXT ( 'NONE', 'WORKASPACE' ) );
#64 = APPLICATION_CONTEXT ( 'automotive_design' ) ;
#65 = PRODUCT_DEFINITION_CONTEXT ( 'detailed design', #113, 'design' ) ;
#66 = STYLED_ITEM ( 'NONE', ( #164 ), #233 ) ;
#67 = ORIENTED_EDGE ( 'NONE', *, *, #224, .T. ) ;
#68 = FACE_OUTER_BOUND ( 'NONE', #254, .T. ) ;
#69 = ORIENTED_EDGE ( 'NONE', *, *, #167, .T. ) ;
#70 = EDGE_CURVE ( 'NONE', #72, #53, #21, .T. ) ;
#71 = AXIS2_PLACEMENT_3D ( 'NONE', #101, #35, #263 ) ;
#72 = VERTEX_POINT ( 'NONE', #288 ) ;
#73 =( LENGTH_UNIT ( ) NAMED_UNIT ( * ) SI_UNIT ( $, .METRE. ) );
#74 = ORIENTED_EDGE ( 'NONE', *, *, #114, .T. ) ;
#75 = PRODUCT_RELATED_PRODUCT_CATEGORY ( 'part', '', ( #165 ) ) ;
#76 = DIRECTION ( 'NONE',  ( 1.000000000000000000, 0.0000000000000000000, 0.0000000000000000000 ) ) ;
#77 = AXIS2_PLACEMENT_3D ( 'NONE', #214, #34, #176 ) ;
#78 = DIRECTION ( 'NONE',  ( -1.224646799147353454E-16, -0.0000000000000000000, -1.000000000000000000 ) ) ;
#79 = EDGE_CURVE ( 'NONE', #186, #53, #191, .T. ) ;
#80 =( NAMED_UNIT ( * ) SI_UNIT ( $, .STERADIAN. ) SOLID_ANGLE_UNIT ( ) );
#81 = CARTESIAN_POINT ( 'NONE',  ( 0.06250000000000006939, 7.654042494670963708E-18, 0.3572974241548214636 ) ) ;
#82 = FACE_OUTER_BOUND ( 'NONE', #279, .T. ) ;
#83 = DIRECTION ( 'NONE',  ( 0.0000000000000000000, 0.0000000000000000000, -1.000000000000000000 ) ) ;
#84 = CARTESIAN_POINT ( 'NONE',  ( 0.0000000000000000000, 0.0000000000000000000, 1.485000000000000764 ) ) ;
#85 = ADVANCED_FACE ( 'NONE', ( #236 ), #37, .T. ) ;
#86 = FACE_OUTER_BOUND ( 'NONE', #276, .T. ) ;
#87 = CARTESIAN_POINT ( 'NONE',  ( 0.0000000000000000000, 0.0000000000000000000, 1.500000000000000222 ) ) ;
#88 = FILL_AREA_STYLE_COLOUR ( '', #296 ) ;
#89 = SURFACE_STYLE_FILL_AREA ( #220 ) ;
#90 = AXIS2_PLACEMENT_3D ( 'NONE', #212, #78, #8 ) ;
#91 = LINE ( 'NONE', #137, #61 ) ;
#92 = ORIENTED_EDGE ( 'NONE', *, *, #70, .F. ) ;
#93 = ORIENTED_EDGE ( 'NONE', *, *, #60, .T. ) ;
#94 = AXIS2_PLACEMENT_3D ( 'NONE', #105, #151, #177 ) ;
#95 = ORIENTED_EDGE ( 'NONE', *, *, #268, .T. ) ;
#96 = ORIENTED_EDGE ( 'NONE', *, *, #46, .F. ) ;
#97 = DIRECTION ( 'NONE',  ( -1.000000000000000000, 0.0000000000000000000, 1.224646799147353454E-16 ) ) ;
#98 = AXIS2_PLACEMENT_3D ( 'NONE', #243, #160, #42 ) ;
#99 = ADVANCED_FACE ( 'NONE', ( #13 ), #235, .T. ) ;
#100 = LINE ( 'NONE', #170, #218 ) ;
#101 = CARTESIAN_POINT ( 'NONE',  ( 0.0000000000000000000, 0.0000000000000000000, 0.0000000000000000000 ) ) ;
#102 = CARTESIAN_POINT ( 'NONE',  ( 6.245698675651502164E-18, 0.0000000000000000000, 0.05099999999999999672 ) ) ;
#103 = SHAPE_DEFINITION_REPRESENTATION ( #298, #26 ) ;
#104 = DIRECTION ( 'NONE',  ( -1.224646799147353454E-16, -0.0000000000000000000, -1.000000000000000000 ) ) ;
#105 = CARTESIAN_POINT ( 'NONE',  ( 4.375631468347964977E-17, 0.0000000000000000000, 0.3572974241548214636 ) ) ;
#106 = ADVANCED_FACE ( 'NONE', ( #82 ), #280, .F. ) ;
#107 = CIRCLE ( 'NONE', #252, 0.008491499999999999049 ) ;
#108 = APPLICATION_PROTOCOL_DEFINITION ( 'draft international standard', 'automotive_design', 1998, #113 ) ;
#109 = DIRECTION ( 'NONE',  ( -0.0000000000000000000, -0.0000000000000000000, -1.000000000000000000 ) ) ;
#110 =( NAMED_UNIT ( * ) SI_UNIT ( $, .STERADIAN. ) SOLID_ANGLE_UNIT ( ) );
#111 = EDGE_CURVE ( 'NONE', #116, #190, #277, .T. ) ;
#112 = CIRCLE ( 'NONE', #174, 0.008491500000000004253 ) ;
#113 = APPLICATION_CONTEXT ( 'automotive_design' ) ;
#114 = EDGE_CURVE ( 'NONE', #186, #3, #29, .T. ) ;
#115 = LINE ( 'NONE', #149, #188 ) ;
#116 = VERTEX_POINT ( 'NONE', #217 ) ;
#117 = ORIENTED_EDGE ( 'NONE', *, *, #60, .F. ) ;
#118 = UNCERTAINTY_MEASURE_WITH_UNIT (LENGTH_MEASURE( 1.000000000000000082E-05 ), #183, 'distance_accuracy_value', 'NONE');
#119 = ORIENTED_EDGE ( 'NONE', *, *, #79, .T. ) ;
#120 = FILL_AREA_STYLE_COLOUR ( '', #264 ) ;
#121 = ORIENTED_EDGE ( 'NONE', *, *, #182, .T. ) ;
#122 = AXIS2_PLACEMENT_3D ( 'NONE', #58, #83, #7 ) ;
#123 = ORIENTED_EDGE ( 'NONE', *, *, #268, .F. ) ;
#124 = CARTESIAN_POINT ( 'NONE',  ( -0.008491499999999993845, 4.346975662083466591E-18, 0.05099999999999999672 ) ) ;
#125 = DIRECTION ( 'NONE',  ( -0.0000000000000000000, -0.0000000000000000000, -1.000000000000000000 ) ) ;
#126 = DIRECTION ( 'NONE',  ( 0.0000000000000000000, 0.0000000000000000000, 1.000000000000000000 ) ) ;
#127 = DIMENSIONAL_EXPONENTS ( 1.000000000000000000, 0.0000000000000000000, 0.0000000000000000000, 0.0000000000000000000, 0.0000000000000000000, 0.0000000000000000000, 0.0000000000000000000 ) ;
#128 =( NAMED_UNIT ( * ) PLANE_ANGLE_UNIT ( ) SI_UNIT ( $, .RADIAN. ) );
#129 = CARTESIAN_POINT ( 'NONE',  ( -0.008491500000000002518, 0.0000000000000000000, 1.039908829495975252E-18 ) ) ;
#130 = DIRECTION ( 'NONE',  ( 0.0000000000000000000, 0.0000000000000000000, 1.000000000000000000 ) ) ;
#131 = DIRECTION ( 'NONE',  ( 1.000000000000000000, 0.0000000000000000000, 0.0000000000000000000 ) ) ;
#132 = PRODUCT_DEFINITION ( 'UNKNOWN', '', #253, #65 ) ;
#133 = CIRCLE ( 'NONE', #287, 0.008491499999999999049 ) ;
#134 =( NAMED_UNIT ( * ) SI_UNIT ( $, .STERADIAN. ) SOLID_ANGLE_UNIT ( ) );
#135 = CARTESIAN_POINT ( 'NONE',  ( 6.245698675651502164E-18, 0.0000000000000000000, 0.05099999999999999672 ) ) ;
#136 = ADVANCED_FACE ( 'NONE', ( #240 ), #273, .T. ) ;
#137 = CARTESIAN_POINT ( 'NONE',  ( -0.06250000000000002776, 0.0000000000000000000, 1.500000000000000222 ) ) ;
#138 = FACE_OUTER_BOUND ( 'NONE', #168, .T. ) ;
#139 = CONICAL_SURFACE ( 'NONE', #229, 0.04750000000000064587, 0.7853981633974466137 ) ;
#140 = DIRECTION ( 'NONE',  ( -1.224646799147353454E-16, -0.0000000000000000000, -1.000000000000000000 ) ) ;
#141 = ORIENTED_EDGE ( 'NONE', *, *, #70, .T. ) ;
#142 = VECTOR ( 'NONE', #125, 39.37007874015748143 ) ;
#143 = ORIENTED_EDGE ( 'NONE', *, *, #38, .F. ) ;
#144 = ORIENTED_EDGE ( 'NONE', *, *, #5, .T. ) ;
#145 = DIMENSIONAL_EXPONENTS ( 1.000000000000000000, 0.0000000000000000000, 0.0000000000000000000, 0.0000000000000000000, 0.0000000000000000000, 0.0000000000000000000, 0.0000000000000000000 ) ;
#146 =( LENGTH_UNIT ( ) NAMED_UNIT ( * ) SI_UNIT ( $, .METRE. ) );
#147 = ORIENTED_EDGE ( 'NONE', *, *, #18, .T. ) ;
#148 = CIRCLE ( 'NONE', #246, 0.04750000000000064587 ) ;
#149 = CARTESIAN_POINT ( 'NONE',  ( -0.04750000000000064587, 0.0000000000000000000, 1.500000000000000222 ) ) ;
#150 = FACE_OUTER_BOUND ( 'NONE', #250, .T. ) ;
#151 = DIRECTION ( 'NONE',  ( -1.224646799147353454E-16, -0.0000000000000000000, -1.000000000000000000 ) ) ;
#152 = LENGTH_MEASURE_WITH_UNIT ( LENGTH_MEASURE( 0.02539999999999999897 ), #146 );
#153 = CARTESIAN_POINT ( 'NONE',  ( 0.0000000000000000000, 0.0000000000000000000, 1.500000000000000222 ) ) ;
#154 = AXIS2_PLACEMENT_3D ( 'NONE', #153, #262, #76 ) ;
#155 = CARTESIAN_POINT ( 'NONE',  ( 0.04750000000000064587, 5.817072295950006528E-18, 1.500000000000000222 ) ) ;
#156 = DIRECTION ( 'NONE',  ( -1.000000000000000000, 0.0000000000000000000, 0.0000000000000000000 ) ) ;
#157 = DIRECTION ( 'NONE',  ( -0.7071067811865462405, 0.0000000000000000000, -0.7071067811865486830 ) ) ;
#158 = CARTESIAN_POINT ( 'NONE',  ( -0.06250000000000002776, 0.0000000000000000000, 1.485000000000000764 ) ) ;
#159 = CIRCLE ( 'NONE', #122, 0.06250000000000002776 ) ;
#160 = DIRECTION ( 'NONE',  ( 0.0000000000000000000, 0.0000000000000000000, -1.000000000000000000 ) ) ;
#161 = EDGE_CURVE ( 'NONE', #3, #72, #91, .T. ) ;
#162 = PRESENTATION_LAYER_ASSIGNMENT (  '', '', ( #23 ) ) ;
#163 = DIRECTION ( 'NONE',  ( -1.000000000000000000, 0.0000000000000000000, 1.224646799147353454E-16 ) ) ;
#164 = PRESENTATION_STYLE_ASSIGNMENT (( #219 ) ) ;
#165 = PRODUCT ( 'Micro_RME-017-2', 'Micro_RME-017-2', '', ( #237 ) ) ;
#166 = ORIENTED_EDGE ( 'NONE', *, *, #282, .F. ) ;
#167 = EDGE_CURVE ( 'NONE', #53, #72, #2, .T. ) ;
#168 = EDGE_LOOP ( 'NONE', ( #192, #144, #96, #223 ) ) ;
#169 = EDGE_LOOP ( 'NONE', ( #67, #95, #166, #27 ) ) ;
#170 = CARTESIAN_POINT ( 'NONE',  ( 0.008491500000000002518, 1.039908829495975252E-18, -1.039908829495975252E-18 ) ) ;
#171 = CARTESIAN_POINT ( 'NONE',  ( 0.0000000000000000000, 0.0000000000000000000, 1.500000000000000222 ) ) ;
#172 = ORIENTED_EDGE ( 'NONE', *, *, #49, .T. ) ;
#173 = DIRECTION ( 'NONE',  ( 1.224646799147353454E-16, 0.0000000000000000000, 1.000000000000000000 ) ) ;
#174 = AXIS2_PLACEMENT_3D ( 'NONE', #266, #275, #163 ) ;
#175 = CARTESIAN_POINT ( 'NONE',  ( 0.0000000000000000000, 0.0000000000000000000, 1.500000000000000222 ) ) ;
#176 = DIRECTION ( 'NONE',  ( 1.000000000000000000, 0.0000000000000000000, 0.0000000000000000000 ) ) ;
#177 = DIRECTION ( 'NONE',  ( 1.000000000000000000, 0.0000000000000000000, 0.0000000000000000000 ) ) ;
#178 = DIRECTION ( 'NONE',  ( 0.0000000000000000000, 0.0000000000000000000, -1.000000000000000000 ) ) ;
#179 = LENGTH_MEASURE_WITH_UNIT ( LENGTH_MEASURE( 0.02539999999999999897 ), #44 );
#180 = DIRECTION ( 'NONE',  ( -0.0000000000000000000, -0.0000000000000000000, -1.000000000000000000 ) ) ;
#181 = CARTESIAN_POINT ( 'NONE',  ( 0.06250000000000002776, 7.654042494670959086E-18, 1.485000000000000764 ) ) ;
#182 = EDGE_CURVE ( 'NONE', #50, #53, #201, .T. ) ;
#183 =( CONVERSION_BASED_UNIT ( 'INCH', #179 ) LENGTH_UNIT ( ) NAMED_UNIT ( #285 ) );
#184 = DIRECTION ( 'NONE',  ( 0.1736481776669313859, 0.0000000000000000000, 0.9848077530122077983 ) ) ;
#185 = VECTOR ( 'NONE', #234, 39.37007874015748854 ) ;
#186 = VERTEX_POINT ( 'NONE', #181 ) ;
#187 = ORIENTED_EDGE ( 'NONE', *, *, #255, .T. ) ;
#188 = VECTOR ( 'NONE', #157, 39.37007874015748854 ) ;
#189 = EDGE_LOOP ( 'NONE', ( #123, #187, #172, #227 ) ) ;
#190 = VERTEX_POINT ( 'NONE', #293 ) ;
#191 = LINE ( 'NONE', #238, #142 ) ;
#192 = ORIENTED_EDGE ( 'NONE', *, *, #111, .F. ) ;
#193 = AXIS2_PLACEMENT_3D ( 'NONE', #283, #284, #197 ) ;
#194 = CARTESIAN_POINT ( 'NONE',  ( -0.008491499999999993845, 1.039908829495974867E-18, 0.05099999999999999672 ) ) ;
#195 = CARTESIAN_POINT ( 'NONE',  ( 6.245698675651502164E-18, 0.0000000000000000000, 0.05099999999999999672 ) ) ;
#196 = DIRECTION ( 'NONE',  ( -1.000000000000000000, 0.0000000000000000000, 0.0000000000000000000 ) ) ;
#197 = DIRECTION ( 'NONE',  ( 1.000000000000000000, 0.0000000000000000000, -0.0000000000000000000 ) ) ;
#198 = AXIS2_PLACEMENT_3D ( 'NONE', #213, #126, #10 ) ;
#199 = AXIS2_PLACEMENT_3D ( 'NONE', #239, #130, #267 ) ;
#200 = CARTESIAN_POINT ( 'NONE',  ( -0.008491500000000004253, 0.0000000000000000000, 2.079817658991951275E-18 ) ) ;
#201 = LINE ( 'NONE', #247, #244 ) ;
#202 = CONICAL_SURFACE ( 'NONE', #39, 0.008491499999999999049, 0.1745329251994338915 ) ;
#203 = CYLINDRICAL_SURFACE ( 'NONE', #90, 0.008491500000000002518 ) ;
#204 = UNCERTAINTY_MEASURE_WITH_UNIT (LENGTH_MEASURE( 1.000000000000000082E-05 ), #259, 'distance_accuracy_value', 'NONE');
#205 = ORIENTED_EDGE ( 'NONE', *, *, #161, .T. ) ;
#206 = VERTEX_POINT ( 'NONE', #200 ) ;
#207 = SURFACE_STYLE_FILL_AREA ( #228 ) ;
#208 = ORIENTED_EDGE ( 'NONE', *, *, #282, .T. ) ;
#209 =( NAMED_UNIT ( * ) PLANE_ANGLE_UNIT ( ) SI_UNIT ( $, .RADIAN. ) );
#210 = DIRECTION ( 'NONE',  ( 1.000000000000000000, 0.0000000000000000000, 0.0000000000000000000 ) ) ;
#211 = ADVANCED_FACE ( 'NONE', ( #68 ), #225, .T. ) ;
#212 = CARTESIAN_POINT ( 'NONE',  ( 0.0000000000000000000, 0.0000000000000000000, 0.0000000000000000000 ) ) ;
#213 = CARTESIAN_POINT ( 'NONE',  ( 0.0000000000000000000, 0.0000000000000000000, 0.0000000000000000000 ) ) ;
#214 = CARTESIAN_POINT ( 'NONE',  ( 6.245698675651502164E-18, 0.0000000000000000000, 0.05099999999999999672 ) ) ;
#215 = DIRECTION ( 'NONE',  ( -1.000000000000000000, 0.0000000000000000000, 0.0000000000000000000 ) ) ;
#216 = CARTESIAN_POINT ( 'NONE',  ( 0.008491500000000005988, 0.0000000000000000000, 0.05099999999999999672 ) ) ;
#217 = CARTESIAN_POINT ( 'NONE',  ( 0.04750000000000064587, 6.735557395310483192E-18, 1.500000000000000222 ) ) ;
#218 = VECTOR ( 'NONE', #4, 39.37007874015748143 ) ;
#219 = SURFACE_STYLE_USAGE ( .BOTH. , #17 ) ;
#220 = FILL_AREA_STYLE ('',( #88 ) ) ;
#221 = FACE_OUTER_BOUND ( 'NONE', #169, .T. ) ;
#222 =( NAMED_UNIT ( * ) PLANE_ANGLE_UNIT ( ) SI_UNIT ( $, .RADIAN. ) );
#223 = ORIENTED_EDGE ( 'NONE', *, *, #290, .F. ) ;
#224 = EDGE_CURVE ( 'NONE', #31, #50, #133, .T. ) ;
#225 = CONICAL_SURFACE ( 'NONE', #98, 0.04750000000000064587, 0.7853981633974466137 ) ;
#226 = ORIENTED_EDGE ( 'NONE', *, *, #290, .T. ) ;
#227 = ORIENTED_EDGE ( 'NONE', *, *, #18, .F. ) ;
#228 = FILL_AREA_STYLE ('',( #120 ) ) ;
#229 = AXIS2_PLACEMENT_3D ( 'NONE', #87, #270, #215 ) ;
#230 =( CONVERSION_BASED_UNIT ( 'INCH', #257 ) LENGTH_UNIT ( ) NAMED_UNIT ( #145 ) );
#231 = LINE ( 'NONE', #129, #269 ) ;
#232 = ORIENTED_EDGE ( 'NONE', *, *, #5, .F. ) ;
#233 = MANIFOLD_SOLID_BREP ( 'Cut-Revolve1', #15 ) ;
#234 = DIRECTION ( 'NONE',  ( 0.7071067811865462405, 8.659560562354916834E-17, -0.7071067811865486830 ) ) ;
#235 = CONICAL_SURFACE ( 'NONE', #77, 0.008491499999999999049, 0.1745329251994338915 ) ;
#236 = FACE_OUTER_BOUND ( 'NONE', #189, .T. ) ;
#237 = PRODUCT_CONTEXT ( 'NONE', #64, 'mechanical' ) ;
#238 = CARTESIAN_POINT ( 'NONE',  ( 0.06250000000000002776, 7.654042494670959086E-18, 1.500000000000000222 ) ) ;
#239 = CARTESIAN_POINT ( 'NONE',  ( 0.0000000000000000000, 0.0000000000000000000, 0.0000000000000000000 ) ) ;
#240 = FACE_OUTER_BOUND ( 'NONE', #12, .T. ) ;
#241 = AXIS2_PLACEMENT_3D ( 'NONE', #40, #140, #16 ) ;
#242 =( GEOMETRIC_REPRESENTATION_CONTEXT ( 3 ) GLOBAL_UNCERTAINTY_ASSIGNED_CONTEXT ( ( #245 ) ) GLOBAL_UNIT_ASSIGNED_CONTEXT ( ( #230, #128, #134 ) ) REPRESENTATION_CONTEXT ( 'NONE', 'WORKASPACE' ) );
#243 = CARTESIAN_POINT ( 'NONE',  ( 0.0000000000000000000, 0.0000000000000000000, 1.500000000000000222 ) ) ;
#244 = VECTOR ( 'NONE', #184, 39.37007874015748143 ) ;
#245 = UNCERTAINTY_MEASURE_WITH_UNIT (LENGTH_MEASURE( 1.000000000000000082E-05 ), #230, 'distance_accuracy_value', 'NONE');
#246 = AXIS2_PLACEMENT_3D ( 'NONE', #175, #261, #57 ) ;
#247 = CARTESIAN_POINT ( 'NONE',  ( 0.008491500000000005988, 0.0000000000000000000, 0.05099999999999999672 ) ) ;
#248 = ORIENTED_EDGE ( 'NONE', *, *, #182, .F. ) ;
#249 = ADVANCED_FACE ( 'NONE', ( #138 ), #139, .T. ) ;
#250 = EDGE_LOOP ( 'NONE', ( #143, #24, #121, #69 ) ) ;
#251 = AXIS2_PLACEMENT_3D ( 'NONE', #11, #104, #97 ) ;
#252 = AXIS2_PLACEMENT_3D ( 'NONE', #102, #33, #196 ) ;
#253 = PRODUCT_DEFINITION_FORMATION_WITH_SPECIFIED_SOURCE ( 'ANY', '', #165, .NOT_KNOWN. ) ;
#254 = EDGE_LOOP ( 'NONE', ( #232, #117, #226, #274 ) ) ;
#255 = EDGE_CURVE ( 'NONE', #50, #31, #107, .T. ) ;
#256 = ORIENTED_EDGE ( 'NONE', *, *, #79, .F. ) ;
#257 = LENGTH_MEASURE_WITH_UNIT ( LENGTH_MEASURE( 0.02539999999999999897 ), #73 );
#258 = ORIENTED_EDGE ( 'NONE', *, *, #38, .T. ) ;
#259 =( CONVERSION_BASED_UNIT ( 'INCH', #152 ) LENGTH_UNIT ( ) NAMED_UNIT ( #127 ) );
#260 = ADVANCED_FACE ( 'NONE', ( #221 ), #203, .T. ) ;
#261 = DIRECTION ( 'NONE',  ( 0.0000000000000000000, 0.0000000000000000000, 1.000000000000000000 ) ) ;
#262 = DIRECTION ( 'NONE',  ( 0.0000000000000000000, 0.0000000000000000000, 1.000000000000000000 ) ) ;
#263 = DIRECTION ( 'NONE',  ( -1.000000000000000000, 0.0000000000000000000, 1.224646799147353207E-16 ) ) ;
#264 = COLOUR_RGB ( '',0.7921568627450980005, 0.8196078431372548767, 0.9333333333333333481 ) ;
#265 = LINE ( 'NONE', #155, #185 ) ;
#266 = CARTESIAN_POINT ( 'NONE',  ( 1.273521019447317588E-34, 0.0000000000000000000, 1.039908829495975638E-18 ) ) ;
#267 = DIRECTION ( 'NONE',  ( 1.000000000000000000, 0.0000000000000000000, 0.0000000000000000000 ) ) ;
#268 = EDGE_CURVE ( 'NONE', #50, #299, #100, .T. ) ;
#269 = VECTOR ( 'NONE', #32, 39.37007874015748143 ) ;
#270 = DIRECTION ( 'NONE',  ( 0.0000000000000000000, 0.0000000000000000000, -1.000000000000000000 ) ) ;
#271 = PRESENTATION_LAYER_ASSIGNMENT (  '', '', ( #66 ) ) ;
#272 = EDGE_LOOP ( 'NONE', ( #93, #45 ) ) ;
#273 = CYLINDRICAL_SURFACE ( 'NONE', #294, 0.06250000000000002776 ) ;
#274 = ORIENTED_EDGE ( 'NONE', *, *, #114, .F. ) ;
#275 = DIRECTION ( 'NONE',  ( -1.224646799147353454E-16, -0.0000000000000000000, -1.000000000000000000 ) ) ;
#276 = EDGE_LOOP ( 'NONE', ( #256, #74, #205, #48 ) ) ;
#277 = CIRCLE ( 'NONE', #154, 0.04750000000000064587 ) ;
#278 = PRESENTATION_STYLE_ASSIGNMENT (( #30 ) ) ;
#279 = EDGE_LOOP ( 'NONE', ( #208, #147 ) ) ;
#280 = PLANE ( 'NONE',  #198 ) ;
#281 = VECTOR ( 'NONE', #36, 39.37007874015747433 ) ;
#282 = EDGE_CURVE ( 'NONE', #206, #299, #112, .T. ) ;
#283 = CARTESIAN_POINT ( 'NONE',  ( 0.0000000000000000000, 0.0000000000000000000, 1.500000000000000222 ) ) ;
#284 = DIRECTION ( 'NONE',  ( 0.0000000000000000000, 0.0000000000000000000, 1.000000000000000000 ) ) ;
#285 = DIMENSIONAL_EXPONENTS ( 1.000000000000000000, 0.0000000000000000000, 0.0000000000000000000, 0.0000000000000000000, 0.0000000000000000000, 0.0000000000000000000, 0.0000000000000000000 ) ;
#286 = LINE ( 'NONE', #194, #281 ) ;
#287 = AXIS2_PLACEMENT_3D ( 'NONE', #135, #59, #291 ) ;
#288 = CARTESIAN_POINT ( 'NONE',  ( -0.06249999999999997918, 0.0000000000000000000, 0.3572974241548214636 ) ) ;
#289 = AXIS2_PLACEMENT_3D ( 'NONE', #171, #180, #156 ) ;
#290 = EDGE_CURVE ( 'NONE', #190, #3, #115, .T. ) ;
#291 = DIRECTION ( 'NONE',  ( -1.000000000000000000, 0.0000000000000000000, 0.0000000000000000000 ) ) ;
#292 = DIRECTION ( 'NONE',  ( -0.0000000000000000000, -0.0000000000000000000, -1.000000000000000000 ) ) ;
#293 = CARTESIAN_POINT ( 'NONE',  ( -0.04750000000000064587, 0.0000000000000000000, 1.500000000000000222 ) ) ;
#294 = AXIS2_PLACEMENT_3D ( 'NONE', #62, #109, #19 ) ;
#295 = ADVANCED_FACE ( 'NONE', ( #86 ), #14, .T. ) ;
#296 = COLOUR_RGB ( '',0.7921568627450980005, 0.8196078431372548767, 0.9333333333333333481 ) ;
#297 = EDGE_LOOP ( 'NONE', ( #20, #258, #141, #248 ) ) ;
#298 = PRODUCT_DEFINITION_SHAPE ( 'NONE', 'NONE',  #132 ) ;
#299 = VERTEX_POINT ( 'NONE', #43 ) ;
ENDSEC;
END-ISO-10303-21;
