ISO-10303-21;
HEADER;
FILE_DESCRIPTION (( 'STEP AP214' ),
    '1' );
FILE_NAME ('Micro_DM-750-290X.STEP',
    '2021-09-02T16:11:55',
    ( '' ),
    ( '' ),
    'SwSTEP 2.0',
    'SolidWorks 2020',
    '' );
FILE_SCHEMA (( 'AUTOMOTIVE_DESIGN' ));
ENDSEC;

DATA;
#1 =( NAMED_UNIT ( * ) SI_UNIT ( $, .STERADIAN. ) SOLID_ANGLE_UNIT ( ) );
#2 = CARTESIAN_POINT ( 'NONE',  ( -0.3750000000000000555, 0.0000000000000000000, 4.000000000000000000 ) ) ;
#3 = VECTOR ( 'NONE', #131, 39.37007874015748143 ) ;
#4 = ORIENTED_EDGE ( 'NONE', *, *, #293, .F. ) ;
#5 = DIRECTION ( 'NONE',  ( -1.000000000000000000, 0.0000000000000000000, 0.0000000000000000000 ) ) ;
#6 = ADVANCED_FACE ( 'NONE', ( #274 ), #289, .T. ) ;
#7 = EDGE_CURVE ( 'NONE', #96, #209, #105, .T. ) ;
#8 = CARTESIAN_POINT ( 'NONE',  ( 0.3750000000000000555, 4.592425496802575451E-17, 3.984999999999998987 ) ) ;
#9 = ORIENTED_EDGE ( 'NONE', *, *, #57, .F. ) ;
#10 = VECTOR ( 'NONE', #271, 39.37007874015748143 ) ;
#11 = CARTESIAN_POINT ( 'NONE',  ( 0.3750000000000000555, 4.592425496802575451E-17, 1.499999999999999778 ) ) ;
#12 = CARTESIAN_POINT ( 'NONE',  ( 0.0000000000000000000, 0.0000000000000000000, 0.0000000000000000000 ) ) ;
#13 =( CONVERSION_BASED_UNIT ( 'INCH', #312 ) LENGTH_UNIT ( ) NAMED_UNIT ( #140 ) );
#14 = EDGE_LOOP ( 'NONE', ( #245, #69 ) ) ;
#15 = PRODUCT ( 'Micro_DM-750-290X', 'Micro_DM-750-290X', '', ( #89 ) ) ;
#16 = VERTEX_POINT ( 'NONE', #113 ) ;
#17 = VERTEX_POINT ( 'NONE', #212 ) ;
#18 = EDGE_CURVE ( 'NONE', #154, #242, #46, .T. ) ;
#19 = CONICAL_SURFACE ( 'NONE', #111, 0.007499999999999999722, 0.7853981633974502774 ) ;
#20 = DIRECTION ( 'NONE',  ( -0.0000000000000000000, -0.0000000000000000000, -1.000000000000000000 ) ) ;
#21 = CARTESIAN_POINT ( 'NONE',  ( 0.3750000000000000555, 4.592425496802575451E-17, 4.000000000000000000 ) ) ;
#22 = ORIENTED_EDGE ( 'NONE', *, *, #261, .T. ) ;
#23 =( GEOMETRIC_REPRESENTATION_CONTEXT ( 3 ) GLOBAL_UNCERTAINTY_ASSIGNED_CONTEXT ( ( #251 ) ) GLOBAL_UNIT_ASSIGNED_CONTEXT ( ( #31, #163, #1 ) ) REPRESENTATION_CONTEXT ( 'NONE', 'WORKASPACE' ) );
#24 = LINE ( 'NONE', #174, #10 ) ;
#25 = PRESENTATION_STYLE_ASSIGNMENT (( #78 ) ) ;
#26 = AXIS2_PLACEMENT_3D ( 'NONE', #53, #80, #58 ) ;
#27 = CARTESIAN_POINT ( 'NONE',  ( -0.3750000000000000555, 0.0000000000000000000, 3.984999999999998987 ) ) ;
#28 = ORIENTED_EDGE ( 'NONE', *, *, #65, .F. ) ;
#29 = ADVANCED_FACE ( 'NONE', ( #127 ), #327, .T. ) ;
#30 = CYLINDRICAL_SURFACE ( 'NONE', #137, 0.3749500000000001165 ) ;
#31 =( CONVERSION_BASED_UNIT ( 'INCH', #255 ) LENGTH_UNIT ( ) NAMED_UNIT ( #88 ) );
#32 =( GEOMETRIC_REPRESENTATION_CONTEXT ( 3 ) GLOBAL_UNCERTAINTY_ASSIGNED_CONTEXT ( ( #283 ) ) GLOBAL_UNIT_ASSIGNED_CONTEXT ( ( #187, #138, #216 ) ) REPRESENTATION_CONTEXT ( 'NONE', 'WORKASPACE' ) );
#33 = FILL_AREA_STYLE_COLOUR ( '', #311 ) ;
#34 = AXIS2_PLACEMENT_3D ( 'NONE', #205, #79, #276 ) ;
#35 = DIRECTION ( 'NONE',  ( 0.0000000000000000000, 0.0000000000000000000, 1.000000000000000000 ) ) ;
#36 = DIRECTION ( 'NONE',  ( 1.000000000000000000, 0.0000000000000000000, 0.0000000000000000000 ) ) ;
#37 = SURFACE_SIDE_STYLE ('',( #211 ) ) ;
#38 = ORIENTED_EDGE ( 'NONE', *, *, #149, .F. ) ;
#39 = CIRCLE ( 'NONE', #100, 0.3750000000000000555 ) ;
#40 = PRODUCT_DEFINITION ( 'UNKNOWN', '', #224, #210 ) ;
#41 =( NAMED_UNIT ( * ) SI_UNIT ( $, .STERADIAN. ) SOLID_ANGLE_UNIT ( ) );
#42 = ORIENTED_EDGE ( 'NONE', *, *, #324, .T. ) ;
#43 = ORIENTED_EDGE ( 'NONE', *, *, #217, .T. ) ;
#44 = STYLED_ITEM ( 'NONE', ( #25 ), #323 ) ;
#45 = ORIENTED_EDGE ( 'NONE', *, *, #77, .T. ) ;
#46 = CIRCLE ( 'NONE', #227, 0.3749500000000000610 ) ;
#47 = AXIS2_PLACEMENT_3D ( 'NONE', #203, #308, #81 ) ;
#48 = DIRECTION ( 'NONE',  ( -1.000000000000000000, 0.0000000000000000000, 0.0000000000000000000 ) ) ;
#49 = CARTESIAN_POINT ( 'NONE',  ( 0.3749500000000001720, 4.591813173403003194E-17, 1.500000000000000222 ) ) ;
#50 = PRESENTATION_LAYER_ASSIGNMENT (  '', '', ( #152 ) ) ;
#51 = CARTESIAN_POINT ( 'NONE',  ( 0.3749500000000001165, 4.591813173403002577E-17, 0.0000000000000000000 ) ) ;
#52 = CARTESIAN_POINT ( 'NONE',  ( 0.007499999999999999722, 0.0000000000000000000, 1.707404996040164512E-17 ) ) ;
#53 = CARTESIAN_POINT ( 'NONE',  ( 0.0000000000000000000, 0.0000000000000000000, 4.000000000000000000 ) ) ;
#54 = CIRCLE ( 'NONE', #319, 0.3749500000000000610 ) ;
#55 = DIRECTION ( 'NONE',  ( 1.000000000000000000, 0.0000000000000000000, 0.0000000000000000000 ) ) ;
#56 = CARTESIAN_POINT ( 'NONE',  ( 0.007499999999999999722, 0.0000000000000000000, 1.707404996040164512E-17 ) ) ;
#57 = EDGE_CURVE ( 'NONE', #17, #154, #248, .T. ) ;
#58 = DIRECTION ( 'NONE',  ( -1.000000000000000000, 0.0000000000000000000, 0.0000000000000000000 ) ) ;
#59 = CARTESIAN_POINT ( 'NONE',  ( 0.0000000000000000000, 0.0000000000000000000, 4.000000000000000000 ) ) ;
#60 = DIRECTION ( 'NONE',  ( -1.000000000000000000, 0.0000000000000000000, 0.0000000000000000000 ) ) ;
#61 = CIRCLE ( 'NONE', #317, 0.3599999999999994316 ) ;
#62 = DIRECTION ( 'NONE',  ( -1.000000000000000000, 0.0000000000000000000, 0.0000000000000000000 ) ) ;
#63 = PLANE ( 'NONE',  #232 ) ;
#64 = DIRECTION ( 'NONE',  ( 0.0000000000000000000, 0.0000000000000000000, -1.000000000000000000 ) ) ;
#65 = EDGE_CURVE ( 'NONE', #209, #96, #39, .T. ) ;
#66 = DIRECTION ( 'NONE',  ( -1.000000000000000000, 0.0000000000000000000, 0.0000000000000000000 ) ) ;
#67 = ORIENTED_EDGE ( 'NONE', *, *, #181, .F. ) ;
#68 = VECTOR ( 'NONE', #130, 39.37007874015748143 ) ;
#69 = ORIENTED_EDGE ( 'NONE', *, *, #141, .T. ) ;
#70 = EDGE_LOOP ( 'NONE', ( #67, #156, #146, #144 ) ) ;
#71 = DIRECTION ( 'NONE',  ( 0.7071067811865489050, 0.0000000000000000000, 0.7071067811865461294 ) ) ;
#72 = ADVANCED_FACE ( 'NONE', ( #328 ), #301, .T. ) ;
#73 = AXIS2_PLACEMENT_3D ( 'NONE', #90, #64, #60 ) ;
#74 = LINE ( 'NONE', #51, #3 ) ;
#75 = AXIS2_PLACEMENT_3D ( 'NONE', #108, #247, #157 ) ;
#76 = CARTESIAN_POINT ( 'NONE',  ( 0.0000000000000000000, 0.0000000000000000000, 4.000000000000000000 ) ) ;
#77 = EDGE_CURVE ( 'NONE', #16, #309, #290, .T. ) ;
#78 = SURFACE_STYLE_USAGE ( .BOTH. , #229 ) ;
#79 = DIRECTION ( 'NONE',  ( -0.0000000000000000000, -0.0000000000000000000, -1.000000000000000000 ) ) ;
#80 = DIRECTION ( 'NONE',  ( 0.0000000000000000000, 0.0000000000000000000, -1.000000000000000000 ) ) ;
#81 = DIRECTION ( 'NONE',  ( -1.000000000000000000, 0.0000000000000000000, 0.0000000000000000000 ) ) ;
#82 = CIRCLE ( 'NONE', #47, 0.007499999999999999722 ) ;
#83 = SURFACE_STYLE_USAGE ( .BOTH. , #37 ) ;
#84 = ORIENTED_EDGE ( 'NONE', *, *, #261, .F. ) ;
#85 = DIRECTION ( 'NONE',  ( 0.0000000000000000000, 0.0000000000000000000, 1.000000000000000000 ) ) ;
#86 = DIRECTION ( 'NONE',  ( -0.0000000000000000000, -0.0000000000000000000, -1.000000000000000000 ) ) ;
#87 = FACE_BOUND ( 'NONE', #148, .T. ) ;
#88 = DIMENSIONAL_EXPONENTS ( 1.000000000000000000, 0.0000000000000000000, 0.0000000000000000000, 0.0000000000000000000, 0.0000000000000000000, 0.0000000000000000000, 0.0000000000000000000 ) ;
#89 = PRODUCT_CONTEXT ( 'NONE', #278, 'mechanical' ) ;
#90 = CARTESIAN_POINT ( 'NONE',  ( 0.0000000000000000000, 0.0000000000000000000, 4.000000000000000000 ) ) ;
#91 = CIRCLE ( 'NONE', #143, 0.3750000000000000555 ) ;
#92 = EDGE_CURVE ( 'NONE', #96, #298, #273, .T. ) ;
#93 = FACE_OUTER_BOUND ( 'NONE', #244, .T. ) ;
#94 = EDGE_CURVE ( 'NONE', #16, #154, #24, .T. ) ;
#95 = APPLICATION_PROTOCOL_DEFINITION ( 'draft international standard', 'automotive_design', 1998, #264 ) ;
#96 = VERTEX_POINT ( 'NONE', #27 ) ;
#97 = AXIS2_PLACEMENT_3D ( 'NONE', #59, #226, #48 ) ;
#98 = EDGE_LOOP ( 'NONE', ( #124, #234, #22, #28 ) ) ;
#99 = EDGE_LOOP ( 'NONE', ( #263, #265, #306, #195 ) ) ;
#100 = AXIS2_PLACEMENT_3D ( 'NONE', #177, #151, #160 ) ;
#101 = CYLINDRICAL_SURFACE ( 'NONE', #321, 0.3750000000000000555 ) ;
#102 = EDGE_CURVE ( 'NONE', #298, #266, #199, .T. ) ;
#103 = CIRCLE ( 'NONE', #117, 0.3599999999999994316 ) ;
#104 = CARTESIAN_POINT ( 'NONE',  ( 0.0000000000000000000, 0.0000000000000000000, 1.707404996040164512E-17 ) ) ;
#105 = CIRCLE ( 'NONE', #188, 0.3750000000000000555 ) ;
#106 = VECTOR ( 'NONE', #71, 39.37007874015748143 ) ;
#107 = DIRECTION ( 'NONE',  ( -0.0000000000000000000, -0.0000000000000000000, -1.000000000000000000 ) ) ;
#108 = CARTESIAN_POINT ( 'NONE',  ( 0.0000000000000000000, 0.0000000000000000000, 1.500000000000000222 ) ) ;
#109 = SURFACE_STYLE_FILL_AREA ( #230 ) ;
#110 = DIRECTION ( 'NONE',  ( -0.0000000000000000000, -0.0000000000000000000, -1.000000000000000000 ) ) ;
#111 = AXIS2_PLACEMENT_3D ( 'NONE', #183, #316, #36 ) ;
#112 = PLANE ( 'NONE',  #326 ) ;
#113 = CARTESIAN_POINT ( 'NONE',  ( -0.3749500000000001720, 0.0000000000000000000, 1.500000000000000222 ) ) ;
#114 = DIRECTION ( 'NONE',  ( 1.000000000000000000, 0.0000000000000000000, 0.0000000000000000000 ) ) ;
#115 = CARTESIAN_POINT ( 'NONE',  ( 0.0000000000000000000, 0.0000000000000000000, 0.0000000000000000000 ) ) ;
#116 = FILL_AREA_STYLE ('',( #33 ) ) ;
#117 = AXIS2_PLACEMENT_3D ( 'NONE', #136, #85, #114 ) ;
#118 = DIRECTION ( 'NONE',  ( -0.0000000000000000000, -0.0000000000000000000, -1.000000000000000000 ) ) ;
#119 = AXIS2_PLACEMENT_3D ( 'NONE', #280, #305, #200 ) ;
#120 = EDGE_LOOP ( 'NONE', ( #9, #170, #253, #249 ) ) ;
#121 = AXIS2_PLACEMENT_3D ( 'NONE', #115, #35, #214 ) ;
#122 = EDGE_LOOP ( 'NONE', ( #45, #241, #162, #197 ) ) ;
#123 = ORIENTED_EDGE ( 'NONE', *, *, #7, .F. ) ;
#124 = ORIENTED_EDGE ( 'NONE', *, *, #325, .F. ) ;
#125 =( GEOMETRIC_REPRESENTATION_CONTEXT ( 3 ) GLOBAL_UNCERTAINTY_ASSIGNED_CONTEXT ( ( #318 ) ) GLOBAL_UNIT_ASSIGNED_CONTEXT ( ( #13, #168, #41 ) ) REPRESENTATION_CONTEXT ( 'NONE', 'WORKASPACE' ) );
#126 = CARTESIAN_POINT ( 'NONE',  ( 0.3599999999999994316, 4.500576986866520466E-17, 4.000000000000000000 ) ) ;
#127 = FACE_OUTER_BOUND ( 'NONE', #198, .T. ) ;
#128 = VERTEX_POINT ( 'NONE', #153 ) ;
#129 = CARTESIAN_POINT ( 'NONE',  ( 0.0000000000000000000, 0.0000000000000000000, 4.000000000000000000 ) ) ;
#130 = DIRECTION ( 'NONE',  ( -0.0000000000000000000, -0.0000000000000000000, -1.000000000000000000 ) ) ;
#131 = DIRECTION ( 'NONE',  ( -0.0000000000000000000, -0.0000000000000000000, -1.000000000000000000 ) ) ;
#132 = CARTESIAN_POINT ( 'NONE',  ( 0.0000000000000000000, 0.0000000000000000000, 0.0000000000000000000 ) ) ;
#133 = MECHANICAL_DESIGN_GEOMETRIC_PRESENTATION_REPRESENTATION (  '', ( #152 ), #32 ) ;
#134 = LINE ( 'NONE', #303, #186 ) ;
#135 = EDGE_CURVE ( 'NONE', #206, #242, #180, .T. ) ;
#136 = CARTESIAN_POINT ( 'NONE',  ( 0.0000000000000000000, 0.0000000000000000000, 4.000000000000000000 ) ) ;
#137 = AXIS2_PLACEMENT_3D ( 'NONE', #132, #270, #231 ) ;
#138 =( NAMED_UNIT ( * ) PLANE_ANGLE_UNIT ( ) SI_UNIT ( $, .RADIAN. ) );
#139 = DIRECTION ( 'NONE',  ( 0.0000000000000000000, 0.0000000000000000000, 1.000000000000000000 ) ) ;
#140 = DIMENSIONAL_EXPONENTS ( 1.000000000000000000, 0.0000000000000000000, 0.0000000000000000000, 0.0000000000000000000, 0.0000000000000000000, 0.0000000000000000000, 0.0000000000000000000 ) ;
#141 = EDGE_CURVE ( 'NONE', #17, #206, #169, .T. ) ;
#142 = DIRECTION ( 'NONE',  ( -0.7071067811865426878, 0.0000000000000000000, -0.7071067811865523467 ) ) ;
#143 = AXIS2_PLACEMENT_3D ( 'NONE', #260, #110, #166 ) ;
#144 = ORIENTED_EDGE ( 'NONE', *, *, #217, .F. ) ;
#145 = AXIS2_PLACEMENT_3D ( 'NONE', #167, #118, #66 ) ;
#146 = ORIENTED_EDGE ( 'NONE', *, *, #92, .T. ) ;
#147 = AXIS2_PLACEMENT_3D ( 'NONE', #104, #20, #252 ) ;
#148 = EDGE_LOOP ( 'NONE', ( #191, #4 ) ) ;
#149 = EDGE_CURVE ( 'NONE', #309, #242, #74, .T. ) ;
#150 = VECTOR ( 'NONE', #142, 39.37007874015748143 ) ;
#151 = DIRECTION ( 'NONE',  ( 0.0000000000000000000, 0.0000000000000000000, -1.000000000000000000 ) ) ;
#152 = STYLED_ITEM ( 'NONE', ( #292 ), #233 ) ;
#153 = CARTESIAN_POINT ( 'NONE',  ( -0.3599999999999994316, 0.0000000000000000000, 4.000000000000000000 ) ) ;
#154 = VERTEX_POINT ( 'NONE', #208 ) ;
#155 = FACE_OUTER_BOUND ( 'NONE', #99, .T. ) ;
#156 = ORIENTED_EDGE ( 'NONE', *, *, #65, .T. ) ;
#157 = DIRECTION ( 'NONE',  ( -1.000000000000000000, 0.0000000000000000000, 0.0000000000000000000 ) ) ;
#158 = CARTESIAN_POINT ( 'NONE',  ( 0.0000000000000000000, 0.0000000000000000000, 3.984999999999998987 ) ) ;
#159 = APPLICATION_PROTOCOL_DEFINITION ( 'draft international standard', 'automotive_design', 1998, #278 ) ;
#160 = DIRECTION ( 'NONE',  ( 1.000000000000000000, 0.0000000000000000000, 0.0000000000000000000 ) ) ;
#161 = EDGE_CURVE ( 'NONE', #206, #17, #82, .T. ) ;
#162 = ORIENTED_EDGE ( 'NONE', *, *, #18, .F. ) ;
#163 =( NAMED_UNIT ( * ) PLANE_ANGLE_UNIT ( ) SI_UNIT ( $, .RADIAN. ) );
#164 = CARTESIAN_POINT ( 'NONE',  ( 0.3749500000000000610, 0.0000000000000000000, 0.3674499999999986111 ) ) ;
#165 = FACE_OUTER_BOUND ( 'NONE', #281, .T. ) ;
#166 = DIRECTION ( 'NONE',  ( -1.000000000000000000, 0.0000000000000000000, 0.0000000000000000000 ) ) ;
#167 = CARTESIAN_POINT ( 'NONE',  ( 0.0000000000000000000, 0.0000000000000000000, 1.500000000000000222 ) ) ;
#168 =( NAMED_UNIT ( * ) PLANE_ANGLE_UNIT ( ) SI_UNIT ( $, .RADIAN. ) );
#169 = CIRCLE ( 'NONE', #147, 0.007499999999999999722 ) ;
#170 = ORIENTED_EDGE ( 'NONE', *, *, #161, .F. ) ;
#171 = ADVANCED_FACE ( 'NONE', ( #304 ), #30, .T. ) ;
#172 = ORIENTED_EDGE ( 'NONE', *, *, #238, .T. ) ;
#173 = CLOSED_SHELL ( 'NONE', ( #171, #207, #6, #72, #192, #29, #239, #267, #228, #268, #222 ) ) ;
#174 = CARTESIAN_POINT ( 'NONE',  ( -0.3749500000000001165, 0.0000000000000000000, 0.0000000000000000000 ) ) ;
#175 = LINE ( 'NONE', #21, #68 ) ;
#176 = DIRECTION ( 'NONE',  ( -1.000000000000000000, 0.0000000000000000000, 0.0000000000000000000 ) ) ;
#177 = CARTESIAN_POINT ( 'NONE',  ( 0.0000000000000000000, 0.0000000000000000000, 3.984999999999998987 ) ) ;
#178 = VERTEX_POINT ( 'NONE', #126 ) ;
#179 = FILL_AREA_STYLE_COLOUR ( '', #269 ) ;
#180 = LINE ( 'NONE', #56, #106 ) ;
#181 = EDGE_CURVE ( 'NONE', #209, #266, #175, .T. ) ;
#182 =( LENGTH_UNIT ( ) NAMED_UNIT ( * ) SI_UNIT ( $, .METRE. ) );
#183 = CARTESIAN_POINT ( 'NONE',  ( 0.0000000000000000000, 0.0000000000000000000, 1.707404996040164512E-17 ) ) ;
#184 = DIRECTION ( 'NONE',  ( 1.000000000000000000, 0.0000000000000000000, 0.0000000000000000000 ) ) ;
#185 = DIRECTION ( 'NONE',  ( 0.0000000000000000000, 0.0000000000000000000, -1.000000000000000000 ) ) ;
#186 = VECTOR ( 'NONE', #225, 39.37007874015748143 ) ;
#187 =( CONVERSION_BASED_UNIT ( 'INCH', #259 ) LENGTH_UNIT ( ) NAMED_UNIT ( #314 ) );
#188 = AXIS2_PLACEMENT_3D ( 'NONE', #158, #185, #315 ) ;
#189 = CARTESIAN_POINT ( 'NONE',  ( 0.3749500000000001720, 0.0000000000000000000, 1.500000000000000222 ) ) ;
#190 = CARTESIAN_POINT ( 'NONE',  ( 0.0000000000000000000, 0.0000000000000000000, 0.0000000000000000000 ) ) ;
#191 = ORIENTED_EDGE ( 'NONE', *, *, #77, .F. ) ;
#192 = ADVANCED_FACE ( 'NONE', ( #221 ), #101, .T. ) ;
#193 = SHAPE_DEFINITION_REPRESENTATION ( #240, #323 ) ;
#194 = AXIS2_PLACEMENT_3D ( 'NONE', #215, #256, #184 ) ;
#195 = ORIENTED_EDGE ( 'NONE', *, *, #135, .F. ) ;
#196 = PRODUCT_RELATED_PRODUCT_CATEGORY ( 'part', '', ( #15 ) ) ;
#197 = ORIENTED_EDGE ( 'NONE', *, *, #94, .F. ) ;
#198 = EDGE_LOOP ( 'NONE', ( #172, #42 ) ) ;
#199 = CIRCLE ( 'NONE', #34, 0.3750000000000000555 ) ;
#200 = DIRECTION ( 'NONE',  ( 1.000000000000000000, 0.0000000000000000000, -0.0000000000000000000 ) ) ;
#201 = CARTESIAN_POINT ( 'NONE',  ( -0.007499999999999999722, 9.184850993605147975E-19, 1.707404996040164512E-17 ) ) ;
#202 = ORIENTED_EDGE ( 'NONE', *, *, #325, .T. ) ;
#203 = CARTESIAN_POINT ( 'NONE',  ( 0.0000000000000000000, 0.0000000000000000000, 1.707404996040164512E-17 ) ) ;
#204 = ORIENTED_EDGE ( 'NONE', *, *, #181, .T. ) ;
#205 = CARTESIAN_POINT ( 'NONE',  ( 0.0000000000000000000, 0.0000000000000000000, 1.499999999999999778 ) ) ;
#206 = VERTEX_POINT ( 'NONE', #52 ) ;
#207 = ADVANCED_FACE ( 'NONE', ( #155 ), #282, .T. ) ;
#208 = CARTESIAN_POINT ( 'NONE',  ( -0.3749500000000000610, 4.591813173403001961E-17, 0.3674499999999986111 ) ) ;
#209 = VERTEX_POINT ( 'NONE', #8 ) ;
#210 = PRODUCT_DEFINITION_CONTEXT ( 'detailed design', #264, 'design' ) ;
#211 = SURFACE_STYLE_FILL_AREA ( #116 ) ;
#212 = CARTESIAN_POINT ( 'NONE',  ( -0.007499999999999999722, 2.341830841669527240E-17, 1.707404996040164512E-17 ) ) ;
#213 = LINE ( 'NONE', #258, #150 ) ;
#214 = DIRECTION ( 'NONE',  ( 1.000000000000000000, 0.0000000000000000000, 0.0000000000000000000 ) ) ;
#215 = CARTESIAN_POINT ( 'NONE',  ( 0.0000000000000000000, 0.0000000000000000000, 1.707404996040164512E-17 ) ) ;
#216 =( NAMED_UNIT ( * ) SI_UNIT ( $, .STERADIAN. ) SOLID_ANGLE_UNIT ( ) );
#217 = EDGE_CURVE ( 'NONE', #266, #298, #91, .T. ) ;
#218 = MECHANICAL_DESIGN_GEOMETRIC_PRESENTATION_REPRESENTATION (  '', ( #44 ), #125 ) ;
#219 = ORIENTED_EDGE ( 'NONE', *, *, #102, .F. ) ;
#220 = ORIENTED_EDGE ( 'NONE', *, *, #102, .T. ) ;
#221 = FACE_OUTER_BOUND ( 'NONE', #70, .T. ) ;
#222 = ADVANCED_FACE ( 'NONE', ( #262 ), #112, .F. ) ;
#223 = DIRECTION ( 'NONE',  ( -0.7071067811865489050, 8.659560562354950115E-17, 0.7071067811865461294 ) ) ;
#224 = PRODUCT_DEFINITION_FORMATION_WITH_SPECIFIED_SOURCE ( 'ANY', '', #15, .NOT_KNOWN. ) ;
#225 = DIRECTION ( 'NONE',  ( 0.7071067811865426878, 8.659560562354873694E-17, -0.7071067811865523467 ) ) ;
#226 = DIRECTION ( 'NONE',  ( -0.0000000000000000000, -0.0000000000000000000, -1.000000000000000000 ) ) ;
#227 = AXIS2_PLACEMENT_3D ( 'NONE', #286, #86, #5 ) ;
#228 = ADVANCED_FACE ( 'NONE', ( #310 ), #19, .T. ) ;
#229 = SURFACE_SIDE_STYLE ('',( #109 ) ) ;
#230 = FILL_AREA_STYLE ('',( #179 ) ) ;
#231 = DIRECTION ( 'NONE',  ( -1.000000000000000000, 0.0000000000000000000, 0.0000000000000000000 ) ) ;
#232 = AXIS2_PLACEMENT_3D ( 'NONE', #189, #288, #62 ) ;
#233 = MANIFOLD_SOLID_BREP ( 'Cut-Revolve4', #173 ) ;
#234 = ORIENTED_EDGE ( 'NONE', *, *, #238, .F. ) ;
#235 = VECTOR ( 'NONE', #223, 39.37007874015748143 ) ;
#236 = DIRECTION ( 'NONE',  ( -0.0000000000000000000, -0.0000000000000000000, -1.000000000000000000 ) ) ;
#237 = DIRECTION ( 'NONE',  ( -1.000000000000000000, 0.0000000000000000000, 0.0000000000000000000 ) ) ;
#238 = EDGE_CURVE ( 'NONE', #128, #178, #103, .T. ) ;
#239 = ADVANCED_FACE ( 'NONE', ( #285 ), #297, .T. ) ;
#240 = PRODUCT_DEFINITION_SHAPE ( 'NONE', 'NONE',  #40 ) ;
#241 = ORIENTED_EDGE ( 'NONE', *, *, #149, .T. ) ;
#242 = VERTEX_POINT ( 'NONE', #164 ) ;
#243 = VECTOR ( 'NONE', #107, 39.37007874015748143 ) ;
#244 = EDGE_LOOP ( 'NONE', ( #220, #43 ) ) ;
#245 = ORIENTED_EDGE ( 'NONE', *, *, #161, .T. ) ;
#246 = CIRCLE ( 'NONE', #145, 0.3749500000000001720 ) ;
#247 = DIRECTION ( 'NONE',  ( -0.0000000000000000000, -0.0000000000000000000, -1.000000000000000000 ) ) ;
#248 = LINE ( 'NONE', #201, #235 ) ;
#249 = ORIENTED_EDGE ( 'NONE', *, *, #300, .T. ) ;
#250 = DIRECTION ( 'NONE',  ( -0.0000000000000000000, -0.0000000000000000000, -1.000000000000000000 ) ) ;
#251 = UNCERTAINTY_MEASURE_WITH_UNIT (LENGTH_MEASURE( 1.000000000000000082E-05 ), #31, 'distance_accuracy_value', 'NONE');
#252 = DIRECTION ( 'NONE',  ( -1.000000000000000000, 0.0000000000000000000, 0.0000000000000000000 ) ) ;
#253 = ORIENTED_EDGE ( 'NONE', *, *, #135, .T. ) ;
#254 = DIRECTION ( 'NONE',  ( -1.000000000000000000, 0.0000000000000000000, 0.0000000000000000000 ) ) ;
#255 = LENGTH_MEASURE_WITH_UNIT ( LENGTH_MEASURE( 0.02539999999999999897 ), #182 );
#256 = DIRECTION ( 'NONE',  ( 0.0000000000000000000, 0.0000000000000000000, 1.000000000000000000 ) ) ;
#257 = PRESENTATION_LAYER_ASSIGNMENT (  '', '', ( #44 ) ) ;
#258 = CARTESIAN_POINT ( 'NONE',  ( -0.3599999999999994316, 0.0000000000000000000, 4.000000000000000000 ) ) ;
#259 = LENGTH_MEASURE_WITH_UNIT ( LENGTH_MEASURE( 0.02539999999999999897 ), #313 );
#260 = CARTESIAN_POINT ( 'NONE',  ( 0.0000000000000000000, 0.0000000000000000000, 1.499999999999999778 ) ) ;
#261 = EDGE_CURVE ( 'NONE', #128, #96, #213, .T. ) ;
#262 = FACE_OUTER_BOUND ( 'NONE', #14, .T. ) ;
#263 = ORIENTED_EDGE ( 'NONE', *, *, #141, .F. ) ;
#264 = APPLICATION_CONTEXT ( 'automotive_design' ) ;
#265 = ORIENTED_EDGE ( 'NONE', *, *, #57, .T. ) ;
#266 = VERTEX_POINT ( 'NONE', #11 ) ;
#267 = ADVANCED_FACE ( 'NONE', ( #87, #93 ), #63, .T. ) ;
#268 = ADVANCED_FACE ( 'NONE', ( #165 ), #294, .T. ) ;
#269 = COLOUR_RGB ( '',0.7921568627450980005, 0.8196078431372548767, 0.9333333333333333481 ) ;
#270 = DIRECTION ( 'NONE',  ( -0.0000000000000000000, -0.0000000000000000000, -1.000000000000000000 ) ) ;
#271 = DIRECTION ( 'NONE',  ( -0.0000000000000000000, -0.0000000000000000000, -1.000000000000000000 ) ) ;
#272 = ORIENTED_EDGE ( 'NONE', *, *, #7, .T. ) ;
#273 = LINE ( 'NONE', #2, #243 ) ;
#274 = FACE_OUTER_BOUND ( 'NONE', #295, .T. ) ;
#275 = DIRECTION ( 'NONE',  ( 0.0000000000000000000, 0.0000000000000000000, 1.000000000000000000 ) ) ;
#276 = DIRECTION ( 'NONE',  ( -1.000000000000000000, 0.0000000000000000000, 0.0000000000000000000 ) ) ;
#277 = ORIENTED_EDGE ( 'NONE', *, *, #293, .T. ) ;
#278 = APPLICATION_CONTEXT ( 'automotive_design' ) ;
#279 =( LENGTH_UNIT ( ) NAMED_UNIT ( * ) SI_UNIT ( $, .METRE. ) );
#280 = CARTESIAN_POINT ( 'NONE',  ( 0.0000000000000000000, 0.0000000000000000000, 4.000000000000000000 ) ) ;
#281 = EDGE_LOOP ( 'NONE', ( #38, #277, #302, #329 ) ) ;
#282 = CONICAL_SURFACE ( 'NONE', #194, 0.007499999999999999722, 0.7853981633974502774 ) ;
#283 = UNCERTAINTY_MEASURE_WITH_UNIT (LENGTH_MEASURE( 1.000000000000000082E-05 ), #187, 'distance_accuracy_value', 'NONE');
#284 = DIRECTION ( 'NONE',  ( 1.000000000000000000, 0.0000000000000000000, -0.0000000000000000000 ) ) ;
#285 = FACE_OUTER_BOUND ( 'NONE', #98, .T. ) ;
#286 = CARTESIAN_POINT ( 'NONE',  ( 0.0000000000000000000, 0.0000000000000000000, 0.3674499999999986111 ) ) ;
#287 = AXIS2_PLACEMENT_3D ( 'NONE', #12, #236, #237 ) ;
#288 = DIRECTION ( 'NONE',  ( -0.0000000000000000000, 0.0000000000000000000, -1.000000000000000000 ) ) ;
#289 = CONICAL_SURFACE ( 'NONE', #26, 0.3599999999999994316, 0.7853981633974415066 ) ;
#290 = CIRCLE ( 'NONE', #75, 0.3749500000000001720 ) ;
#291 = DIRECTION ( 'NONE',  ( -0.0000000000000000000, -0.0000000000000000000, -1.000000000000000000 ) ) ;
#292 = PRESENTATION_STYLE_ASSIGNMENT (( #83 ) ) ;
#293 = EDGE_CURVE ( 'NONE', #309, #16, #246, .T. ) ;
#294 = CYLINDRICAL_SURFACE ( 'NONE', #287, 0.3749500000000001165 ) ;
#295 = EDGE_LOOP ( 'NONE', ( #299, #202, #123, #84 ) ) ;
#296 = ORIENTED_EDGE ( 'NONE', *, *, #92, .F. ) ;
#297 = CONICAL_SURFACE ( 'NONE', #73, 0.3599999999999994316, 0.7853981633974415066 ) ;
#298 = VERTEX_POINT ( 'NONE', #322 ) ;
#299 = ORIENTED_EDGE ( 'NONE', *, *, #324, .F. ) ;
#300 = EDGE_CURVE ( 'NONE', #242, #154, #54, .T. ) ;
#301 = CYLINDRICAL_SURFACE ( 'NONE', #97, 0.3750000000000000555 ) ;
#302 = ORIENTED_EDGE ( 'NONE', *, *, #94, .T. ) ;
#303 = CARTESIAN_POINT ( 'NONE',  ( 0.3599999999999994316, 4.408728476930464865E-17, 4.000000000000000000 ) ) ;
#304 = FACE_OUTER_BOUND ( 'NONE', #122, .T. ) ;
#305 = DIRECTION ( 'NONE',  ( 0.0000000000000000000, 0.0000000000000000000, 1.000000000000000000 ) ) ;
#306 = ORIENTED_EDGE ( 'NONE', *, *, #18, .T. ) ;
#307 = CARTESIAN_POINT ( 'NONE',  ( 0.0000000000000000000, 0.0000000000000000000, 0.3674499999999986111 ) ) ;
#308 = DIRECTION ( 'NONE',  ( -0.0000000000000000000, -0.0000000000000000000, -1.000000000000000000 ) ) ;
#309 = VERTEX_POINT ( 'NONE', #49 ) ;
#310 = FACE_OUTER_BOUND ( 'NONE', #120, .T. ) ;
#311 = COLOUR_RGB ( '',0.7921568627450980005, 0.8196078431372548767, 0.9333333333333333481 ) ;
#312 = LENGTH_MEASURE_WITH_UNIT ( LENGTH_MEASURE( 0.02539999999999999897 ), #279 );
#313 =( LENGTH_UNIT ( ) NAMED_UNIT ( * ) SI_UNIT ( $, .METRE. ) );
#314 = DIMENSIONAL_EXPONENTS ( 1.000000000000000000, 0.0000000000000000000, 0.0000000000000000000, 0.0000000000000000000, 0.0000000000000000000, 0.0000000000000000000, 0.0000000000000000000 ) ;
#315 = DIRECTION ( 'NONE',  ( 1.000000000000000000, 0.0000000000000000000, 0.0000000000000000000 ) ) ;
#316 = DIRECTION ( 'NONE',  ( 0.0000000000000000000, 0.0000000000000000000, 1.000000000000000000 ) ) ;
#317 = AXIS2_PLACEMENT_3D ( 'NONE', #129, #275, #55 ) ;
#318 = UNCERTAINTY_MEASURE_WITH_UNIT (LENGTH_MEASURE( 1.000000000000000082E-05 ), #13, 'distance_accuracy_value', 'NONE');
#319 = AXIS2_PLACEMENT_3D ( 'NONE', #307, #291, #254 ) ;
#320 = EDGE_LOOP ( 'NONE', ( #272, #204, #219, #296 ) ) ;
#321 = AXIS2_PLACEMENT_3D ( 'NONE', #76, #250, #176 ) ;
#322 = CARTESIAN_POINT ( 'NONE',  ( -0.3750000000000000555, 0.0000000000000000000, 1.499999999999999778 ) ) ;
#323 = ADVANCED_BREP_SHAPE_REPRESENTATION ( 'Micro_DM-750-290X', ( #233, #121 ), #23 ) ;
#324 = EDGE_CURVE ( 'NONE', #178, #128, #61, .T. ) ;
#325 = EDGE_CURVE ( 'NONE', #178, #209, #134, .T. ) ;
#326 = AXIS2_PLACEMENT_3D ( 'NONE', #190, #139, #284 ) ;
#327 = PLANE ( 'NONE',  #119 ) ;
#328 = FACE_OUTER_BOUND ( 'NONE', #320, .T. ) ;
#329 = ORIENTED_EDGE ( 'NONE', *, *, #300, .F. ) ;
ENDSEC;
END-ISO-10303-21;
