ISO-10303-21;
HEADER;
FILE_DESCRIPTION (( 'STEP AP214' ),
    '1' );
FILE_NAME ('Micro_RNCM-040-2X.STEP',
    '2021-09-03T17:40:40',
    ( '' ),
    ( '' ),
    'SwSTEP 2.0',
    'SolidWorks 2020',
    '' );
FILE_SCHEMA (( 'AUTOMOTIVE_DESIGN' ));
ENDSEC;

DATA;
#1 = CARTESIAN_POINT ( 'NONE',  ( -0.003936999999999995191, -5.062506170655285717E-18, 1.968503999999999809 ) ) ;
#2 = APPLICATION_PROTOCOL_DEFINITION ( 'draft international standard', 'automotive_design', 1998, #80 ) ;
#3 = ORIENTED_EDGE ( 'NONE', *, *, #139, .T. ) ;
#4 = ORIENTED_EDGE ( 'NONE', *, *, #238, .F. ) ;
#5 = VECTOR ( 'NONE', #243, 39.37007874015748143 ) ;
#6 = CLOSED_SHELL ( 'NONE', ( #176, #163, #150, #140, #105, #49, #22, #44 ) ) ;
#7 = PRESENTATION_STYLE_ASSIGNMENT (( #19 ) ) ;
#8 = ORIENTED_EDGE ( 'NONE', *, *, #93, .F. ) ;
#9 = DIRECTION ( 'NONE',  ( 0.0000000000000000000, 0.0000000000000000000, 1.000000000000000000 ) ) ;
#10 = AXIS2_PLACEMENT_3D ( 'NONE', #14, #164, #123 ) ;
#11 = CARTESIAN_POINT ( 'NONE',  ( 0.0000000000000000000, 0.0000000000000000000, 0.0000000000000000000 ) ) ;
#12 =( LENGTH_UNIT ( ) NAMED_UNIT ( * ) SI_UNIT ( $, .METRE. ) );
#13 = PRESENTATION_LAYER_ASSIGNMENT (  '', '', ( #82 ) ) ;
#14 = CARTESIAN_POINT ( 'NONE',  ( 0.0000000000000000000, 0.0000000000000000000, 0.0000000000000000000 ) ) ;
#15 =( NAMED_UNIT ( * ) SI_UNIT ( $, .STERADIAN. ) SOLID_ANGLE_UNIT ( ) );
#16 =( NAMED_UNIT ( * ) PLANE_ANGLE_UNIT ( ) SI_UNIT ( $, .RADIAN. ) );
#17 = AXIS2_PLACEMENT_3D ( 'NONE', #135, #101, #215 ) ;
#18 = CARTESIAN_POINT ( 'NONE',  ( 0.0000000000000000000, 0.0000000000000000000, 1.968503999999999809 ) ) ;
#19 = SURFACE_STYLE_USAGE ( .BOTH. , #186 ) ;
#20 = AXIS2_PLACEMENT_3D ( 'NONE', #159, #205, #225 ) ;
#21 = VERTEX_POINT ( 'NONE', #231 ) ;
#22 = ADVANCED_FACE ( 'NONE', ( #52 ), #223, .T. ) ;
#23 = EDGE_LOOP ( 'NONE', ( #232, #172, #94, #188 ) ) ;
#24 = PLANE ( 'NONE',  #98 ) ;
#25 = DIRECTION ( 'NONE',  ( -1.000000000000000000, 0.0000000000000000000, 0.0000000000000000000 ) ) ;
#26 = DIRECTION ( 'NONE',  ( -0.7071067811865487940, 8.659560562354948882E-17, 0.7071067811865462405 ) ) ;
#27 =( CONVERSION_BASED_UNIT ( 'INCH', #201 ) LENGTH_UNIT ( ) NAMED_UNIT ( #182 ) );
#28 = AXIS2_PLACEMENT_3D ( 'NONE', #33, #108, #144 ) ;
#29 = LINE ( 'NONE', #244, #170 ) ;
#30 = APPLICATION_PROTOCOL_DEFINITION ( 'draft international standard', 'automotive_design', 1998, #168 ) ;
#31 = AXIS2_PLACEMENT_3D ( 'NONE', #99, #157, #46 ) ;
#32 = EDGE_CURVE ( 'NONE', #209, #126, #178, .T. ) ;
#33 = CARTESIAN_POINT ( 'NONE',  ( 0.0000000000000000000, 0.0000000000000000000, 0.0000000000000000000 ) ) ;
#34 = ORIENTED_EDGE ( 'NONE', *, *, #187, .F. ) ;
#35 = CONICAL_SURFACE ( 'NONE', #132, 0.003936999999999995191, 0.7853981633974501664 ) ;
#36 = ORIENTED_EDGE ( 'NONE', *, *, #142, .T. ) ;
#37 = AXIS2_PLACEMENT_3D ( 'NONE', #208, #109, #75 ) ;
#38 = ORIENTED_EDGE ( 'NONE', *, *, #149, .F. ) ;
#39 = ORIENTED_EDGE ( 'NONE', *, *, #247, .F. ) ;
#40 = AXIS2_PLACEMENT_3D ( 'NONE', #70, #162, #222 ) ;
#41 = ORIENTED_EDGE ( 'NONE', *, *, #149, .T. ) ;
#42 = UNCERTAINTY_MEASURE_WITH_UNIT (LENGTH_MEASURE( 1.000000000000000082E-05 ), #127, 'distance_accuracy_value', 'NONE');
#43 = DIRECTION ( 'NONE',  ( -1.000000000000000000, 0.0000000000000000000, 0.0000000000000000000 ) ) ;
#44 = ADVANCED_FACE ( 'NONE', ( #196 ), #239, .T. ) ;
#45 = DIRECTION ( 'NONE',  ( -1.000000000000000000, 0.0000000000000000000, 0.0000000000000000000 ) ) ;
#46 = DIRECTION ( 'NONE',  ( -1.000000000000000000, 0.0000000000000000000, 0.0000000000000000000 ) ) ;
#47 = CARTESIAN_POINT ( 'NONE',  ( -0.07874000000000000443, 0.0000000000000000000, 0.07480299999999973082 ) ) ;
#48 = CARTESIAN_POINT ( 'NONE',  ( 0.003936999999999995191, 0.0000000000000000000, 1.968503999999999809 ) ) ;
#49 = ADVANCED_FACE ( 'NONE', ( #100 ), #24, .F. ) ;
#50 = LENGTH_MEASURE_WITH_UNIT ( LENGTH_MEASURE( 0.02539999999999999897 ), #71 );
#51 = DIRECTION ( 'NONE',  ( 1.000000000000000000, 0.0000000000000000000, 0.0000000000000000000 ) ) ;
#52 = FACE_OUTER_BOUND ( 'NONE', #23, .T. ) ;
#53 = ORIENTED_EDGE ( 'NONE', *, *, #92, .T. ) ;
#54 = DIRECTION ( 'NONE',  ( 0.0000000000000000000, 0.0000000000000000000, 1.000000000000000000 ) ) ;
#55 = VECTOR ( 'NONE', #248, 39.37007874015748143 ) ;
#56 = ORIENTED_EDGE ( 'NONE', *, *, #92, .F. ) ;
#57 = CARTESIAN_POINT ( 'NONE',  ( 0.0000000000000000000, 0.0000000000000000000, 0.0000000000000000000 ) ) ;
#58 = ORIENTED_EDGE ( 'NONE', *, *, #197, .T. ) ;
#59 = ORIENTED_EDGE ( 'NONE', *, *, #139, .F. ) ;
#60 = DIRECTION ( 'NONE',  ( -0.0000000000000000000, -0.0000000000000000000, -1.000000000000000000 ) ) ;
#61 = CARTESIAN_POINT ( 'NONE',  ( 0.0000000000000000000, 0.0000000000000000000, 1.968503999999999809 ) ) ;
#62 = DIRECTION ( 'NONE',  ( 0.0000000000000000000, 0.0000000000000000000, 1.000000000000000000 ) ) ;
#63 = AXIS2_PLACEMENT_3D ( 'NONE', #66, #143, #87 ) ;
#64 = DIMENSIONAL_EXPONENTS ( 1.000000000000000000, 0.0000000000000000000, 0.0000000000000000000, 0.0000000000000000000, 0.0000000000000000000, 0.0000000000000000000, 0.0000000000000000000 ) ;
#65 = SURFACE_STYLE_FILL_AREA ( #134 ) ;
#66 = CARTESIAN_POINT ( 'NONE',  ( 0.0000000000000000000, 0.0000000000000000000, 1.968503999999999809 ) ) ;
#67 = CARTESIAN_POINT ( 'NONE',  ( 0.07874000000000000443, 9.642868896486258509E-18, 1.968503999999999809 ) ) ;
#68 = MECHANICAL_DESIGN_GEOMETRIC_PRESENTATION_REPRESENTATION (  '', ( #82 ), #137 ) ;
#69 = AXIS2_PLACEMENT_3D ( 'NONE', #96, #62, #242 ) ;
#70 = CARTESIAN_POINT ( 'NONE',  ( 0.0000000000000000000, 0.0000000000000000000, 1.968503999999999809 ) ) ;
#71 =( LENGTH_UNIT ( ) NAMED_UNIT ( * ) SI_UNIT ( $, .METRE. ) );
#72 = EDGE_LOOP ( 'NONE', ( #34, #152, #235, #59 ) ) ;
#73 = ORIENTED_EDGE ( 'NONE', *, *, #167, .F. ) ;
#74 = ORIENTED_EDGE ( 'NONE', *, *, #142, .F. ) ;
#75 = DIRECTION ( 'NONE',  ( 1.000000000000000000, 0.0000000000000000000, 0.0000000000000000000 ) ) ;
#76 = MANIFOLD_SOLID_BREP ( 'Mirror1', #6 ) ;
#77 = VECTOR ( 'NONE', #214, 39.37007874015748143 ) ;
#78 = FACE_OUTER_BOUND ( 'NONE', #111, .T. ) ;
#79 =( NAMED_UNIT ( * ) SI_UNIT ( $, .STERADIAN. ) SOLID_ANGLE_UNIT ( ) );
#80 = APPLICATION_CONTEXT ( 'automotive_design' ) ;
#81 = DIRECTION ( 'NONE',  ( 1.000000000000000000, 0.0000000000000000000, -0.0000000000000000000 ) ) ;
#82 = STYLED_ITEM ( 'NONE', ( #175 ), #76 ) ;
#83 = CARTESIAN_POINT ( 'NONE',  ( 0.07874000000000000443, 9.642868896486258509E-18, 0.07480299999999973082 ) ) ;
#84 = DIRECTION ( 'NONE',  ( -0.0000000000000000000, -0.0000000000000000000, -1.000000000000000000 ) ) ;
#85 = PRESENTATION_LAYER_ASSIGNMENT (  '', '', ( #129 ) ) ;
#86 = FACE_OUTER_BOUND ( 'NONE', #146, .T. ) ;
#87 = DIRECTION ( 'NONE',  ( -1.000000000000000000, 0.0000000000000000000, 0.0000000000000000000 ) ) ;
#88 = CIRCLE ( 'NONE', #63, 0.003936999999999995191 ) ;
#89 = ORIENTED_EDGE ( 'NONE', *, *, #198, .F. ) ;
#90 = SHAPE_DEFINITION_REPRESENTATION ( #136, #229 ) ;
#91 = ORIENTED_EDGE ( 'NONE', *, *, #198, .T. ) ;
#92 = EDGE_CURVE ( 'NONE', #192, #213, #161, .T. ) ;
#93 = EDGE_CURVE ( 'NONE', #194, #126, #145, .T. ) ;
#94 = ORIENTED_EDGE ( 'NONE', *, *, #247, .T. ) ;
#95 = UNCERTAINTY_MEASURE_WITH_UNIT (LENGTH_MEASURE( 1.000000000000000082E-05 ), #27, 'distance_accuracy_value', 'NONE');
#96 = CARTESIAN_POINT ( 'NONE',  ( 0.0000000000000000000, 0.0000000000000000000, 1.968503999999999809 ) ) ;
#97 = CIRCLE ( 'NONE', #174, 0.07874000000000000443 ) ;
#98 = AXIS2_PLACEMENT_3D ( 'NONE', #11, #9, #81 ) ;
#99 = CARTESIAN_POINT ( 'NONE',  ( 0.0000000000000000000, 0.0000000000000000000, 0.07480299999999973082 ) ) ;
#100 = FACE_OUTER_BOUND ( 'NONE', #210, .T. ) ;
#101 = DIRECTION ( 'NONE',  ( 0.0000000000000000000, 0.0000000000000000000, -1.000000000000000000 ) ) ;
#102 = DIRECTION ( 'NONE',  ( 0.0000000000000000000, 0.0000000000000000000, -1.000000000000000000 ) ) ;
#103 =( CONVERSION_BASED_UNIT ( 'INCH', #50 ) LENGTH_UNIT ( ) NAMED_UNIT ( #245 ) );
#104 = PRODUCT_DEFINITION ( 'UNKNOWN', '', #217, #117 ) ;
#105 = ADVANCED_FACE ( 'NONE', ( #78 ), #35, .T. ) ;
#106 = AXIS2_PLACEMENT_3D ( 'NONE', #218, #60, #45 ) ;
#107 = PRODUCT ( 'Micro_RNCM-040-2X', 'Micro_RNCM-040-2X', '', ( #230 ) ) ;
#108 = DIRECTION ( 'NONE',  ( 0.0000000000000000000, 0.0000000000000000000, 1.000000000000000000 ) ) ;
#109 = DIRECTION ( 'NONE',  ( 0.0000000000000000000, 0.0000000000000000000, -1.000000000000000000 ) ) ;
#110 = ORIENTED_EDGE ( 'NONE', *, *, #32, .T. ) ;
#111 = EDGE_LOOP ( 'NONE', ( #74, #4, #41, #3 ) ) ;
#112 = EDGE_CURVE ( 'NONE', #209, #115, #189, .T. ) ;
#113 = ORIENTED_EDGE ( 'NONE', *, *, #177, .F. ) ;
#114 = AXIS2_PLACEMENT_3D ( 'NONE', #57, #54, #51 ) ;
#115 = VERTEX_POINT ( 'NONE', #219 ) ;
#116 = CARTESIAN_POINT ( 'NONE',  ( -0.003936999999999995191, -4.821434448243123477E-19, 1.968503999999999809 ) ) ;
#117 = PRODUCT_DEFINITION_CONTEXT ( 'detailed design', #80, 'design' ) ;
#118 = FILL_AREA_STYLE_COLOUR ( '', #249 ) ;
#119 = LINE ( 'NONE', #200, #202 ) ;
#120 = SURFACE_STYLE_USAGE ( .BOTH. , #154 ) ;
#121 = CARTESIAN_POINT ( 'NONE',  ( 0.0000000000000000000, 0.0000000000000000000, 1.893701000000000301 ) ) ;
#122 = CIRCLE ( 'NONE', #10, 0.003936999999999995191 ) ;
#123 = DIRECTION ( 'NONE',  ( -1.000000000000000000, 0.0000000000000000000, 0.0000000000000000000 ) ) ;
#124 = DIRECTION ( 'NONE',  ( -0.0000000000000000000, -0.0000000000000000000, -1.000000000000000000 ) ) ;
#125 = DIRECTION ( 'NONE',  ( -1.000000000000000000, 0.0000000000000000000, 0.0000000000000000000 ) ) ;
#126 = VERTEX_POINT ( 'NONE', #199 ) ;
#127 =( CONVERSION_BASED_UNIT ( 'INCH', #147 ) LENGTH_UNIT ( ) NAMED_UNIT ( #64 ) );
#128 = ORIENTED_EDGE ( 'NONE', *, *, #177, .T. ) ;
#129 = STYLED_ITEM ( 'NONE', ( #7 ), #229 ) ;
#130 = ORIENTED_EDGE ( 'NONE', *, *, #238, .T. ) ;
#131 =( NAMED_UNIT ( * ) SI_UNIT ( $, .STERADIAN. ) SOLID_ANGLE_UNIT ( ) );
#132 = AXIS2_PLACEMENT_3D ( 'NONE', #156, #240, #216 ) ;
#133 = UNCERTAINTY_MEASURE_WITH_UNIT (LENGTH_MEASURE( 1.000000000000000082E-05 ), #103, 'distance_accuracy_value', 'NONE');
#134 = FILL_AREA_STYLE ('',( #118 ) ) ;
#135 = CARTESIAN_POINT ( 'NONE',  ( 0.0000000000000000000, 0.0000000000000000000, 1.893701000000000301 ) ) ;
#136 = PRODUCT_DEFINITION_SHAPE ( 'NONE', 'NONE',  #104 ) ;
#137 =( GEOMETRIC_REPRESENTATION_CONTEXT ( 3 ) GLOBAL_UNCERTAINTY_ASSIGNED_CONTEXT ( ( #95 ) ) GLOBAL_UNIT_ASSIGNED_CONTEXT ( ( #27, #173, #79 ) ) REPRESENTATION_CONTEXT ( 'NONE', 'WORKASPACE' ) );
#138 = CYLINDRICAL_SURFACE ( 'NONE', #106, 0.07874000000000000443 ) ;
#139 = EDGE_CURVE ( 'NONE', #213, #192, #155, .T. ) ;
#140 = ADVANCED_FACE ( 'NONE', ( #236 ), #138, .T. ) ;
#141 = CARTESIAN_POINT ( 'NONE',  ( 0.07874000000000000443, 9.642868896486258509E-18, 1.893701000000000301 ) ) ;
#142 = EDGE_CURVE ( 'NONE', #21, #192, #119, .T. ) ;
#143 = DIRECTION ( 'NONE',  ( 0.0000000000000000000, 0.0000000000000000000, -1.000000000000000000 ) ) ;
#144 = DIRECTION ( 'NONE',  ( 1.000000000000000000, 0.0000000000000000000, 0.0000000000000000000 ) ) ;
#145 = CIRCLE ( 'NONE', #17, 0.07874000000000000443 ) ;
#146 = EDGE_LOOP ( 'NONE', ( #128, #110, #8, #39 ) ) ;
#147 = LENGTH_MEASURE_WITH_UNIT ( LENGTH_MEASURE( 0.02539999999999999897 ), #234 );
#148 = EDGE_LOOP ( 'NONE', ( #89, #36, #53, #38 ) ) ;
#149 = EDGE_CURVE ( 'NONE', #153, #213, #158, .T. ) ;
#150 = ADVANCED_FACE ( 'NONE', ( #226 ), #181, .T. ) ;
#151 = COLOUR_RGB ( '',0.7921568627450980005, 0.8196078431372548767, 0.9333333333333333481 ) ;
#152 = ORIENTED_EDGE ( 'NONE', *, *, #93, .T. ) ;
#153 = VERTEX_POINT ( 'NONE', #206 ) ;
#154 = SURFACE_SIDE_STYLE ('',( #65 ) ) ;
#155 = CIRCLE ( 'NONE', #31, 0.07874000000000000443 ) ;
#156 = CARTESIAN_POINT ( 'NONE',  ( 0.0000000000000000000, 0.0000000000000000000, 0.0000000000000000000 ) ) ;
#157 = DIRECTION ( 'NONE',  ( -0.0000000000000000000, -0.0000000000000000000, -1.000000000000000000 ) ) ;
#158 = LINE ( 'NONE', #160, #5 ) ;
#159 = CARTESIAN_POINT ( 'NONE',  ( 0.0000000000000000000, 0.0000000000000000000, 0.0000000000000000000 ) ) ;
#160 = CARTESIAN_POINT ( 'NONE',  ( 0.003936999999999995191, 0.0000000000000000000, 0.0000000000000000000 ) ) ;
#161 = CIRCLE ( 'NONE', #221, 0.07874000000000000443 ) ;
#162 = DIRECTION ( 'NONE',  ( 0.0000000000000000000, 0.0000000000000000000, -1.000000000000000000 ) ) ;
#163 = ADVANCED_FACE ( 'NONE', ( #224 ), #193, .T. ) ;
#164 = DIRECTION ( 'NONE',  ( -0.0000000000000000000, -0.0000000000000000000, -1.000000000000000000 ) ) ;
#165 = VECTOR ( 'NONE', #204, 39.37007874015748143 ) ;
#166 =( NAMED_UNIT ( * ) PLANE_ANGLE_UNIT ( ) SI_UNIT ( $, .RADIAN. ) );
#167 = EDGE_CURVE ( 'NONE', #126, #192, #29, .T. ) ;
#168 = APPLICATION_CONTEXT ( 'automotive_design' ) ;
#169 = EDGE_LOOP ( 'NONE', ( #58, #212, #56, #73 ) ) ;
#170 = VECTOR ( 'NONE', #84, 39.37007874015748143 ) ;
#171 = EDGE_LOOP ( 'NONE', ( #113, #191 ) ) ;
#172 = ORIENTED_EDGE ( 'NONE', *, *, #112, .T. ) ;
#173 =( NAMED_UNIT ( * ) PLANE_ANGLE_UNIT ( ) SI_UNIT ( $, .RADIAN. ) );
#174 = AXIS2_PLACEMENT_3D ( 'NONE', #121, #102, #184 ) ;
#175 = PRESENTATION_STYLE_ASSIGNMENT (( #120 ) ) ;
#176 = ADVANCED_FACE ( 'NONE', ( #86 ), #237, .T. ) ;
#177 = EDGE_CURVE ( 'NONE', #115, #209, #88, .T. ) ;
#178 = LINE ( 'NONE', #116, #77 ) ;
#179 = CARTESIAN_POINT ( 'NONE',  ( 0.0000000000000000000, 0.0000000000000000000, 0.07480299999999973082 ) ) ;
#180 = DIRECTION ( 'NONE',  ( -0.0000000000000000000, -0.0000000000000000000, -1.000000000000000000 ) ) ;
#181 = CYLINDRICAL_SURFACE ( 'NONE', #227, 0.07874000000000000443 ) ;
#182 = DIMENSIONAL_EXPONENTS ( 1.000000000000000000, 0.0000000000000000000, 0.0000000000000000000, 0.0000000000000000000, 0.0000000000000000000, 0.0000000000000000000, 0.0000000000000000000 ) ;
#183 =( GEOMETRIC_REPRESENTATION_CONTEXT ( 3 ) GLOBAL_UNCERTAINTY_ASSIGNED_CONTEXT ( ( #42 ) ) GLOBAL_UNIT_ASSIGNED_CONTEXT ( ( #127, #166, #131 ) ) REPRESENTATION_CONTEXT ( 'NONE', 'WORKASPACE' ) );
#184 = DIRECTION ( 'NONE',  ( -1.000000000000000000, 0.0000000000000000000, 0.0000000000000000000 ) ) ;
#185 = SURFACE_STYLE_FILL_AREA ( #190 ) ;
#186 = SURFACE_SIDE_STYLE ('',( #185 ) ) ;
#187 = EDGE_CURVE ( 'NONE', #194, #213, #203, .T. ) ;
#188 = ORIENTED_EDGE ( 'NONE', *, *, #197, .F. ) ;
#189 = CIRCLE ( 'NONE', #233, 0.003936999999999995191 ) ;
#190 = FILL_AREA_STYLE ('',( #211 ) ) ;
#191 = ORIENTED_EDGE ( 'NONE', *, *, #112, .F. ) ;
#192 = VERTEX_POINT ( 'NONE', #47 ) ;
#193 = CONICAL_SURFACE ( 'NONE', #28, 0.003936999999999995191, 0.7853981633974501664 ) ;
#194 = VERTEX_POINT ( 'NONE', #141 ) ;
#195 = DIRECTION ( 'NONE',  ( 0.0000000000000000000, 0.0000000000000000000, -1.000000000000000000 ) ) ;
#196 = FACE_OUTER_BOUND ( 'NONE', #171, .T. ) ;
#197 = EDGE_CURVE ( 'NONE', #126, #194, #97, .T. ) ;
#198 = EDGE_CURVE ( 'NONE', #21, #153, #122, .T. ) ;
#199 = CARTESIAN_POINT ( 'NONE',  ( -0.07874000000000000443, 0.0000000000000000000, 1.893701000000000301 ) ) ;
#200 = CARTESIAN_POINT ( 'NONE',  ( -0.003936999999999995191, 4.821434448243123477E-19, 0.0000000000000000000 ) ) ;
#201 = LENGTH_MEASURE_WITH_UNIT ( LENGTH_MEASURE( 0.02539999999999999897 ), #12 );
#202 = VECTOR ( 'NONE', #26, 39.37007874015748143 ) ;
#203 = LINE ( 'NONE', #67, #165 ) ;
#204 = DIRECTION ( 'NONE',  ( -0.0000000000000000000, -0.0000000000000000000, -1.000000000000000000 ) ) ;
#205 = DIRECTION ( 'NONE',  ( -0.0000000000000000000, -0.0000000000000000000, -1.000000000000000000 ) ) ;
#206 = CARTESIAN_POINT ( 'NONE',  ( 0.003936999999999995191, 0.0000000000000000000, 0.0000000000000000000 ) ) ;
#207 = CIRCLE ( 'NONE', #20, 0.003936999999999995191 ) ;
#208 = CARTESIAN_POINT ( 'NONE',  ( 0.0000000000000000000, 0.0000000000000000000, 1.968503999999999809 ) ) ;
#209 = VERTEX_POINT ( 'NONE', #1 ) ;
#210 = EDGE_LOOP ( 'NONE', ( #130, #91 ) ) ;
#211 = FILL_AREA_STYLE_COLOUR ( '', #151 ) ;
#212 = ORIENTED_EDGE ( 'NONE', *, *, #187, .T. ) ;
#213 = VERTEX_POINT ( 'NONE', #83 ) ;
#214 = DIRECTION ( 'NONE',  ( -0.7071067811865487940, -8.659560562354948882E-17, -0.7071067811865462405 ) ) ;
#215 = DIRECTION ( 'NONE',  ( -1.000000000000000000, 0.0000000000000000000, 0.0000000000000000000 ) ) ;
#216 = DIRECTION ( 'NONE',  ( 1.000000000000000000, 0.0000000000000000000, 0.0000000000000000000 ) ) ;
#217 = PRODUCT_DEFINITION_FORMATION_WITH_SPECIFIED_SOURCE ( 'ANY', '', #107, .NOT_KNOWN. ) ;
#218 = CARTESIAN_POINT ( 'NONE',  ( 0.0000000000000000000, 0.0000000000000000000, 1.968503999999999809 ) ) ;
#219 = CARTESIAN_POINT ( 'NONE',  ( 0.003936999999999995191, 0.0000000000000000000, 1.968503999999999809 ) ) ;
#220 = LINE ( 'NONE', #48, #55 ) ;
#221 = AXIS2_PLACEMENT_3D ( 'NONE', #179, #180, #25 ) ;
#222 = DIRECTION ( 'NONE',  ( 1.000000000000000000, 0.0000000000000000000, 0.0000000000000000000 ) ) ;
#223 = CONICAL_SURFACE ( 'NONE', #37, 0.003936999999999995191, 0.7853981633974501664 ) ;
#224 = FACE_OUTER_BOUND ( 'NONE', #148, .T. ) ;
#225 = DIRECTION ( 'NONE',  ( -1.000000000000000000, 0.0000000000000000000, 0.0000000000000000000 ) ) ;
#226 = FACE_OUTER_BOUND ( 'NONE', #169, .T. ) ;
#227 = AXIS2_PLACEMENT_3D ( 'NONE', #18, #124, #125 ) ;
#228 = MECHANICAL_DESIGN_GEOMETRIC_PRESENTATION_REPRESENTATION (  '', ( #129 ), #183 ) ;
#229 = ADVANCED_BREP_SHAPE_REPRESENTATION ( 'Micro_RNCM-040-2X', ( #76, #114 ), #241 ) ;
#230 = PRODUCT_CONTEXT ( 'NONE', #168, 'mechanical' ) ;
#231 = CARTESIAN_POINT ( 'NONE',  ( -0.003936999999999995191, 5.062506170655285717E-18, 0.0000000000000000000 ) ) ;
#232 = ORIENTED_EDGE ( 'NONE', *, *, #32, .F. ) ;
#233 = AXIS2_PLACEMENT_3D ( 'NONE', #61, #195, #43 ) ;
#234 =( LENGTH_UNIT ( ) NAMED_UNIT ( * ) SI_UNIT ( $, .METRE. ) );
#235 = ORIENTED_EDGE ( 'NONE', *, *, #167, .T. ) ;
#236 = FACE_OUTER_BOUND ( 'NONE', #72, .T. ) ;
#237 = CONICAL_SURFACE ( 'NONE', #40, 0.003936999999999995191, 0.7853981633974501664 ) ;
#238 = EDGE_CURVE ( 'NONE', #153, #21, #207, .T. ) ;
#239 = PLANE ( 'NONE',  #69 ) ;
#240 = DIRECTION ( 'NONE',  ( 0.0000000000000000000, 0.0000000000000000000, 1.000000000000000000 ) ) ;
#241 =( GEOMETRIC_REPRESENTATION_CONTEXT ( 3 ) GLOBAL_UNCERTAINTY_ASSIGNED_CONTEXT ( ( #133 ) ) GLOBAL_UNIT_ASSIGNED_CONTEXT ( ( #103, #16, #15 ) ) REPRESENTATION_CONTEXT ( 'NONE', 'WORKASPACE' ) );
#242 = DIRECTION ( 'NONE',  ( 1.000000000000000000, 0.0000000000000000000, -0.0000000000000000000 ) ) ;
#243 = DIRECTION ( 'NONE',  ( 0.7071067811865487940, 0.0000000000000000000, 0.7071067811865462405 ) ) ;
#244 = CARTESIAN_POINT ( 'NONE',  ( -0.07874000000000000443, 0.0000000000000000000, 1.968503999999999809 ) ) ;
#245 = DIMENSIONAL_EXPONENTS ( 1.000000000000000000, 0.0000000000000000000, 0.0000000000000000000, 0.0000000000000000000, 0.0000000000000000000, 0.0000000000000000000, 0.0000000000000000000 ) ;
#246 = PRODUCT_RELATED_PRODUCT_CATEGORY ( 'part', '', ( #107 ) ) ;
#247 = EDGE_CURVE ( 'NONE', #115, #194, #220, .T. ) ;
#248 = DIRECTION ( 'NONE',  ( 0.7071067811865487940, 0.0000000000000000000, -0.7071067811865462405 ) ) ;
#249 = COLOUR_RGB ( '',0.7921568627450980005, 0.8196078431372548767, 0.9333333333333333481 ) ;
ENDSEC;
END-ISO-10303-21;
