ISO-10303-21;
HEADER;
FILE_DESCRIPTION (( 'STEP AP214' ),
    '1' );
FILE_NAME ('59256.STEP',
    '2023-06-22T22:17:06',
    ( '' ),
    ( '' ),
    'SwSTEP 2.0',
    'SolidWorks 2023',
    '' );
FILE_SCHEMA (( 'AUTOMOTIVE_DESIGN' ));
ENDSEC;

DATA;
#1 = DIMENSIONAL_EXPONENTS ( 1.000000000000000000, 0.000000000000000000, 0.000000000000000000, 0.000000000000000000, 0.000000000000000000, 0.000000000000000000, 0.000000000000000000 ) ;
#2 = PRESENTATION_LAYER_ASSIGNMENT (  '', '', ( #131 ) ) ;
#3 = CYLINDRICAL_SURFACE ( 'NONE', #100, 0.1562500000000000000 ) ;
#4 =( LENGTH_UNIT ( ) NAMED_UNIT ( * ) SI_UNIT ( $, .METRE. ) );
#5 = FILL_AREA_STYLE ('',( #172 ) ) ;
#6 = AXIS2_PLACEMENT_3D ( 'NONE', #197, #272, #192 ) ;
#7 = VECTOR ( 'NONE', #210, 39.37007874015748143 ) ;
#8 = SURFACE_STYLE_FILL_AREA ( #243 ) ;
#9 = LENGTH_MEASURE_WITH_UNIT ( LENGTH_MEASURE( 0.02539999999999999897 ), #251 );
#10 = DIRECTION ( 'NONE',  ( 0.000000000000000000, 0.000000000000000000, 1.000000000000000000 ) ) ;
#11 =( NAMED_UNIT ( * ) PLANE_ANGLE_UNIT ( ) SI_UNIT ( $, .RADIAN. ) );
#12 = APPLICATION_PROTOCOL_DEFINITION ( 'draft international standard', 'automotive_design', 1998, #228 ) ;
#13 = CARTESIAN_POINT ( 'NONE',  ( 0.000000000000000000, 0.000000000000000000, 0.000000000000000000 ) ) ;
#14 = PRESENTATION_LAYER_ASSIGNMENT (  '', '', ( #259 ) ) ;
#15 = ORIENTED_EDGE ( 'NONE', *, *, #184, .T. ) ;
#16 = UNCERTAINTY_MEASURE_WITH_UNIT (LENGTH_MEASURE( 1.000000000000000082E-05 ), #264, 'distance_accuracy_value', 'NONE');
#17 = VERTEX_POINT ( 'NONE', #216 ) ;
#18 = ORIENTED_EDGE ( 'NONE', *, *, #156, .F. ) ;
#19 = AXIS2_PLACEMENT_3D ( 'NONE', #61, #91, #120 ) ;
#20 = CARTESIAN_POINT ( 'NONE',  ( 0.000000000000000000, 0.000000000000000000, 0.000000000000000000 ) ) ;
#21 = DIRECTION ( 'NONE',  ( -0.000000000000000000, -1.000000000000000000, -0.000000000000000000 ) ) ;
#22 = MANIFOLD_SOLID_BREP ( 'Revolve - Tool Body (Straight Shanked)', #203 ) ;
#23 = PRODUCT_DEFINITION ( 'UNKNOWN', '', #48, #237 ) ;
#24 = DIRECTION ( 'NONE',  ( 0.000000000000000000, 0.000000000000000000, -1.000000000000000000 ) ) ;
#25 = EDGE_CURVE ( 'NONE', #279, #257, #186, .T. ) ;
#26 = CYLINDRICAL_SURFACE ( 'NONE', #94, 0.1562500000000000000 ) ;
#27 = STYLED_ITEM ( 'NONE', ( #155 ), #277 ) ;
#28 =( NAMED_UNIT ( * ) SI_UNIT ( $, .STERADIAN. ) SOLID_ANGLE_UNIT ( ) );
#29 = DIRECTION ( 'NONE',  ( -1.000000000000000000, 0.000000000000000000, 0.000000000000000000 ) ) ;
#30 = DIRECTION ( 'NONE',  ( 0.000000000000000000, 0.000000000000000000, -1.000000000000000000 ) ) ;
#31 = ORIENTED_EDGE ( 'NONE', *, *, #244, .F. ) ;
#32 = AXIS2_PLACEMENT_3D ( 'NONE', #20, #286, #160 ) ;
#33 = CARTESIAN_POINT ( 'NONE',  ( 0.000000000000000000, 0.000000000000000000, 0.000000000000000000 ) ) ;
#34 = PLANE ( 'NONE',  #289 ) ;
#35 = DIRECTION ( 'NONE',  ( -3.498990854706722745E-17, 1.000000000000000000, -0.000000000000000000 ) ) ;
#36 =( NAMED_UNIT ( * ) SI_UNIT ( $, .STERADIAN. ) SOLID_ANGLE_UNIT ( ) );
#37 = PRESENTATION_STYLE_ASSIGNMENT (( #191 ) ) ;
#38 = VERTEX_POINT ( 'NONE', #295 ) ;
#39 = UNCERTAINTY_MEASURE_WITH_UNIT (LENGTH_MEASURE( 1.000000000000000082E-05 ), #180, 'distance_accuracy_value', 'NONE');
#40 = LENGTH_MEASURE_WITH_UNIT ( LENGTH_MEASURE( 0.02539999999999999897 ), #97 );
#41 = CARTESIAN_POINT ( 'NONE',  ( 0.000000000000000000, 0.000000000000000000, 0.000000000000000000 ) ) ;
#42 = DIRECTION ( 'NONE',  ( 0.000000000000000000, 0.000000000000000000, -1.000000000000000000 ) ) ;
#43 =( GEOMETRIC_REPRESENTATION_CONTEXT ( 3 ) GLOBAL_UNCERTAINTY_ASSIGNED_CONTEXT ( ( #300 ) ) GLOBAL_UNIT_ASSIGNED_CONTEXT ( ( #127, #123, #36 ) ) REPRESENTATION_CONTEXT ( 'NONE', 'WORKASPACE' ) );
#44 = DIRECTION ( 'NONE',  ( -3.498990854706722745E-17, 1.000000000000000000, -0.000000000000000000 ) ) ;
#45 = DIRECTION ( 'NONE',  ( -1.000000000000000000, 0.000000000000000000, 0.000000000000000000 ) ) ;
#46 = LINE ( 'NONE', #308, #65 ) ;
#47 = STYLED_ITEM ( 'NONE', ( #245 ), #247 ) ;
#48 = PRODUCT_DEFINITION_FORMATION_WITH_SPECIFIED_SOURCE ( 'ANY', '', #199, .NOT_KNOWN. ) ;
#49 = SURFACE_STYLE_USAGE ( .BOTH. , #71 ) ;
#50 = DIMENSIONAL_EXPONENTS ( 1.000000000000000000, 0.000000000000000000, 0.000000000000000000, 0.000000000000000000, 0.000000000000000000, 0.000000000000000000, 0.000000000000000000 ) ;
#51 =( GEOMETRIC_REPRESENTATION_CONTEXT ( 3 ) GLOBAL_UNCERTAINTY_ASSIGNED_CONTEXT ( ( #105 ) ) GLOBAL_UNIT_ASSIGNED_CONTEXT ( ( #200, #174, #239 ) ) REPRESENTATION_CONTEXT ( 'NONE', 'WORKASPACE' ) );
#52 = CYLINDRICAL_SURFACE ( 'NONE', #212, 0.1562500000000000000 ) ;
#53 = FILL_AREA_STYLE_COLOUR ( '', #211 ) ;
#54 = SURFACE_STYLE_FILL_AREA ( #224 ) ;
#55 = CARTESIAN_POINT ( 'NONE',  ( 0.1562499999999999722, 2.500000000000000000, 1.913510623667739771E-17 ) ) ;
#56 = SURFACE_STYLE_FILL_AREA ( #5 ) ;
#57 = DIRECTION ( 'NONE',  ( 1.000000000000000000, 0.000000000000000000, 0.000000000000000000 ) ) ;
#58 = LINE ( 'NONE', #144, #83 ) ;
#59 = SURFACE_STYLE_USAGE ( .BOTH. , #222 ) ;
#60 = ADVANCED_FACE ( 'NONE', ( #280 ), #3, .T. ) ;
#61 = CARTESIAN_POINT ( 'NONE',  ( -7.582401355855259480E-33, 0.7499999999999998890, 0.000000000000000000 ) ) ;
#62 = EDGE_LOOP ( 'NONE', ( #31, #112 ) ) ;
#63 = CARTESIAN_POINT ( 'NONE',  ( 0.000000000000000000, 0.000000000000000000, -0.1562500000000000000 ) ) ;
#64 = ORIENTED_EDGE ( 'NONE', *, *, #72, .T. ) ;
#65 = VECTOR ( 'NONE', #188, 39.37007874015748143 ) ;
#66 = UNCERTAINTY_MEASURE_WITH_UNIT (LENGTH_MEASURE( 1.000000000000000082E-05 ), #215, 'distance_accuracy_value', 'NONE');
#67 = DIRECTION ( 'NONE',  ( 1.000000000000000000, 3.498990854706722745E-17, 0.000000000000000000 ) ) ;
#68 = CLOSED_SHELL ( 'NONE', ( #60, #277, #255, #247 ) ) ;
#69 =( GEOMETRIC_REPRESENTATION_CONTEXT ( 3 ) GLOBAL_UNCERTAINTY_ASSIGNED_CONTEXT ( ( #116 ) ) GLOBAL_UNIT_ASSIGNED_CONTEXT ( ( #90, #230, #179 ) ) REPRESENTATION_CONTEXT ( 'NONE', 'WORKASPACE' ) );
#70 = ORIENTED_EDGE ( 'NONE', *, *, #220, .T. ) ;
#71 = SURFACE_SIDE_STYLE ('',( #8 ) ) ;
#72 = EDGE_CURVE ( 'NONE', #126, #38, #269, .T. ) ;
#73 = AXIS2_PLACEMENT_3D ( 'NONE', #136, #21, #24 ) ;
#74 = EDGE_CURVE ( 'NONE', #17, #257, #58, .T. ) ;
#75 = DIRECTION ( 'NONE',  ( 0.000000000000000000, 0.000000000000000000, -1.000000000000000000 ) ) ;
#76 = AXIS2_PLACEMENT_3D ( 'NONE', #13, #198, #149 ) ;
#77 = DIRECTION ( 'NONE',  ( -3.498990854706722745E-17, 1.000000000000000000, 0.000000000000000000 ) ) ;
#78 = PRODUCT_CONTEXT ( 'NONE', #228, 'mechanical' ) ;
#79 = ORIENTED_EDGE ( 'NONE', *, *, #184, .F. ) ;
#80 = FACE_OUTER_BOUND ( 'NONE', #256, .T. ) ;
#81 = PRESENTATION_STYLE_ASSIGNMENT (( #262 ) ) ;
#82 = LENGTH_MEASURE_WITH_UNIT ( LENGTH_MEASURE( 0.02539999999999999897 ), #183 );
#83 = VECTOR ( 'NONE', #290, 39.37007874015748143 ) ;
#84 = LENGTH_MEASURE_WITH_UNIT ( LENGTH_MEASURE( 0.02539999999999999897 ), #4 );
#85 = FACE_OUTER_BOUND ( 'NONE', #177, .T. ) ;
#86 = ORIENTED_EDGE ( 'NONE', *, *, #74, .T. ) ;
#87 =( GEOMETRIC_REPRESENTATION_CONTEXT ( 3 ) GLOBAL_UNCERTAINTY_ASSIGNED_CONTEXT ( ( #173 ) ) GLOBAL_UNIT_ASSIGNED_CONTEXT ( ( #267, #309, #189 ) ) REPRESENTATION_CONTEXT ( 'NONE', 'WORKASPACE' ) );
#88 = FILL_AREA_STYLE_COLOUR ( '', #276 ) ;
#89 = AXIS2_PLACEMENT_3D ( 'NONE', #41, #287, #164 ) ;
#90 =( CONVERSION_BASED_UNIT ( 'INCH', #194 ) LENGTH_UNIT ( ) NAMED_UNIT ( #113 ) );
#91 = DIRECTION ( 'NONE',  ( -3.498990854706722745E-17, 1.000000000000000000, -0.000000000000000000 ) ) ;
#92 = DIMENSIONAL_EXPONENTS ( 1.000000000000000000, 0.000000000000000000, 0.000000000000000000, 0.000000000000000000, 0.000000000000000000, 0.000000000000000000, 0.000000000000000000 ) ;
#93 = DIRECTION ( 'NONE',  ( -0.000000000000000000, -1.000000000000000000, -0.000000000000000000 ) ) ;
#94 = AXIS2_PLACEMENT_3D ( 'NONE', #128, #35, #45 ) ;
#95 =( NAMED_UNIT ( * ) SI_UNIT ( $, .STERADIAN. ) SOLID_ANGLE_UNIT ( ) );
#96 = APPLICATION_PROTOCOL_DEFINITION ( 'draft international standard', 'automotive_design', 1998, #130 ) ;
#97 =( LENGTH_UNIT ( ) NAMED_UNIT ( * ) SI_UNIT ( $, .METRE. ) );
#98 = LINE ( 'NONE', #63, #7 ) ;
#99 = COLOUR_RGB ( '',0.7921568627450980005, 0.8196078431372548767, 0.9333333333333333481 ) ;
#100 = AXIS2_PLACEMENT_3D ( 'NONE', #33, #273, #30 ) ;
#101 = ORIENTED_EDGE ( 'NONE', *, *, #161, .T. ) ;
#102 = CARTESIAN_POINT ( 'NONE',  ( 0.000000000000000000, 0.7500000000000001110, 0.000000000000000000 ) ) ;
#103 = FILL_AREA_STYLE_COLOUR ( '', #99 ) ;
#104 = ADVANCED_FACE ( 'NONE', ( #293 ), #34, .F. ) ;
#105 = UNCERTAINTY_MEASURE_WITH_UNIT (LENGTH_MEASURE( 1.000000000000000082E-05 ), #200, 'distance_accuracy_value', 'NONE');
#106 = ORIENTED_EDGE ( 'NONE', *, *, #294, .T. ) ;
#107 = CIRCLE ( 'NONE', #32, 0.1562500000000000000 ) ;
#108 = CARTESIAN_POINT ( 'NONE',  ( 0.1562499999999999445, 2.500000000000000000, 1.913510623667739463E-17 ) ) ;
#109 = EDGE_CURVE ( 'NONE', #207, #17, #195, .T. ) ;
#110 = FACE_OUTER_BOUND ( 'NONE', #253, .T. ) ;
#111 = MECHANICAL_DESIGN_GEOMETRIC_PRESENTATION_REPRESENTATION (  '', ( #131 ), #69 ) ;
#112 = ORIENTED_EDGE ( 'NONE', *, *, #72, .F. ) ;
#113 = DIMENSIONAL_EXPONENTS ( 1.000000000000000000, 0.000000000000000000, 0.000000000000000000, 0.000000000000000000, 0.000000000000000000, 0.000000000000000000, 0.000000000000000000 ) ;
#114 = CARTESIAN_POINT ( 'NONE',  ( 0.000000000000000000, 0.7500000000000001110, 0.000000000000000000 ) ) ;
#115 = ORIENTED_EDGE ( 'NONE', *, *, #147, .T. ) ;
#116 = UNCERTAINTY_MEASURE_WITH_UNIT (LENGTH_MEASURE( 1.000000000000000082E-05 ), #90, 'distance_accuracy_value', 'NONE');
#117 = FILL_AREA_STYLE_COLOUR ( '', #118 ) ;
#118 = COLOUR_RGB ( '',1.000000000000000000, 0.000000000000000000, 0.000000000000000000 ) ;
#119 = MANIFOLD_SOLID_BREP ( 'Revolve - Cutting Edge', #68 ) ;
#120 = DIRECTION ( 'NONE',  ( -1.000000000000000000, 0.000000000000000000, 0.000000000000000000 ) ) ;
#121 = FACE_OUTER_BOUND ( 'NONE', #204, .T. ) ;
#122 =( LENGTH_UNIT ( ) NAMED_UNIT ( * ) SI_UNIT ( $, .METRE. ) );
#123 =( NAMED_UNIT ( * ) PLANE_ANGLE_UNIT ( ) SI_UNIT ( $, .RADIAN. ) );
#124 = COLOUR_RGB ( '',0.7921568627450980005, 0.8196078431372548767, 0.9333333333333333481 ) ;
#125 = ADVANCED_FACE ( 'NONE', ( #85 ), #268, .T. ) ;
#126 = VERTEX_POINT ( 'NONE', #238 ) ;
#127 =( CONVERSION_BASED_UNIT ( 'INCH', #40 ) LENGTH_UNIT ( ) NAMED_UNIT ( #163 ) );
#128 = CARTESIAN_POINT ( 'NONE',  ( -6.123233995736766036E-17, 2.500000000000000000, 0.000000000000000000 ) ) ;
#129 = SURFACE_STYLE_USAGE ( .BOTH. , #159 ) ;
#130 = APPLICATION_CONTEXT ( 'automotive_design' ) ;
#131 = STYLED_ITEM ( 'NONE', ( #37 ), #255 ) ;
#132 = CARTESIAN_POINT ( 'NONE',  ( -6.123233995736766036E-17, 2.500000000000000000, 0.000000000000000000 ) ) ;
#133 = ORIENTED_EDGE ( 'NONE', *, *, #161, .F. ) ;
#134 = PRESENTATION_LAYER_ASSIGNMENT (  '', '', ( #304 ) ) ;
#135 = COLOUR_RGB ( '',1.000000000000000000, 0.000000000000000000, 0.000000000000000000 ) ;
#136 = CARTESIAN_POINT ( 'NONE',  ( 0.000000000000000000, 0.7500000000000001110, 0.000000000000000000 ) ) ;
#137 = DIMENSIONAL_EXPONENTS ( 1.000000000000000000, 0.000000000000000000, 0.000000000000000000, 0.000000000000000000, 0.000000000000000000, 0.000000000000000000, 0.000000000000000000 ) ;
#138 = DIRECTION ( 'NONE',  ( -1.000000000000000000, 0.000000000000000000, 0.000000000000000000 ) ) ;
#139 = PRODUCT_RELATED_PRODUCT_CATEGORY ( 'part', '', ( #199 ) ) ;
#140 = MECHANICAL_DESIGN_GEOMETRIC_PRESENTATION_REPRESENTATION (  '', ( #246 ), #43 ) ;
#141 = AXIS2_PLACEMENT_3D ( 'NONE', #114, #93, #75 ) ;
#142 = DIRECTION ( 'NONE',  ( -1.000000000000000000, -3.498990854706722745E-17, 0.000000000000000000 ) ) ;
#143 = FACE_OUTER_BOUND ( 'NONE', #176, .T. ) ;
#144 = CARTESIAN_POINT ( 'NONE',  ( 1.913510623667739463E-17, 0.000000000000000000, 0.1562500000000000000 ) ) ;
#145 = PRODUCT_DEFINITION_SHAPE ( 'NONE', 'NONE',  #23 ) ;
#146 = PRESENTATION_STYLE_ASSIGNMENT (( #170 ) ) ;
#147 = EDGE_CURVE ( 'NONE', #17, #207, #190, .T. ) ;
#148 =( GEOMETRIC_REPRESENTATION_CONTEXT ( 3 ) GLOBAL_UNCERTAINTY_ASSIGNED_CONTEXT ( ( #66 ) ) GLOBAL_UNIT_ASSIGNED_CONTEXT ( ( #215, #292, #95 ) ) REPRESENTATION_CONTEXT ( 'NONE', 'WORKASPACE' ) );
#149 = DIRECTION ( 'NONE',  ( 0.000000000000000000, 0.000000000000000000, -1.000000000000000000 ) ) ;
#150 = ORIENTED_EDGE ( 'NONE', *, *, #25, .F. ) ;
#151 = ORIENTED_EDGE ( 'NONE', *, *, #109, .F. ) ;
#152 = PLANE ( 'NONE',  #165 ) ;
#153 = ORIENTED_EDGE ( 'NONE', *, *, #147, .F. ) ;
#154 = CARTESIAN_POINT ( 'NONE',  ( 0.000000000000000000, 0.000000000000000000, 0.000000000000000000 ) ) ;
#155 = PRESENTATION_STYLE_ASSIGNMENT (( #129 ) ) ;
#156 = EDGE_CURVE ( 'NONE', #257, #279, #107, .T. ) ;
#157 = CIRCLE ( 'NONE', #6, 0.1562500000000000278 ) ;
#158 = FILL_AREA_STYLE ('',( #103 ) ) ;
#159 = SURFACE_SIDE_STYLE ('',( #307 ) ) ;
#160 = DIRECTION ( 'NONE',  ( 0.000000000000000000, 0.000000000000000000, -1.000000000000000000 ) ) ;
#161 = EDGE_CURVE ( 'NONE', #234, #209, #254, .T. ) ;
#162 = LENGTH_MEASURE_WITH_UNIT ( LENGTH_MEASURE( 0.02539999999999999897 ), #185 );
#163 = DIMENSIONAL_EXPONENTS ( 1.000000000000000000, 0.000000000000000000, 0.000000000000000000, 0.000000000000000000, 0.000000000000000000, 0.000000000000000000, 0.000000000000000000 ) ;
#164 = DIRECTION ( 'NONE',  ( 0.000000000000000000, 0.000000000000000000, -1.000000000000000000 ) ) ;
#165 = AXIS2_PLACEMENT_3D ( 'NONE', #261, #235, #67 ) ;
#166 = DIRECTION ( 'NONE',  ( -3.498990854706722745E-17, 1.000000000000000000, -0.000000000000000000 ) ) ;
#167 = LENGTH_MEASURE_WITH_UNIT ( LENGTH_MEASURE( 0.02539999999999999897 ), #122 );
#168 = VECTOR ( 'NONE', #274, 39.37007874015748143 ) ;
#169 = ADVANCED_BREP_SHAPE_REPRESENTATION ( '59256', ( #119, #22, #297 ), #306 ) ;
#170 = SURFACE_STYLE_USAGE ( .BOTH. , #175 ) ;
#171 = ADVANCED_FACE ( 'NONE', ( #121 ), #26, .T. ) ;
#172 = FILL_AREA_STYLE_COLOUR ( '', #124 ) ;
#173 = UNCERTAINTY_MEASURE_WITH_UNIT (LENGTH_MEASURE( 1.000000000000000082E-05 ), #267, 'distance_accuracy_value', 'NONE');
#174 =( NAMED_UNIT ( * ) PLANE_ANGLE_UNIT ( ) SI_UNIT ( $, .RADIAN. ) );
#175 = SURFACE_SIDE_STYLE ('',( #56 ) ) ;
#176 = EDGE_LOOP ( 'NONE', ( #305, #187 ) ) ;
#177 = EDGE_LOOP ( 'NONE', ( #298, #266, #133, #79 ) ) ;
#178 = ORIENTED_EDGE ( 'NONE', *, *, #109, .T. ) ;
#179 =( NAMED_UNIT ( * ) SI_UNIT ( $, .STERADIAN. ) SOLID_ANGLE_UNIT ( ) );
#180 =( CONVERSION_BASED_UNIT ( 'INCH', #82 ) LENGTH_UNIT ( ) NAMED_UNIT ( #137 ) );
#181 = AXIS2_PLACEMENT_3D ( 'NONE', #271, #166, #138 ) ;
#182 = MECHANICAL_DESIGN_GEOMETRIC_PRESENTATION_REPRESENTATION (  '', ( #27 ), #87 ) ;
#183 =( LENGTH_UNIT ( ) NAMED_UNIT ( * ) SI_UNIT ( $, .METRE. ) );
#184 = EDGE_CURVE ( 'NONE', #38, #234, #46, .T. ) ;
#185 =( LENGTH_UNIT ( ) NAMED_UNIT ( * ) SI_UNIT ( $, .METRE. ) );
#186 = CIRCLE ( 'NONE', #76, 0.1562500000000000000 ) ;
#187 = ORIENTED_EDGE ( 'NONE', *, *, #156, .T. ) ;
#188 = DIRECTION ( 'NONE',  ( -3.498990854706722745E-17, 1.000000000000000000, -0.000000000000000000 ) ) ;
#189 =( NAMED_UNIT ( * ) SI_UNIT ( $, .STERADIAN. ) SOLID_ANGLE_UNIT ( ) );
#190 = CIRCLE ( 'NONE', #73, 0.1562499999999999722 ) ;
#191 = SURFACE_STYLE_USAGE ( .BOTH. , #219 ) ;
#192 = DIRECTION ( 'NONE',  ( -1.000000000000000000, 0.000000000000000000, 0.000000000000000000 ) ) ;
#193 = CARTESIAN_POINT ( 'NONE',  ( 9.564794532282250286E-35, 0.7500000000000001110, 0.000000000000000000 ) ) ;
#194 = LENGTH_MEASURE_WITH_UNIT ( LENGTH_MEASURE( 0.02539999999999999897 ), #270 );
#195 = CIRCLE ( 'NONE', #141, 0.1562499999999999722 ) ;
#196 = PRESENTATION_LAYER_ASSIGNMENT (  '', '', ( #27 ) ) ;
#197 = CARTESIAN_POINT ( 'NONE',  ( -6.123233995736766036E-17, 2.500000000000000000, 0.000000000000000000 ) ) ;
#198 = DIRECTION ( 'NONE',  ( -0.000000000000000000, -1.000000000000000000, -0.000000000000000000 ) ) ;
#199 = PRODUCT ( '59256', '59256', '', ( #78 ) ) ;
#200 =( CONVERSION_BASED_UNIT ( 'INCH', #9 ) LENGTH_UNIT ( ) NAMED_UNIT ( #92 ) );
#201 = EDGE_CURVE ( 'NONE', #126, #209, #240, .T. ) ;
#202 = SHAPE_DEFINITION_REPRESENTATION ( #145, #169 ) ;
#203 = CLOSED_SHELL ( 'NONE', ( #125, #104, #171, #302 ) ) ;
#204 = EDGE_LOOP ( 'NONE', ( #283, #64, #15, #282 ) ) ;
#205 = AXIS2_PLACEMENT_3D ( 'NONE', #132, #44, #242 ) ;
#206 = CARTESIAN_POINT ( 'NONE',  ( 0.000000000000000000, 0.000000000000000000, 0.000000000000000000 ) ) ;
#207 = VERTEX_POINT ( 'NONE', #225 ) ;
#208 = PLANE ( 'NONE',  #278 ) ;
#209 = VERTEX_POINT ( 'NONE', #55 ) ;
#210 = DIRECTION ( 'NONE',  ( -0.000000000000000000, -1.000000000000000000, -0.000000000000000000 ) ) ;
#211 = COLOUR_RGB ( '',1.000000000000000000, 0.000000000000000000, 0.000000000000000000 ) ;
#212 = AXIS2_PLACEMENT_3D ( 'NONE', #154, #213, #42 ) ;
#213 = DIRECTION ( 'NONE',  ( -0.000000000000000000, -1.000000000000000000, -0.000000000000000000 ) ) ;
#214 = FILL_AREA_STYLE_COLOUR ( '', #135 ) ;
#215 =( CONVERSION_BASED_UNIT ( 'INCH', #84 ) LENGTH_UNIT ( ) NAMED_UNIT ( #1 ) );
#216 = CARTESIAN_POINT ( 'NONE',  ( 1.913510623667738847E-17, 0.7500000000000001110, 0.1562499999999999722 ) ) ;
#217 = FILL_AREA_STYLE ('',( #214 ) ) ;
#218 = MECHANICAL_DESIGN_GEOMETRIC_PRESENTATION_REPRESENTATION (  '', ( #259 ), #236 ) ;
#219 = SURFACE_SIDE_STYLE ('',( #54 ) ) ;
#220 = EDGE_CURVE ( 'NONE', #209, #234, #157, .T. ) ;
#221 = MECHANICAL_DESIGN_GEOMETRIC_PRESENTATION_REPRESENTATION (  '', ( #47 ), #148 ) ;
#222 = SURFACE_SIDE_STYLE ('',( #226 ) ) ;
#223 = EDGE_LOOP ( 'NONE', ( #178, #86, #150, #229 ) ) ;
#224 = FILL_AREA_STYLE ('',( #88 ) ) ;
#225 = CARTESIAN_POINT ( 'NONE',  ( 0.000000000000000000, 0.7500000000000001110, -0.1562499999999999722 ) ) ;
#226 = SURFACE_STYLE_FILL_AREA ( #248 ) ;
#227 = PRESENTATION_LAYER_ASSIGNMENT (  '', '', ( #47 ) ) ;
#228 = APPLICATION_CONTEXT ( 'automotive_design' ) ;
#229 = ORIENTED_EDGE ( 'NONE', *, *, #294, .F. ) ;
#230 =( NAMED_UNIT ( * ) PLANE_ANGLE_UNIT ( ) SI_UNIT ( $, .RADIAN. ) );
#231 = AXIS2_PLACEMENT_3D ( 'NONE', #249, #252, #29 ) ;
#232 = SURFACE_SIDE_STYLE ('',( #303 ) ) ;
#233 = FACE_OUTER_BOUND ( 'NONE', #260, .T. ) ;
#234 = VERTEX_POINT ( 'NONE', #275 ) ;
#235 = DIRECTION ( 'NONE',  ( 3.498990854706722745E-17, -1.000000000000000000, 0.000000000000000000 ) ) ;
#236 =( GEOMETRIC_REPRESENTATION_CONTEXT ( 3 ) GLOBAL_UNCERTAINTY_ASSIGNED_CONTEXT ( ( #16 ) ) GLOBAL_UNIT_ASSIGNED_CONTEXT ( ( #264, #11, #28 ) ) REPRESENTATION_CONTEXT ( 'NONE', 'WORKASPACE' ) );
#237 = PRODUCT_DEFINITION_CONTEXT ( 'detailed design', #130, 'design' ) ;
#238 = CARTESIAN_POINT ( 'NONE',  ( 0.1562499999999999722, 0.7499999999999998890, 1.913510623667739771E-17 ) ) ;
#239 =( NAMED_UNIT ( * ) SI_UNIT ( $, .STERADIAN. ) SOLID_ANGLE_UNIT ( ) );
#240 = LINE ( 'NONE', #108, #168 ) ;
#241 = CIRCLE ( 'NONE', #181, 0.1562499999999999722 ) ;
#242 = DIRECTION ( 'NONE',  ( -1.000000000000000000, 0.000000000000000000, 0.000000000000000000 ) ) ;
#243 = FILL_AREA_STYLE ('',( #53 ) ) ;
#244 = EDGE_CURVE ( 'NONE', #38, #126, #241, .T. ) ;
#245 = PRESENTATION_STYLE_ASSIGNMENT (( #49 ) ) ;
#246 = STYLED_ITEM ( 'NONE', ( #81 ), #22 ) ;
#247 = ADVANCED_FACE ( 'NONE', ( #143 ), #250, .T. ) ;
#248 = FILL_AREA_STYLE ('',( #117 ) ) ;
#249 = CARTESIAN_POINT ( 'NONE',  ( -6.123233995736766036E-17, 2.500000000000000000, 0.000000000000000000 ) ) ;
#250 = PLANE ( 'NONE',  #89 ) ;
#251 =( LENGTH_UNIT ( ) NAMED_UNIT ( * ) SI_UNIT ( $, .METRE. ) );
#252 = DIRECTION ( 'NONE',  ( -3.498990854706722745E-17, 1.000000000000000000, -0.000000000000000000 ) ) ;
#253 = EDGE_LOOP ( 'NONE', ( #301, #115, #106, #18 ) ) ;
#254 = CIRCLE ( 'NONE', #231, 0.1562500000000000278 ) ;
#255 = ADVANCED_FACE ( 'NONE', ( #110 ), #52, .T. ) ;
#256 = EDGE_LOOP ( 'NONE', ( #151, #153 ) ) ;
#257 = VERTEX_POINT ( 'NONE', #265 ) ;
#258 = DIRECTION ( 'NONE',  ( 0.000000000000000000, -0.000000000000000000, 1.000000000000000000 ) ) ;
#259 = STYLED_ITEM ( 'NONE', ( #291 ), #60 ) ;
#260 = EDGE_LOOP ( 'NONE', ( #101, #70 ) ) ;
#261 = CARTESIAN_POINT ( 'NONE',  ( 0.1562499999999999722, 2.500000000000000000, 0.000000000000000000 ) ) ;
#262 = SURFACE_STYLE_USAGE ( .BOTH. , #232 ) ;
#263 =( NAMED_UNIT ( * ) PLANE_ANGLE_UNIT ( ) SI_UNIT ( $, .RADIAN. ) );
#264 =( CONVERSION_BASED_UNIT ( 'INCH', #167 ) LENGTH_UNIT ( ) NAMED_UNIT ( #288 ) );
#265 = CARTESIAN_POINT ( 'NONE',  ( 1.913510623667739463E-17, 0.000000000000000000, 0.1562500000000000000 ) ) ;
#266 = ORIENTED_EDGE ( 'NONE', *, *, #201, .T. ) ;
#267 =( CONVERSION_BASED_UNIT ( 'INCH', #162 ) LENGTH_UNIT ( ) NAMED_UNIT ( #50 ) );
#268 = CYLINDRICAL_SURFACE ( 'NONE', #205, 0.1562500000000000000 ) ;
#269 = CIRCLE ( 'NONE', #19, 0.1562499999999999722 ) ;
#270 =( LENGTH_UNIT ( ) NAMED_UNIT ( * ) SI_UNIT ( $, .METRE. ) );
#271 = CARTESIAN_POINT ( 'NONE',  ( -7.582401355855259480E-33, 0.7499999999999998890, 0.000000000000000000 ) ) ;
#272 = DIRECTION ( 'NONE',  ( -3.498990854706722745E-17, 1.000000000000000000, -0.000000000000000000 ) ) ;
#273 = DIRECTION ( 'NONE',  ( -0.000000000000000000, -1.000000000000000000, -0.000000000000000000 ) ) ;
#274 = DIRECTION ( 'NONE',  ( -3.498990854706722745E-17, 1.000000000000000000, -0.000000000000000000 ) ) ;
#275 = CARTESIAN_POINT ( 'NONE',  ( -0.1562500000000001110, 2.500000000000000000, 0.000000000000000000 ) ) ;
#276 = COLOUR_RGB ( '',1.000000000000000000, 0.000000000000000000, 0.000000000000000000 ) ;
#277 = ADVANCED_FACE ( 'NONE', ( #80 ), #208, .T. ) ;
#278 = AXIS2_PLACEMENT_3D ( 'NONE', #102, #299, #258 ) ;
#279 = VERTEX_POINT ( 'NONE', #281 ) ;
#280 = FACE_OUTER_BOUND ( 'NONE', #223, .T. ) ;
#281 = CARTESIAN_POINT ( 'NONE',  ( 0.000000000000000000, 0.000000000000000000, -0.1562500000000000000 ) ) ;
#282 = ORIENTED_EDGE ( 'NONE', *, *, #220, .F. ) ;
#283 = ORIENTED_EDGE ( 'NONE', *, *, #201, .F. ) ;
#284 =( NAMED_UNIT ( * ) SI_UNIT ( $, .STERADIAN. ) SOLID_ANGLE_UNIT ( ) );
#285 = PRESENTATION_LAYER_ASSIGNMENT (  '', '', ( #246 ) ) ;
#286 = DIRECTION ( 'NONE',  ( -0.000000000000000000, -1.000000000000000000, -0.000000000000000000 ) ) ;
#287 = DIRECTION ( 'NONE',  ( 0.000000000000000000, -1.000000000000000000, -0.000000000000000000 ) ) ;
#288 = DIMENSIONAL_EXPONENTS ( 1.000000000000000000, 0.000000000000000000, 0.000000000000000000, 0.000000000000000000, 0.000000000000000000, 0.000000000000000000, 0.000000000000000000 ) ;
#289 = AXIS2_PLACEMENT_3D ( 'NONE', #193, #77, #142 ) ;
#290 = DIRECTION ( 'NONE',  ( -0.000000000000000000, -1.000000000000000000, -0.000000000000000000 ) ) ;
#291 = PRESENTATION_STYLE_ASSIGNMENT (( #59 ) ) ;
#292 =( NAMED_UNIT ( * ) PLANE_ANGLE_UNIT ( ) SI_UNIT ( $, .RADIAN. ) );
#293 = FACE_OUTER_BOUND ( 'NONE', #62, .T. ) ;
#294 = EDGE_CURVE ( 'NONE', #207, #279, #98, .T. ) ;
#295 = CARTESIAN_POINT ( 'NONE',  ( -0.1562499999999999722, 0.7499999999999998890, 0.000000000000000000 ) ) ;
#296 = MECHANICAL_DESIGN_GEOMETRIC_PRESENTATION_REPRESENTATION (  '', ( #304 ), #51 ) ;
#297 = AXIS2_PLACEMENT_3D ( 'NONE', #206, #10, #57 ) ;
#298 = ORIENTED_EDGE ( 'NONE', *, *, #244, .T. ) ;
#299 = DIRECTION ( 'NONE',  ( 0.000000000000000000, 1.000000000000000000, 0.000000000000000000 ) ) ;
#300 = UNCERTAINTY_MEASURE_WITH_UNIT (LENGTH_MEASURE( 1.000000000000000082E-05 ), #127, 'distance_accuracy_value', 'NONE');
#301 = ORIENTED_EDGE ( 'NONE', *, *, #74, .F. ) ;
#302 = ADVANCED_FACE ( 'NONE', ( #233 ), #152, .F. ) ;
#303 = SURFACE_STYLE_FILL_AREA ( #158 ) ;
#304 = STYLED_ITEM ( 'NONE', ( #146 ), #119 ) ;
#305 = ORIENTED_EDGE ( 'NONE', *, *, #25, .T. ) ;
#306 =( GEOMETRIC_REPRESENTATION_CONTEXT ( 3 ) GLOBAL_UNCERTAINTY_ASSIGNED_CONTEXT ( ( #39 ) ) GLOBAL_UNIT_ASSIGNED_CONTEXT ( ( #180, #263, #284 ) ) REPRESENTATION_CONTEXT ( 'NONE', 'WORKASPACE' ) );
#307 = SURFACE_STYLE_FILL_AREA ( #217 ) ;
#308 = CARTESIAN_POINT ( 'NONE',  ( -0.1562500000000000833, 2.500000000000000000, 0.000000000000000000 ) ) ;
#309 =( NAMED_UNIT ( * ) PLANE_ANGLE_UNIT ( ) SI_UNIT ( $, .RADIAN. ) );
ENDSEC;
END-ISO-10303-21;
