ISO-10303-21;
HEADER;
FILE_DESCRIPTION (( 'STEP AP214' ),
    '1' );
FILE_NAME ('Micro_EMS-156-4.STEP',
    '2021-09-01T17:44:36',
    ( '' ),
    ( '' ),
    'SwSTEP 2.0',
    'SolidWorks 2020',
    '' );
FILE_SCHEMA (( 'AUTOMOTIVE_DESIGN' ));
ENDSEC;

DATA;
#1 = DIRECTION ( 'NONE',  ( -1.000000000000000000, 0.0000000000000000000, 0.0000000000000000000 ) ) ;
#2 = CONICAL_SURFACE ( 'NONE', #230, 0.07874999999999980627, 0.7853981633974466137 ) ;
#3 = CARTESIAN_POINT ( 'NONE',  ( 6.894761479199598081E-17, 0.0000000000000000000, 0.5629999999999999449 ) ) ;
#4 = VECTOR ( 'NONE', #208, 39.37007874015748143 ) ;
#5 =( NAMED_UNIT ( * ) SI_UNIT ( $, .STERADIAN. ) SOLID_ANGLE_UNIT ( ) );
#6 = ORIENTED_EDGE ( 'NONE', *, *, #235, .F. ) ;
#7 = CARTESIAN_POINT ( 'NONE',  ( 1.170141077868652023E-33, 0.0000000000000000000, 9.554927009839488851E-18 ) ) ;
#8 = ORIENTED_EDGE ( 'NONE', *, *, #113, .T. ) ;
#9 = CYLINDRICAL_SURFACE ( 'NONE', #268, 0.09375000000000001388 ) ;
#10 = ORIENTED_EDGE ( 'NONE', *, *, #113, .F. ) ;
#11 = ORIENTED_EDGE ( 'NONE', *, *, #138, .F. ) ;
#12 = LENGTH_MEASURE_WITH_UNIT ( LENGTH_MEASURE( 0.02539999999999999897 ), #204 );
#13 = FILL_AREA_STYLE ('',( #239 ) ) ;
#14 = LENGTH_MEASURE_WITH_UNIT ( LENGTH_MEASURE( 0.02539999999999999897 ), #269 );
#15 = FACE_OUTER_BOUND ( 'NONE', #63, .T. ) ;
#16 = DIRECTION ( 'NONE',  ( 1.000000000000000000, 0.0000000000000000000, 0.0000000000000000000 ) ) ;
#17 = DIRECTION ( 'NONE',  ( -1.000000000000000000, 0.0000000000000000000, 1.224646799147353207E-16 ) ) ;
#18 = ADVANCED_BREP_SHAPE_REPRESENTATION ( 'Micro_EMS-156-4', ( #102, #227 ), #151 ) ;
#19 = DIMENSIONAL_EXPONENTS ( 1.000000000000000000, 0.0000000000000000000, 0.0000000000000000000, 0.0000000000000000000, 0.0000000000000000000, 0.0000000000000000000, 0.0000000000000000000 ) ;
#20 = VERTEX_POINT ( 'NONE', #185 ) ;
#21 = VECTOR ( 'NONE', #78, 39.37007874015748143 ) ;
#22 = LINE ( 'NONE', #283, #248 ) ;
#23 = CYLINDRICAL_SURFACE ( 'NONE', #215, 0.07802190000000000514 ) ;
#24 = ORIENTED_EDGE ( 'NONE', *, *, #138, .T. ) ;
#25 = ADVANCED_FACE ( 'NONE', ( #40 ), #229, .F. ) ;
#26 = EDGE_LOOP ( 'NONE', ( #6, #170, #255, #143 ) ) ;
#27 = DIRECTION ( 'NONE',  ( -0.0000000000000000000, -0.0000000000000000000, -1.000000000000000000 ) ) ;
#28 = ORIENTED_EDGE ( 'NONE', *, *, #106, .F. ) ;
#29 = DIRECTION ( 'NONE',  ( -1.000000000000000000, 0.0000000000000000000, 1.224646799147353207E-16 ) ) ;
#30 = EDGE_LOOP ( 'NONE', ( #254, #261, #232, #165 ) ) ;
#31 = PRESENTATION_LAYER_ASSIGNMENT (  '', '', ( #85 ) ) ;
#32 = SURFACE_STYLE_USAGE ( .BOTH. , #108 ) ;
#33 = EDGE_CURVE ( 'NONE', #212, #90, #197, .T. ) ;
#34 = UNCERTAINTY_MEASURE_WITH_UNIT (LENGTH_MEASURE( 1.000000000000000082E-05 ), #241, 'distance_accuracy_value', 'NONE');
#35 = AXIS2_PLACEMENT_3D ( 'NONE', #38, #277, #61 ) ;
#36 = DIRECTION ( 'NONE',  ( -1.224646799147353207E-16, -0.0000000000000000000, -1.000000000000000000 ) ) ;
#37 = EDGE_CURVE ( 'NONE', #280, #90, #107, .T. ) ;
#38 = CARTESIAN_POINT ( 'NONE',  ( 0.0000000000000000000, 0.0000000000000000000, 1.984999999999999654 ) ) ;
#39 = CARTESIAN_POINT ( 'NONE',  ( 0.0000000000000000000, 0.0000000000000000000, 2.000000000000000000 ) ) ;
#40 = FACE_OUTER_BOUND ( 'NONE', #121, .T. ) ;
#41 = ORIENTED_EDGE ( 'NONE', *, *, #134, .T. ) ;
#42 = COLOUR_RGB ( '',0.7921568627450980005, 0.8196078431372548767, 0.9333333333333333481 ) ;
#43 = AXIS2_PLACEMENT_3D ( 'NONE', #7, #266, #71 ) ;
#44 = PRODUCT_DEFINITION_SHAPE ( 'NONE', 'NONE',  #201 ) ;
#45 = VERTEX_POINT ( 'NONE', #150 ) ;
#46 = PRESENTATION_STYLE_ASSIGNMENT (( #213 ) ) ;
#47 = ORIENTED_EDGE ( 'NONE', *, *, #152, .F. ) ;
#48 = FACE_OUTER_BOUND ( 'NONE', #265, .T. ) ;
#49 = ADVANCED_FACE ( 'NONE', ( #199 ), #274, .T. ) ;
#50 = DIRECTION ( 'NONE',  ( 0.0000000000000000000, 0.0000000000000000000, 1.000000000000000000 ) ) ;
#51 = CARTESIAN_POINT ( 'NONE',  ( 7.987127902323220081E-17, 0.0000000000000000000, 0.6521984875871288390 ) ) ;
#52 = CIRCLE ( 'NONE', #99, 0.07802190000000000514 ) ;
#53 =( NAMED_UNIT ( * ) PLANE_ANGLE_UNIT ( ) SI_UNIT ( $, .RADIAN. ) );
#54 = CARTESIAN_POINT ( 'NONE',  ( 6.894761479199598081E-17, 0.0000000000000000000, 0.5629999999999999449 ) ) ;
#55 = CARTESIAN_POINT ( 'NONE',  ( -0.07874999999999980627, 0.0000000000000000000, 2.000000000000000000 ) ) ;
#56 = DIRECTION ( 'NONE',  ( 1.000000000000000000, 0.0000000000000000000, 0.0000000000000000000 ) ) ;
#57 = AXIS2_PLACEMENT_3D ( 'NONE', #202, #184, #1 ) ;
#58 = AXIS2_PLACEMENT_3D ( 'NONE', #117, #260, #240 ) ;
#59 = AXIS2_PLACEMENT_3D ( 'NONE', #97, #50, #81 ) ;
#60 = CARTESIAN_POINT ( 'NONE',  ( 7.987127902323220081E-17, 0.0000000000000000000, 0.6521984875871288390 ) ) ;
#61 = DIRECTION ( 'NONE',  ( 1.000000000000000000, 0.0000000000000000000, 0.0000000000000000000 ) ) ;
#62 = CIRCLE ( 'NONE', #285, 0.09375000000000001388 ) ;
#63 = EDGE_LOOP ( 'NONE', ( #236, #118, #287, #218 ) ) ;
#64 = VERTEX_POINT ( 'NONE', #219 ) ;
#65 = DIRECTION ( 'NONE',  ( -1.224646799147353207E-16, -0.0000000000000000000, -1.000000000000000000 ) ) ;
#66 = VERTEX_POINT ( 'NONE', #295 ) ;
#67 = CIRCLE ( 'NONE', #35, 0.09375000000000001388 ) ;
#68 = APPLICATION_PROTOCOL_DEFINITION ( 'draft international standard', 'automotive_design', 1998, #80 ) ;
#69 = ORIENTED_EDGE ( 'NONE', *, *, #79, .T. ) ;
#70 = CARTESIAN_POINT ( 'NONE',  ( 0.0000000000000000000, 0.0000000000000000000, 1.984999999999999654 ) ) ;
#71 = DIRECTION ( 'NONE',  ( -1.000000000000000000, 0.0000000000000000000, 1.224646799147353207E-16 ) ) ;
#72 = EDGE_LOOP ( 'NONE', ( #282, #28, #195, #41 ) ) ;
#73 = LINE ( 'NONE', #281, #258 ) ;
#74 = PRESENTATION_STYLE_ASSIGNMENT (( #32 ) ) ;
#75 = STYLED_ITEM ( 'NONE', ( #46 ), #18 ) ;
#76 = CARTESIAN_POINT ( 'NONE',  ( 0.0000000000000000000, 0.0000000000000000000, 2.000000000000000000 ) ) ;
#77 =( NAMED_UNIT ( * ) PLANE_ANGLE_UNIT ( ) SI_UNIT ( $, .RADIAN. ) );
#78 = DIRECTION ( 'NONE',  ( -0.7071067811865463515, 0.0000000000000000000, -0.7071067811865486830 ) ) ;
#79 = EDGE_CURVE ( 'NONE', #100, #66, #272, .T. ) ;
#80 = APPLICATION_CONTEXT ( 'automotive_design' ) ;
#81 = DIRECTION ( 'NONE',  ( 1.000000000000000000, 0.0000000000000000000, -0.0000000000000000000 ) ) ;
#82 = UNCERTAINTY_MEASURE_WITH_UNIT (LENGTH_MEASURE( 1.000000000000000082E-05 ), #101, 'distance_accuracy_value', 'NONE');
#83 = MECHANICAL_DESIGN_GEOMETRIC_PRESENTATION_REPRESENTATION (  '', ( #75 ), #87 ) ;
#84 = CARTESIAN_POINT ( 'NONE',  ( 0.0000000000000000000, 0.0000000000000000000, 0.0000000000000000000 ) ) ;
#85 = STYLED_ITEM ( 'NONE', ( #74 ), #102 ) ;
#86 = AXIS2_PLACEMENT_3D ( 'NONE', #169, #148, #284 ) ;
#87 =( GEOMETRIC_REPRESENTATION_CONTEXT ( 3 ) GLOBAL_UNCERTAINTY_ASSIGNED_CONTEXT ( ( #224 ) ) GLOBAL_UNIT_ASSIGNED_CONTEXT ( ( #131, #53, #243 ) ) REPRESENTATION_CONTEXT ( 'NONE', 'WORKASPACE' ) );
#88 = ADVANCED_FACE ( 'NONE', ( #176 ), #2, .T. ) ;
#89 = CYLINDRICAL_SURFACE ( 'NONE', #245, 0.07802190000000000514 ) ;
#90 = VERTEX_POINT ( 'NONE', #157 ) ;
#91 = VECTOR ( 'NONE', #129, 39.37007874015748143 ) ;
#92 = CIRCLE ( 'NONE', #58, 0.07874999999999980627 ) ;
#93 = FACE_OUTER_BOUND ( 'NONE', #127, .T. ) ;
#94 = ORIENTED_EDGE ( 'NONE', *, *, #288, .F. ) ;
#95 = DIRECTION ( 'NONE',  ( -0.0000000000000000000, -0.0000000000000000000, -1.000000000000000000 ) ) ;
#96 = DIRECTION ( 'NONE',  ( 1.000000000000000000, 0.0000000000000000000, -0.0000000000000000000 ) ) ;
#97 = CARTESIAN_POINT ( 'NONE',  ( 0.0000000000000000000, 0.0000000000000000000, 0.0000000000000000000 ) ) ;
#98 = EDGE_CURVE ( 'NONE', #149, #45, #112, .T. ) ;
#99 = AXIS2_PLACEMENT_3D ( 'NONE', #3, #36, #137 ) ;
#100 = VERTEX_POINT ( 'NONE', #55 ) ;
#101 =( CONVERSION_BASED_UNIT ( 'INCH', #12 ) LENGTH_UNIT ( ) NAMED_UNIT ( #216 ) );
#102 = MANIFOLD_SOLID_BREP ( 'Cut-Revolve1', #140 ) ;
#103 = SURFACE_STYLE_FILL_AREA ( #13 ) ;
#104 = CARTESIAN_POINT ( 'NONE',  ( -0.07802189999999993575, 1.051799537592296220E-17, 0.5629999999999999449 ) ) ;
#105 = DIRECTION ( 'NONE',  ( 0.7071067811865463515, 8.659560562354916834E-17, -0.7071067811865486830 ) ) ;
#106 = EDGE_CURVE ( 'NONE', #280, #190, #251, .T. ) ;
#107 = LINE ( 'NONE', #154, #91 ) ;
#108 = SURFACE_SIDE_STYLE ('',( #103 ) ) ;
#109 = APPLICATION_PROTOCOL_DEFINITION ( 'draft international standard', 'automotive_design', 1998, #244 ) ;
#110 = CARTESIAN_POINT ( 'NONE',  ( 0.07874999999999980627, 9.644093543285380530E-18, 2.000000000000000000 ) ) ;
#111 = CONICAL_SURFACE ( 'NONE', #86, 0.07874999999999980627, 0.7853981633974466137 ) ;
#112 = CIRCLE ( 'NONE', #192, 0.07802190000000000514 ) ;
#113 = EDGE_CURVE ( 'NONE', #66, #64, #67, .T. ) ;
#114 =( NAMED_UNIT ( * ) SI_UNIT ( $, .STERADIAN. ) SOLID_ANGLE_UNIT ( ) );
#115 = DIRECTION ( 'NONE',  ( 1.000000000000000000, 0.0000000000000000000, 0.0000000000000000000 ) ) ;
#116 = EDGE_CURVE ( 'NONE', #190, #280, #52, .T. ) ;
#117 = CARTESIAN_POINT ( 'NONE',  ( 0.0000000000000000000, 0.0000000000000000000, 2.000000000000000000 ) ) ;
#118 = ORIENTED_EDGE ( 'NONE', *, *, #228, .T. ) ;
#119 = CONICAL_SURFACE ( 'NONE', #275, 0.07802190000000000514, 0.1745329251994338082 ) ;
#120 = DIRECTION ( 'NONE',  ( -1.224646799147353207E-16, -0.0000000000000000000, -1.000000000000000000 ) ) ;
#121 = EDGE_LOOP ( 'NONE', ( #263, #125 ) ) ;
#122 = FILL_AREA_STYLE_COLOUR ( '', #179 ) ;
#123 = EDGE_LOOP ( 'NONE', ( #47, #24, #10, #168 ) ) ;
#124 =( NAMED_UNIT ( * ) PLANE_ANGLE_UNIT ( ) SI_UNIT ( $, .RADIAN. ) );
#125 = ORIENTED_EDGE ( 'NONE', *, *, #98, .T. ) ;
#126 = FACE_OUTER_BOUND ( 'NONE', #26, .T. ) ;
#127 = EDGE_LOOP ( 'NONE', ( #290, #147, #161, #141 ) ) ;
#128 = PRODUCT_CONTEXT ( 'NONE', #80, 'mechanical' ) ;
#129 = DIRECTION ( 'NONE',  ( 0.1736481776669313026, 0.0000000000000000000, 0.9848077530122077983 ) ) ;
#130 = ADVANCED_FACE ( 'NONE', ( #226 ), #89, .T. ) ;
#131 =( CONVERSION_BASED_UNIT ( 'INCH', #221 ) LENGTH_UNIT ( ) NAMED_UNIT ( #256 ) );
#132 = DIRECTION ( 'NONE',  ( 1.000000000000000000, 0.0000000000000000000, 0.0000000000000000000 ) ) ;
#133 = AXIS2_PLACEMENT_3D ( 'NONE', #51, #292, #16 ) ;
#134 = EDGE_CURVE ( 'NONE', #90, #212, #62, .T. ) ;
#135 = AXIS2_PLACEMENT_3D ( 'NONE', #76, #153, #132 ) ;
#136 = AXIS2_PLACEMENT_3D ( 'NONE', #164, #95, #188 ) ;
#137 = DIRECTION ( 'NONE',  ( -1.000000000000000000, 0.0000000000000000000, 0.0000000000000000000 ) ) ;
#138 = EDGE_CURVE ( 'NONE', #20, #64, #247, .T. ) ;
#139 = DIRECTION ( 'NONE',  ( 0.0000000000000000000, 0.0000000000000000000, -1.000000000000000000 ) ) ;
#140 = CLOSED_SHELL ( 'NONE', ( #130, #156, #276, #270, #297, #160, #88, #49, #253, #25 ) ) ;
#141 = ORIENTED_EDGE ( 'NONE', *, *, #98, .F. ) ;
#142 = DIRECTION ( 'NONE',  ( 1.224646799147353207E-16, 0.0000000000000000000, 1.000000000000000000 ) ) ;
#143 = ORIENTED_EDGE ( 'NONE', *, *, #134, .F. ) ;
#144 = VECTOR ( 'NONE', #172, 39.37007874015747433 ) ;
#145 = ORIENTED_EDGE ( 'NONE', *, *, #33, .F. ) ;
#146 = LINE ( 'NONE', #286, #144 ) ;
#147 = ORIENTED_EDGE ( 'NONE', *, *, #106, .T. ) ;
#148 = DIRECTION ( 'NONE',  ( 0.0000000000000000000, 0.0000000000000000000, -1.000000000000000000 ) ) ;
#149 = VERTEX_POINT ( 'NONE', #294 ) ;
#150 = CARTESIAN_POINT ( 'NONE',  ( -0.07802190000000000514, 0.0000000000000000000, 1.910985401967897770E-17 ) ) ;
#151 =( GEOMETRIC_REPRESENTATION_CONTEXT ( 3 ) GLOBAL_UNCERTAINTY_ASSIGNED_CONTEXT ( ( #82 ) ) GLOBAL_UNIT_ASSIGNED_CONTEXT ( ( #101, #124, #5 ) ) REPRESENTATION_CONTEXT ( 'NONE', 'WORKASPACE' ) );
#152 = EDGE_CURVE ( 'NONE', #20, #100, #267, .T. ) ;
#153 = DIRECTION ( 'NONE',  ( 0.0000000000000000000, 0.0000000000000000000, 1.000000000000000000 ) ) ;
#154 = CARTESIAN_POINT ( 'NONE',  ( 0.07802190000000007453, 0.0000000000000000000, 0.5629999999999999449 ) ) ;
#155 = VECTOR ( 'NONE', #194, 39.37007874015748143 ) ;
#156 = ADVANCED_FACE ( 'NONE', ( #15 ), #119, .T. ) ;
#157 = CARTESIAN_POINT ( 'NONE',  ( 0.09375000000000009714, 1.148106374200644787E-17, 0.6521984875871288390 ) ) ;
#158 = EDGE_CURVE ( 'NONE', #190, #45, #22, .T. ) ;
#159 = DIRECTION ( 'NONE',  ( -1.224646799147353207E-16, -0.0000000000000000000, -1.000000000000000000 ) ) ;
#160 = ADVANCED_FACE ( 'NONE', ( #203 ), #278, .T. ) ;
#161 = ORIENTED_EDGE ( 'NONE', *, *, #158, .T. ) ;
#162 = DIRECTION ( 'NONE',  ( -1.000000000000000000, 0.0000000000000000000, 0.0000000000000000000 ) ) ;
#163 = ORIENTED_EDGE ( 'NONE', *, *, #152, .T. ) ;
#164 = CARTESIAN_POINT ( 'NONE',  ( 0.0000000000000000000, 0.0000000000000000000, 2.000000000000000000 ) ) ;
#165 = ORIENTED_EDGE ( 'NONE', *, *, #158, .F. ) ;
#166 = AXIS2_PLACEMENT_3D ( 'NONE', #39, #209, #96 ) ;
#167 = SURFACE_STYLE_FILL_AREA ( #191 ) ;
#168 = ORIENTED_EDGE ( 'NONE', *, *, #79, .F. ) ;
#169 = CARTESIAN_POINT ( 'NONE',  ( 0.0000000000000000000, 0.0000000000000000000, 2.000000000000000000 ) ) ;
#170 = ORIENTED_EDGE ( 'NONE', *, *, #207, .T. ) ;
#171 = DIRECTION ( 'NONE',  ( -1.224646799147353207E-16, -0.0000000000000000000, -1.000000000000000000 ) ) ;
#172 = DIRECTION ( 'NONE',  ( -0.1736481776669311083, 2.126576849575782084E-17, 0.9848077530122080203 ) ) ;
#173 = PRODUCT_DEFINITION_FORMATION_WITH_SPECIFIED_SOURCE ( 'ANY', '', #181, .NOT_KNOWN. ) ;
#174 = DIRECTION ( 'NONE',  ( 1.000000000000000000, 0.0000000000000000000, 0.0000000000000000000 ) ) ;
#175 = CARTESIAN_POINT ( 'NONE',  ( 0.0000000000000000000, 0.0000000000000000000, 0.0000000000000000000 ) ) ;
#176 = FACE_OUTER_BOUND ( 'NONE', #238, .T. ) ;
#177 = AXIS2_PLACEMENT_3D ( 'NONE', #54, #242, #174 ) ;
#178 = EDGE_CURVE ( 'NONE', #100, #20, #92, .T. ) ;
#179 = COLOUR_RGB ( '',0.7921568627450980005, 0.8196078431372548767, 0.9333333333333333481 ) ;
#180 = DIRECTION ( 'NONE',  ( -1.224646799147353207E-16, -0.0000000000000000000, -1.000000000000000000 ) ) ;
#181 = PRODUCT ( 'Micro_EMS-156-4', 'Micro_EMS-156-4', '', ( #128 ) ) ;
#182 = PRESENTATION_LAYER_ASSIGNMENT (  '', '', ( #75 ) ) ;
#183 = PRODUCT_RELATED_PRODUCT_CATEGORY ( 'part', '', ( #181 ) ) ;
#184 = DIRECTION ( 'NONE',  ( -1.224646799147353207E-16, -0.0000000000000000000, -1.000000000000000000 ) ) ;
#185 = CARTESIAN_POINT ( 'NONE',  ( 0.07874999999999980627, 1.056257864264590573E-17, 2.000000000000000000 ) ) ;
#186 = CYLINDRICAL_SURFACE ( 'NONE', #136, 0.09375000000000001388 ) ;
#187 = ORIENTED_EDGE ( 'NONE', *, *, #207, .F. ) ;
#188 = DIRECTION ( 'NONE',  ( -1.000000000000000000, 0.0000000000000000000, 0.0000000000000000000 ) ) ;
#189 = DIRECTION ( 'NONE',  ( 1.000000000000000000, 0.0000000000000000000, 0.0000000000000000000 ) ) ;
#190 = VERTEX_POINT ( 'NONE', #104 ) ;
#191 = FILL_AREA_STYLE ('',( #122 ) ) ;
#192 = AXIS2_PLACEMENT_3D ( 'NONE', #223, #171, #17 ) ;
#193 = DIRECTION ( 'NONE',  ( 1.000000000000000000, 0.0000000000000000000, 0.0000000000000000000 ) ) ;
#194 = DIRECTION ( 'NONE',  ( -0.0000000000000000000, -0.0000000000000000000, -1.000000000000000000 ) ) ;
#195 = ORIENTED_EDGE ( 'NONE', *, *, #37, .T. ) ;
#196 = CARTESIAN_POINT ( 'NONE',  ( 0.0000000000000000000, 0.0000000000000000000, 2.000000000000000000 ) ) ;
#197 = CIRCLE ( 'NONE', #133, 0.09375000000000001388 ) ;
#198 = CARTESIAN_POINT ( 'NONE',  ( 6.894761479199598081E-17, 0.0000000000000000000, 0.5629999999999999449 ) ) ;
#199 = FACE_OUTER_BOUND ( 'NONE', #72, .T. ) ;
#200 = DIRECTION ( 'NONE',  ( 0.0000000000000000000, 0.0000000000000000000, -1.000000000000000000 ) ) ;
#201 = PRODUCT_DEFINITION ( 'UNKNOWN', '', #173, #273 ) ;
#202 = CARTESIAN_POINT ( 'NONE',  ( 6.894761479199598081E-17, 0.0000000000000000000, 0.5629999999999999449 ) ) ;
#203 = FACE_OUTER_BOUND ( 'NONE', #233, .T. ) ;
#204 =( LENGTH_UNIT ( ) NAMED_UNIT ( * ) SI_UNIT ( $, .METRE. ) );
#205 = CIRCLE ( 'NONE', #43, 0.07802190000000000514 ) ;
#206 = ORIENTED_EDGE ( 'NONE', *, *, #235, .T. ) ;
#207 = EDGE_CURVE ( 'NONE', #64, #66, #249, .T. ) ;
#208 = DIRECTION ( 'NONE',  ( -1.224646799147353207E-16, -0.0000000000000000000, -1.000000000000000000 ) ) ;
#209 = DIRECTION ( 'NONE',  ( 0.0000000000000000000, 0.0000000000000000000, 1.000000000000000000 ) ) ;
#210 = ORIENTED_EDGE ( 'NONE', *, *, #178, .T. ) ;
#211 = CARTESIAN_POINT ( 'NONE',  ( 0.0000000000000000000, 0.0000000000000000000, 0.0000000000000000000 ) ) ;
#212 = VERTEX_POINT ( 'NONE', #246 ) ;
#213 = SURFACE_STYLE_USAGE ( .BOTH. , #262 ) ;
#214 = ORIENTED_EDGE ( 'NONE', *, *, #178, .F. ) ;
#215 = AXIS2_PLACEMENT_3D ( 'NONE', #211, #120, #29 ) ;
#216 = DIMENSIONAL_EXPONENTS ( 1.000000000000000000, 0.0000000000000000000, 0.0000000000000000000, 0.0000000000000000000, 0.0000000000000000000, 0.0000000000000000000, 0.0000000000000000000 ) ;
#217 = DIRECTION ( 'NONE',  ( -0.0000000000000000000, -0.0000000000000000000, -1.000000000000000000 ) ) ;
#218 = ORIENTED_EDGE ( 'NONE', *, *, #37, .F. ) ;
#219 = CARTESIAN_POINT ( 'NONE',  ( 0.09375000000000001388, 1.148106374200643863E-17, 1.984999999999999654 ) ) ;
#220 = CARTESIAN_POINT ( 'NONE',  ( -0.07874999999999980627, 0.0000000000000000000, 2.000000000000000000 ) ) ;
#221 = LENGTH_MEASURE_WITH_UNIT ( LENGTH_MEASURE( 0.02539999999999999897 ), #293 );
#222 = EDGE_CURVE ( 'NONE', #45, #149, #205, .T. ) ;
#223 = CARTESIAN_POINT ( 'NONE',  ( 1.170141077868652023E-33, 0.0000000000000000000, 9.554927009839488851E-18 ) ) ;
#224 = UNCERTAINTY_MEASURE_WITH_UNIT (LENGTH_MEASURE( 1.000000000000000082E-05 ), #131, 'distance_accuracy_value', 'NONE');
#225 = VECTOR ( 'NONE', #105, 39.37007874015748143 ) ;
#226 = FACE_OUTER_BOUND ( 'NONE', #30, .T. ) ;
#227 = AXIS2_PLACEMENT_3D ( 'NONE', #175, #298, #56 ) ;
#228 = EDGE_CURVE ( 'NONE', #190, #212, #146, .T. ) ;
#229 = PLANE ( 'NONE',  #59 ) ;
#230 = AXIS2_PLACEMENT_3D ( 'NONE', #196, #200, #296 ) ;
#231 = FACE_OUTER_BOUND ( 'NONE', #123, .T. ) ;
#232 = ORIENTED_EDGE ( 'NONE', *, *, #222, .F. ) ;
#233 = EDGE_LOOP ( 'NONE', ( #210, #163 ) ) ;
#234 = LINE ( 'NONE', #264, #155 ) ;
#235 = EDGE_CURVE ( 'NONE', #64, #90, #234, .T. ) ;
#236 = ORIENTED_EDGE ( 'NONE', *, *, #116, .F. ) ;
#237 = CARTESIAN_POINT ( 'NONE',  ( 0.07802190000000007453, 0.0000000000000000000, 0.5629999999999999449 ) ) ;
#238 = EDGE_LOOP ( 'NONE', ( #11, #214, #69, #187 ) ) ;
#239 = FILL_AREA_STYLE_COLOUR ( '', #42 ) ;
#240 = DIRECTION ( 'NONE',  ( 1.000000000000000000, 0.0000000000000000000, 0.0000000000000000000 ) ) ;
#241 =( CONVERSION_BASED_UNIT ( 'INCH', #14 ) LENGTH_UNIT ( ) NAMED_UNIT ( #19 ) );
#242 = DIRECTION ( 'NONE',  ( 1.224646799147353207E-16, 0.0000000000000000000, 1.000000000000000000 ) ) ;
#243 =( NAMED_UNIT ( * ) SI_UNIT ( $, .STERADIAN. ) SOLID_ANGLE_UNIT ( ) );
#244 = APPLICATION_CONTEXT ( 'automotive_design' ) ;
#245 = AXIS2_PLACEMENT_3D ( 'NONE', #84, #180, #279 ) ;
#246 = CARTESIAN_POINT ( 'NONE',  ( -0.09374999999999991673, 0.0000000000000000000, 0.6521984875871288390 ) ) ;
#247 = LINE ( 'NONE', #110, #225 ) ;
#248 = VECTOR ( 'NONE', #65, 39.37007874015748143 ) ;
#249 = CIRCLE ( 'NONE', #252, 0.09375000000000001388 ) ;
#250 = EDGE_CURVE ( 'NONE', #280, #149, #291, .T. ) ;
#251 = CIRCLE ( 'NONE', #57, 0.07802190000000000514 ) ;
#252 = AXIS2_PLACEMENT_3D ( 'NONE', #70, #139, #189 ) ;
#253 = ADVANCED_FACE ( 'NONE', ( #93 ), #23, .T. ) ;
#254 = ORIENTED_EDGE ( 'NONE', *, *, #116, .T. ) ;
#255 = ORIENTED_EDGE ( 'NONE', *, *, #288, .T. ) ;
#256 = DIMENSIONAL_EXPONENTS ( 1.000000000000000000, 0.0000000000000000000, 0.0000000000000000000, 0.0000000000000000000, 0.0000000000000000000, 0.0000000000000000000, 0.0000000000000000000 ) ;
#257 =( GEOMETRIC_REPRESENTATION_CONTEXT ( 3 ) GLOBAL_UNCERTAINTY_ASSIGNED_CONTEXT ( ( #34 ) ) GLOBAL_UNIT_ASSIGNED_CONTEXT ( ( #241, #77, #114 ) ) REPRESENTATION_CONTEXT ( 'NONE', 'WORKASPACE' ) );
#258 = VECTOR ( 'NONE', #27, 39.37007874015748143 ) ;
#259 = CARTESIAN_POINT ( 'NONE',  ( 0.0000000000000000000, 0.0000000000000000000, 2.000000000000000000 ) ) ;
#260 = DIRECTION ( 'NONE',  ( 0.0000000000000000000, 0.0000000000000000000, 1.000000000000000000 ) ) ;
#261 = ORIENTED_EDGE ( 'NONE', *, *, #250, .T. ) ;
#262 = SURFACE_SIDE_STYLE ('',( #167 ) ) ;
#263 = ORIENTED_EDGE ( 'NONE', *, *, #222, .T. ) ;
#264 = CARTESIAN_POINT ( 'NONE',  ( 0.09375000000000001388, 1.148106374200643863E-17, 2.000000000000000000 ) ) ;
#265 = EDGE_LOOP ( 'NONE', ( #8, #206, #145, #94 ) ) ;
#266 = DIRECTION ( 'NONE',  ( -1.224646799147353207E-16, -0.0000000000000000000, -1.000000000000000000 ) ) ;
#267 = CIRCLE ( 'NONE', #135, 0.07874999999999980627 ) ;
#268 = AXIS2_PLACEMENT_3D ( 'NONE', #259, #217, #162 ) ;
#269 =( LENGTH_UNIT ( ) NAMED_UNIT ( * ) SI_UNIT ( $, .METRE. ) );
#270 = ADVANCED_FACE ( 'NONE', ( #48 ), #186, .T. ) ;
#271 = SHAPE_DEFINITION_REPRESENTATION ( #44, #18 ) ;
#272 = LINE ( 'NONE', #220, #21 ) ;
#273 = PRODUCT_DEFINITION_CONTEXT ( 'detailed design', #244, 'design' ) ;
#274 = CONICAL_SURFACE ( 'NONE', #177, 0.07802190000000000514, 0.1745329251994338082 ) ;
#275 = AXIS2_PLACEMENT_3D ( 'NONE', #198, #142, #115 ) ;
#276 = ADVANCED_FACE ( 'NONE', ( #231 ), #111, .T. ) ;
#277 = DIRECTION ( 'NONE',  ( 0.0000000000000000000, 0.0000000000000000000, -1.000000000000000000 ) ) ;
#278 = PLANE ( 'NONE',  #166 ) ;
#279 = DIRECTION ( 'NONE',  ( -1.000000000000000000, 0.0000000000000000000, 1.224646799147353207E-16 ) ) ;
#280 = VERTEX_POINT ( 'NONE', #237 ) ;
#281 = CARTESIAN_POINT ( 'NONE',  ( -0.09375000000000001388, 0.0000000000000000000, 2.000000000000000000 ) ) ;
#282 = ORIENTED_EDGE ( 'NONE', *, *, #228, .F. ) ;
#283 = CARTESIAN_POINT ( 'NONE',  ( -0.07802190000000000514, 0.0000000000000000000, 9.554927009839488851E-18 ) ) ;
#284 = DIRECTION ( 'NONE',  ( -1.000000000000000000, 0.0000000000000000000, 0.0000000000000000000 ) ) ;
#285 = AXIS2_PLACEMENT_3D ( 'NONE', #60, #159, #193 ) ;
#286 = CARTESIAN_POINT ( 'NONE',  ( -0.07802189999999993575, 9.554927009839488851E-18, 0.5629999999999999449 ) ) ;
#287 = ORIENTED_EDGE ( 'NONE', *, *, #33, .T. ) ;
#288 = EDGE_CURVE ( 'NONE', #66, #212, #73, .T. ) ;
#289 = CARTESIAN_POINT ( 'NONE',  ( 0.07802190000000000514, 9.554927009839488851E-18, -9.554927009839488851E-18 ) ) ;
#290 = ORIENTED_EDGE ( 'NONE', *, *, #250, .F. ) ;
#291 = LINE ( 'NONE', #289, #4 ) ;
#292 = DIRECTION ( 'NONE',  ( -1.224646799147353207E-16, -0.0000000000000000000, -1.000000000000000000 ) ) ;
#293 =( LENGTH_UNIT ( ) NAMED_UNIT ( * ) SI_UNIT ( $, .METRE. ) );
#294 = CARTESIAN_POINT ( 'NONE',  ( 0.07802190000000000514, 9.554927009839488851E-18, 0.0000000000000000000 ) ) ;
#295 = CARTESIAN_POINT ( 'NONE',  ( -0.09375000000000001388, 0.0000000000000000000, 1.984999999999999654 ) ) ;
#296 = DIRECTION ( 'NONE',  ( -1.000000000000000000, 0.0000000000000000000, 0.0000000000000000000 ) ) ;
#297 = ADVANCED_FACE ( 'NONE', ( #126 ), #9, .T. ) ;
#298 = DIRECTION ( 'NONE',  ( 0.0000000000000000000, 0.0000000000000000000, 1.000000000000000000 ) ) ;
#299 = MECHANICAL_DESIGN_GEOMETRIC_PRESENTATION_REPRESENTATION (  '', ( #85 ), #257 ) ;
ENDSEC;
END-ISO-10303-21;
