ISO-10303-21;
HEADER;
FILE_DESCRIPTION (( 'STEP AP214' ),
    '1' );
FILE_NAME ('Micro_GEM-625-4X.STEP',
    '2021-09-01T21:00:58',
    ( '' ),
    ( '' ),
    'SwSTEP 2.0',
    'SolidWorks 2020',
    '' );
FILE_SCHEMA (( 'AUTOMOTIVE_DESIGN' ));
ENDSEC;

DATA;
#1 = ORIENTED_EDGE ( 'NONE', *, *, #145, .F. ) ;
#2 = ADVANCED_FACE ( 'NONE', ( #50 ), #94, .T. ) ;
#3 = AXIS2_PLACEMENT_3D ( 'NONE', #142, #92, #180 ) ;
#4 = FILL_AREA_STYLE ('',( #217 ) ) ;
#5 = ADVANCED_FACE ( 'NONE', ( #51 ), #107, .F. ) ;
#6 = DIRECTION ( 'NONE',  ( -1.224646799147353207E-16, -0.0000000000000000000, -1.000000000000000000 ) ) ;
#7 = AXIS2_PLACEMENT_3D ( 'NONE', #32, #216, #123 ) ;
#8 = CARTESIAN_POINT ( 'NONE',  ( 0.0000000000000000000, 0.0000000000000000000, 3.500000000000000000 ) ) ;
#9 = FACE_OUTER_BOUND ( 'NONE', #26, .T. ) ;
#10 = APPLICATION_CONTEXT ( 'automotive_design' ) ;
#11 = CARTESIAN_POINT ( 'NONE',  ( -0.3125000000000000000, 0.0000000000000000000, 3.484999999999999432 ) ) ;
#12 = DIRECTION ( 'NONE',  ( 0.0000000000000000000, 0.0000000000000000000, 1.000000000000000000 ) ) ;
#13 = EDGE_CURVE ( 'NONE', #72, #185, #186, .T. ) ;
#14 = DIRECTION ( 'NONE',  ( -1.224646799147353207E-16, -0.0000000000000000000, -1.000000000000000000 ) ) ;
#15 = CARTESIAN_POINT ( 'NONE',  ( 0.2975000000000003197, 3.643324227463378817E-17, 3.500000000000000000 ) ) ;
#16 = DIRECTION ( 'NONE',  ( 0.7071067811865346942, 8.659560562354773853E-17, -0.7071067811865603403 ) ) ;
#17 = LINE ( 'NONE', #98, #96 ) ;
#18 = EDGE_CURVE ( 'NONE', #229, #28, #252, .T. ) ;
#19 = ORIENTED_EDGE ( 'NONE', *, *, #192, .F. ) ;
#20 = STYLED_ITEM ( 'NONE', ( #263 ), #237 ) ;
#21 = DIRECTION ( 'NONE',  ( 0.0000000000000000000, 0.0000000000000000000, -1.000000000000000000 ) ) ;
#22 = VECTOR ( 'NONE', #16, 39.37007874015748143 ) ;
#23 = ORIENTED_EDGE ( 'NONE', *, *, #200, .F. ) ;
#24 = DIRECTION ( 'NONE',  ( -1.000000000000000000, 0.0000000000000000000, 0.0000000000000000000 ) ) ;
#25 = VERTEX_POINT ( 'NONE', #211 ) ;
#26 = EDGE_LOOP ( 'NONE', ( #187, #287, #93, #23 ) ) ;
#27 = CONICAL_SURFACE ( 'NONE', #58, 0.3121874999999999512, 0.1745329251994338915 ) ;
#28 = VERTEX_POINT ( 'NONE', #113 ) ;
#29 = DIRECTION ( 'NONE',  ( -1.000000000000000000, 0.0000000000000000000, 1.224646799147353207E-16 ) ) ;
#30 = APPLICATION_CONTEXT ( 'automotive_design' ) ;
#31 = DIRECTION ( 'NONE',  ( -1.000000000000000000, 0.0000000000000000000, 1.224646799147353207E-16 ) ) ;
#32 = CARTESIAN_POINT ( 'NONE',  ( 0.0000000000000000000, 0.0000000000000000000, 3.500000000000000000 ) ) ;
#33 = AXIS2_PLACEMENT_3D ( 'NONE', #283, #172, #240 ) ;
#34 = SURFACE_STYLE_FILL_AREA ( #4 ) ;
#35 = ADVANCED_FACE ( 'NONE', ( #208 ), #201, .T. ) ;
#36 = SURFACE_STYLE_USAGE ( .BOTH. , #281 ) ;
#37 =( GEOMETRIC_REPRESENTATION_CONTEXT ( 3 ) GLOBAL_UNCERTAINTY_ASSIGNED_CONTEXT ( ( #61 ) ) GLOBAL_UNIT_ASSIGNED_CONTEXT ( ( #173, #124, #175 ) ) REPRESENTATION_CONTEXT ( 'NONE', 'WORKASPACE' ) );
#38 = DIRECTION ( 'NONE',  ( -0.0000000000000000000, -0.0000000000000000000, -1.000000000000000000 ) ) ;
#39 = PRODUCT_RELATED_PRODUCT_CATEGORY ( 'part', '', ( #141 ) ) ;
#40 = FACE_OUTER_BOUND ( 'NONE', #161, .T. ) ;
#41 =( NAMED_UNIT ( * ) SI_UNIT ( $, .STERADIAN. ) SOLID_ANGLE_UNIT ( ) );
#42 = VECTOR ( 'NONE', #262, 39.37007874015748143 ) ;
#43 = LENGTH_MEASURE_WITH_UNIT ( LENGTH_MEASURE( 0.02539999999999999897 ), #225 );
#44 = CARTESIAN_POINT ( 'NONE',  ( 1.530808498934191571E-16, 0.0000000000000000000, 1.250000000000000000 ) ) ;
#45 = DIRECTION ( 'NONE',  ( 0.0000000000000000000, 0.0000000000000000000, 1.000000000000000000 ) ) ;
#46 = EDGE_LOOP ( 'NONE', ( #143, #140, #166, #54 ) ) ;
#47 = AXIS2_PLACEMENT_3D ( 'NONE', #296, #133, #277 ) ;
#48 = CARTESIAN_POINT ( 'NONE',  ( -0.3121874999999998401, 3.823194226088143379E-17, 1.250000000000000000 ) ) ;
#49 = ORIENTED_EDGE ( 'NONE', *, *, #145, .T. ) ;
#50 = FACE_OUTER_BOUND ( 'NONE', #68, .T. ) ;
#51 = FACE_OUTER_BOUND ( 'NONE', #114, .T. ) ;
#52 = VERTEX_POINT ( 'NONE', #274 ) ;
#53 = VERTEX_POINT ( 'NONE', #247 ) ;
#54 = ORIENTED_EDGE ( 'NONE', *, *, #149, .F. ) ;
#55 = PLANE ( 'NONE',  #7 ) ;
#56 = DIRECTION ( 'NONE',  ( -0.0000000000000000000, -0.0000000000000000000, -1.000000000000000000 ) ) ;
#57 =( LENGTH_UNIT ( ) NAMED_UNIT ( * ) SI_UNIT ( $, .METRE. ) );
#58 = AXIS2_PLACEMENT_3D ( 'NONE', #44, #108, #157 ) ;
#59 = CARTESIAN_POINT ( 'NONE',  ( 0.0000000000000000000, 0.0000000000000000000, 3.484999999999999432 ) ) ;
#60 = DIRECTION ( 'NONE',  ( 0.0000000000000000000, 0.0000000000000000000, -1.000000000000000000 ) ) ;
#61 = UNCERTAINTY_MEASURE_WITH_UNIT (LENGTH_MEASURE( 1.000000000000000082E-05 ), #173, 'distance_accuracy_value', 'NONE');
#62 = FACE_OUTER_BOUND ( 'NONE', #46, .T. ) ;
#63 =( LENGTH_UNIT ( ) NAMED_UNIT ( * ) SI_UNIT ( $, .METRE. ) );
#64 = CIRCLE ( 'NONE', #163, 0.3121874999999999512 ) ;
#65 = DIRECTION ( 'NONE',  ( 0.0000000000000000000, 0.0000000000000000000, 1.000000000000000000 ) ) ;
#66 = ORIENTED_EDGE ( 'NONE', *, *, #155, .T. ) ;
#67 = LINE ( 'NONE', #15, #22 ) ;
#68 = EDGE_LOOP ( 'NONE', ( #88, #188, #137, #295 ) ) ;
#69 = ADVANCED_BREP_SHAPE_REPRESENTATION ( 'Micro_GEM-625-4X', ( #237, #95 ), #239 ) ;
#70 = DIRECTION ( 'NONE',  ( -1.224646799147353207E-16, -0.0000000000000000000, -1.000000000000000000 ) ) ;
#71 = MECHANICAL_DESIGN_GEOMETRIC_PRESENTATION_REPRESENTATION (  '', ( #20 ), #37 ) ;
#72 = VERTEX_POINT ( 'NONE', #165 ) ;
#73 = EDGE_LOOP ( 'NONE', ( #1, #112, #209, #226 ) ) ;
#74 = CLOSED_SHELL ( 'NONE', ( #110, #78, #2, #183, #276, #170, #101, #210, #35, #5 ) ) ;
#75 = AXIS2_PLACEMENT_3D ( 'NONE', #286, #241, #125 ) ;
#76 = CARTESIAN_POINT ( 'NONE',  ( 4.682062571497486343E-33, 0.0000000000000000000, 3.823194226088142147E-17 ) ) ;
#77 = CARTESIAN_POINT ( 'NONE',  ( 0.3121874999999998956, 3.823194226088142147E-17, -3.823194226088142147E-17 ) ) ;
#78 = ADVANCED_FACE ( 'NONE', ( #256 ), #27, .T. ) ;
#79 = AXIS2_PLACEMENT_3D ( 'NONE', #270, #14, #104 ) ;
#80 = LENGTH_MEASURE_WITH_UNIT ( LENGTH_MEASURE( 0.02539999999999999897 ), #57 );
#81 = CARTESIAN_POINT ( 'NONE',  ( 0.3125000000000000000, 3.827021247335478926E-17, 3.500000000000000000 ) ) ;
#82 = UNCERTAINTY_MEASURE_WITH_UNIT (LENGTH_MEASURE( 1.000000000000000082E-05 ), #244, 'distance_accuracy_value', 'NONE');
#83 = DIRECTION ( 'NONE',  ( 0.0000000000000000000, 0.0000000000000000000, -1.000000000000000000 ) ) ;
#84 = APPLICATION_PROTOCOL_DEFINITION ( 'draft international standard', 'automotive_design', 1998, #30 ) ;
#85 = FILL_AREA_STYLE ('',( #156 ) ) ;
#86 = CARTESIAN_POINT ( 'NONE',  ( 0.0000000000000000000, 0.0000000000000000000, 0.0000000000000000000 ) ) ;
#87 = AXIS2_PLACEMENT_3D ( 'NONE', #102, #83, #227 ) ;
#88 = ORIENTED_EDGE ( 'NONE', *, *, #289, .F. ) ;
#89 = ORIENTED_EDGE ( 'NONE', *, *, #289, .T. ) ;
#90 = PRODUCT_DEFINITION ( 'UNKNOWN', '', #169, #220 ) ;
#91 = CARTESIAN_POINT ( 'NONE',  ( 0.0000000000000000000, 0.0000000000000000000, 3.500000000000000000 ) ) ;
#92 = DIRECTION ( 'NONE',  ( -1.224646799147353207E-16, -0.0000000000000000000, -1.000000000000000000 ) ) ;
#93 = ORIENTED_EDGE ( 'NONE', *, *, #13, .T. ) ;
#94 = CONICAL_SURFACE ( 'NONE', #152, 0.2975000000000003197, 0.7853981633974300713 ) ;
#95 = AXIS2_PLACEMENT_3D ( 'NONE', #249, #45, #135 ) ;
#96 = VECTOR ( 'NONE', #178, 39.37007874015748143 ) ;
#97 = FACE_OUTER_BOUND ( 'NONE', #204, .T. ) ;
#98 = CARTESIAN_POINT ( 'NONE',  ( -0.3121874999999998956, 0.0000000000000000000, 3.823194226088142147E-17 ) ) ;
#99 = CARTESIAN_POINT ( 'NONE',  ( 0.3121875000000001177, 0.0000000000000000000, 1.250000000000000000 ) ) ;
#100 = AXIS2_PLACEMENT_3D ( 'NONE', #59, #215, #196 ) ;
#101 = ADVANCED_FACE ( 'NONE', ( #9 ), #222, .T. ) ;
#102 = CARTESIAN_POINT ( 'NONE',  ( 0.0000000000000000000, 0.0000000000000000000, 3.500000000000000000 ) ) ;
#103 = DIRECTION ( 'NONE',  ( -1.000000000000000000, 0.0000000000000000000, 0.0000000000000000000 ) ) ;
#104 = DIRECTION ( 'NONE',  ( -1.000000000000000000, 0.0000000000000000000, 0.0000000000000000000 ) ) ;
#105 = MECHANICAL_DESIGN_GEOMETRIC_PRESENTATION_REPRESENTATION (  '', ( #255 ), #127 ) ;
#106 = SURFACE_STYLE_FILL_AREA ( #85 ) ;
#107 = PLANE ( 'NONE',  #138 ) ;
#108 = DIRECTION ( 'NONE',  ( 1.224646799147353207E-16, 0.0000000000000000000, 1.000000000000000000 ) ) ;
#109 = ORIENTED_EDGE ( 'NONE', *, *, #235, .F. ) ;
#110 = ADVANCED_FACE ( 'NONE', ( #40 ), #130, .T. ) ;
#111 = DIRECTION ( 'NONE',  ( 1.000000000000000000, 0.0000000000000000000, -0.0000000000000000000 ) ) ;
#112 = ORIENTED_EDGE ( 'NONE', *, *, #18, .T. ) ;
#113 = CARTESIAN_POINT ( 'NONE',  ( -0.3124999999999998890, 0.0000000000000000000, 1.251772275568630910 ) ) ;
#114 = EDGE_LOOP ( 'NONE', ( #248, #279 ) ) ;
#115 = LINE ( 'NONE', #81, #42 ) ;
#116 = ORIENTED_EDGE ( 'NONE', *, *, #167, .T. ) ;
#117 = AXIS2_PLACEMENT_3D ( 'NONE', #194, #56, #148 ) ;
#118 = ORIENTED_EDGE ( 'NONE', *, *, #149, .T. ) ;
#119 = DIMENSIONAL_EXPONENTS ( 1.000000000000000000, 0.0000000000000000000, 0.0000000000000000000, 0.0000000000000000000, 0.0000000000000000000, 0.0000000000000000000, 0.0000000000000000000 ) ;
#120 = DIRECTION ( 'NONE',  ( 1.000000000000000000, 0.0000000000000000000, 0.0000000000000000000 ) ) ;
#121 = AXIS2_PLACEMENT_3D ( 'NONE', #76, #6, #31 ) ;
#122 = LINE ( 'NONE', #77, #158 ) ;
#123 = DIRECTION ( 'NONE',  ( 1.000000000000000000, 0.0000000000000000000, -0.0000000000000000000 ) ) ;
#124 =( NAMED_UNIT ( * ) PLANE_ANGLE_UNIT ( ) SI_UNIT ( $, .RADIAN. ) );
#125 = DIRECTION ( 'NONE',  ( 1.000000000000000000, 0.0000000000000000000, 0.0000000000000000000 ) ) ;
#126 = UNCERTAINTY_MEASURE_WITH_UNIT (LENGTH_MEASURE( 1.000000000000000082E-05 ), #182, 'distance_accuracy_value', 'NONE');
#127 =( GEOMETRIC_REPRESENTATION_CONTEXT ( 3 ) GLOBAL_UNCERTAINTY_ASSIGNED_CONTEXT ( ( #82 ) ) GLOBAL_UNIT_ASSIGNED_CONTEXT ( ( #244, #154, #203 ) ) REPRESENTATION_CONTEXT ( 'NONE', 'WORKASPACE' ) );
#128 = DIRECTION ( 'NONE',  ( -1.224646799147353207E-16, -0.0000000000000000000, -1.000000000000000000 ) ) ;
#129 = DIRECTION ( 'NONE',  ( 1.000000000000000000, 0.0000000000000000000, 0.0000000000000000000 ) ) ;
#130 = CYLINDRICAL_SURFACE ( 'NONE', #260, 0.3121874999999998956 ) ;
#131 = AXIS2_PLACEMENT_3D ( 'NONE', #242, #38, #103 ) ;
#132 = CARTESIAN_POINT ( 'NONE',  ( 0.0000000000000000000, 0.0000000000000000000, 3.500000000000000000 ) ) ;
#133 = DIRECTION ( 'NONE',  ( -1.224646799147353207E-16, -0.0000000000000000000, -1.000000000000000000 ) ) ;
#134 = VERTEX_POINT ( 'NONE', #231 ) ;
#135 = DIRECTION ( 'NONE',  ( 1.000000000000000000, 0.0000000000000000000, 0.0000000000000000000 ) ) ;
#136 = EDGE_CURVE ( 'NONE', #52, #259, #253, .T. ) ;
#137 = ORIENTED_EDGE ( 'NONE', *, *, #218, .F. ) ;
#138 = AXIS2_PLACEMENT_3D ( 'NONE', #86, #65, #111 ) ;
#139 = CIRCLE ( 'NONE', #174, 0.3125000000000000000 ) ;
#140 = ORIENTED_EDGE ( 'NONE', *, *, #200, .T. ) ;
#141 = PRODUCT ( 'Micro_GEM-625-4X', 'Micro_GEM-625-4X', '', ( #181 ) ) ;
#142 = CARTESIAN_POINT ( 'NONE',  ( 4.682062571497486343E-33, 0.0000000000000000000, 3.823194226088142147E-17 ) ) ;
#143 = ORIENTED_EDGE ( 'NONE', *, *, #179, .F. ) ;
#144 = LINE ( 'NONE', #99, #151 ) ;
#145 = EDGE_CURVE ( 'NONE', #229, #275, #228, .T. ) ;
#146 = CYLINDRICAL_SURFACE ( 'NONE', #117, 0.3125000000000000000 ) ;
#147 = VECTOR ( 'NONE', #159, 39.37007874015748143 ) ;
#148 = DIRECTION ( 'NONE',  ( -1.000000000000000000, 0.0000000000000000000, 0.0000000000000000000 ) ) ;
#149 = EDGE_CURVE ( 'NONE', #134, #28, #195, .T. ) ;
#150 = CYLINDRICAL_SURFACE ( 'NONE', #131, 0.3125000000000000000 ) ;
#151 = VECTOR ( 'NONE', #238, 39.37007874015748143 ) ;
#152 = AXIS2_PLACEMENT_3D ( 'NONE', #91, #21, #224 ) ;
#153 = AXIS2_PLACEMENT_3D ( 'NONE', #132, #12, #129 ) ;
#154 =( NAMED_UNIT ( * ) PLANE_ANGLE_UNIT ( ) SI_UNIT ( $, .RADIAN. ) );
#155 = EDGE_CURVE ( 'NONE', #275, #229, #64, .T. ) ;
#156 = FILL_AREA_STYLE_COLOUR ( '', #269 ) ;
#157 = DIRECTION ( 'NONE',  ( 1.000000000000000000, 0.0000000000000000000, 0.0000000000000000000 ) ) ;
#158 = VECTOR ( 'NONE', #128, 39.37007874015748143 ) ;
#159 = DIRECTION ( 'NONE',  ( -0.7071067811865346942, 0.0000000000000000000, -0.7071067811865603403 ) ) ;
#160 = ORIENTED_EDGE ( 'NONE', *, *, #251, .F. ) ;
#161 = EDGE_LOOP ( 'NONE', ( #49, #232, #250, #202 ) ) ;
#162 = PRODUCT_DEFINITION_SHAPE ( 'NONE', 'NONE',  #90 ) ;
#163 = AXIS2_PLACEMENT_3D ( 'NONE', #273, #246, #24 ) ;
#164 = CIRCLE ( 'NONE', #153, 0.2975000000000003197 ) ;
#165 = CARTESIAN_POINT ( 'NONE',  ( -0.2975000000000003197, 0.0000000000000000000, 3.500000000000000000 ) ) ;
#166 = ORIENTED_EDGE ( 'NONE', *, *, #280, .T. ) ;
#167 = EDGE_CURVE ( 'NONE', #229, #52, #17, .T. ) ;
#168 = ORIENTED_EDGE ( 'NONE', *, *, #179, .T. ) ;
#169 = PRODUCT_DEFINITION_FORMATION_WITH_SPECIFIED_SOURCE ( 'ANY', '', #141, .NOT_KNOWN. ) ;
#170 = ADVANCED_FACE ( 'NONE', ( #299 ), #55, .T. ) ;
#171 = LINE ( 'NONE', #272, #189 ) ;
#172 = DIRECTION ( 'NONE',  ( 1.224646799147353207E-16, 0.0000000000000000000, 1.000000000000000000 ) ) ;
#173 =( CONVERSION_BASED_UNIT ( 'INCH', #80 ) LENGTH_UNIT ( ) NAMED_UNIT ( #119 ) );
#174 = AXIS2_PLACEMENT_3D ( 'NONE', #219, #60, #265 ) ;
#175 =( NAMED_UNIT ( * ) SI_UNIT ( $, .STERADIAN. ) SOLID_ANGLE_UNIT ( ) );
#176 = SHAPE_DEFINITION_REPRESENTATION ( #162, #69 ) ;
#177 = COLOUR_RGB ( '',0.7921568627450980005, 0.8196078431372548767, 0.9333333333333333481 ) ;
#178 = DIRECTION ( 'NONE',  ( -1.224646799147353207E-16, -0.0000000000000000000, -1.000000000000000000 ) ) ;
#179 = EDGE_CURVE ( 'NONE', #25, #134, #115, .T. ) ;
#180 = DIRECTION ( 'NONE',  ( -1.000000000000000000, 0.0000000000000000000, 1.224646799147353207E-16 ) ) ;
#181 = PRODUCT_CONTEXT ( 'NONE', #10, 'mechanical' ) ;
#182 =( CONVERSION_BASED_UNIT ( 'INCH', #292 ) LENGTH_UNIT ( ) NAMED_UNIT ( #264 ) );
#183 = ADVANCED_FACE ( 'NONE', ( #97 ), #146, .T. ) ;
#184 = AXIS2_PLACEMENT_3D ( 'NONE', #8, #284, #120 ) ;
#185 = VERTEX_POINT ( 'NONE', #11 ) ;
#186 = LINE ( 'NONE', #206, #147 ) ;
#187 = ORIENTED_EDGE ( 'NONE', *, *, #282, .F. ) ;
#188 = ORIENTED_EDGE ( 'NONE', *, *, #282, .T. ) ;
#189 = VECTOR ( 'NONE', #197, 39.37007874015748143 ) ;
#190 = EDGE_CURVE ( 'NONE', #72, #53, #285, .T. ) ;
#191 = ORIENTED_EDGE ( 'NONE', *, *, #198, .T. ) ;
#192 = EDGE_CURVE ( 'NONE', #275, #259, #122, .T. ) ;
#193 = DIMENSIONAL_EXPONENTS ( 1.000000000000000000, 0.0000000000000000000, 0.0000000000000000000, 0.0000000000000000000, 0.0000000000000000000, 0.0000000000000000000, 0.0000000000000000000 ) ;
#194 = CARTESIAN_POINT ( 'NONE',  ( 0.0000000000000000000, 0.0000000000000000000, 3.500000000000000000 ) ) ;
#195 = CIRCLE ( 'NONE', #288, 0.3125000000000000000 ) ;
#196 = DIRECTION ( 'NONE',  ( 1.000000000000000000, 0.0000000000000000000, 0.0000000000000000000 ) ) ;
#197 = DIRECTION ( 'NONE',  ( -0.0000000000000000000, -0.0000000000000000000, -1.000000000000000000 ) ) ;
#198 = EDGE_CURVE ( 'NONE', #275, #134, #144, .T. ) ;
#199 = SURFACE_SIDE_STYLE ('',( #106 ) ) ;
#200 = EDGE_CURVE ( 'NONE', #25, #185, #234, .T. ) ;
#201 = CYLINDRICAL_SURFACE ( 'NONE', #47, 0.3121874999999998956 ) ;
#202 = ORIENTED_EDGE ( 'NONE', *, *, #167, .F. ) ;
#203 =( NAMED_UNIT ( * ) SI_UNIT ( $, .STERADIAN. ) SOLID_ANGLE_UNIT ( ) );
#204 = EDGE_LOOP ( 'NONE', ( #212, #168, #160, #254 ) ) ;
#205 = CIRCLE ( 'NONE', #75, 0.3125000000000000000 ) ;
#206 = CARTESIAN_POINT ( 'NONE',  ( -0.2975000000000003197, 0.0000000000000000000, 3.500000000000000000 ) ) ;
#207 = EDGE_LOOP ( 'NONE', ( #19, #66, #116, #109 ) ) ;
#208 = FACE_OUTER_BOUND ( 'NONE', #207, .T. ) ;
#209 = ORIENTED_EDGE ( 'NONE', *, *, #251, .T. ) ;
#210 = ADVANCED_FACE ( 'NONE', ( #236 ), #268, .T. ) ;
#211 = CARTESIAN_POINT ( 'NONE',  ( 0.3125000000000000000, 3.827021247335478926E-17, 3.484999999999999432 ) ) ;
#212 = ORIENTED_EDGE ( 'NONE', *, *, #218, .T. ) ;
#213 = VECTOR ( 'NONE', #230, 39.37007874015747433 ) ;
#214 = ORIENTED_EDGE ( 'NONE', *, *, #190, .T. ) ;
#215 = DIRECTION ( 'NONE',  ( 0.0000000000000000000, 0.0000000000000000000, -1.000000000000000000 ) ) ;
#216 = DIRECTION ( 'NONE',  ( 0.0000000000000000000, 0.0000000000000000000, 1.000000000000000000 ) ) ;
#217 = FILL_AREA_STYLE_COLOUR ( '', #177 ) ;
#218 = EDGE_CURVE ( 'NONE', #185, #25, #139, .T. ) ;
#219 = CARTESIAN_POINT ( 'NONE',  ( 0.0000000000000000000, 0.0000000000000000000, 3.484999999999999432 ) ) ;
#220 = PRODUCT_DEFINITION_CONTEXT ( 'detailed design', #30, 'design' ) ;
#221 = CARTESIAN_POINT ( 'NONE',  ( 0.3121874999999998956, 3.823194226088142147E-17, 0.0000000000000000000 ) ) ;
#222 = CONICAL_SURFACE ( 'NONE', #87, 0.2975000000000003197, 0.7853981633974300713 ) ;
#223 = CARTESIAN_POINT ( 'NONE',  ( -0.3121874999999998401, 3.825107736711810845E-17, 1.250000000000000000 ) ) ;
#224 = DIRECTION ( 'NONE',  ( -1.000000000000000000, 0.0000000000000000000, 0.0000000000000000000 ) ) ;
#225 =( LENGTH_UNIT ( ) NAMED_UNIT ( * ) SI_UNIT ( $, .METRE. ) );
#226 = ORIENTED_EDGE ( 'NONE', *, *, #198, .F. ) ;
#227 = DIRECTION ( 'NONE',  ( -1.000000000000000000, 0.0000000000000000000, 0.0000000000000000000 ) ) ;
#228 = CIRCLE ( 'NONE', #79, 0.3121874999999999512 ) ;
#229 = VERTEX_POINT ( 'NONE', #223 ) ;
#230 = DIRECTION ( 'NONE',  ( -0.1736481776669311916, 2.126576849575783316E-17, 0.9848077530122080203 ) ) ;
#231 = CARTESIAN_POINT ( 'NONE',  ( 0.3125000000000001665, 3.827021247335480159E-17, 1.251772275568630910 ) ) ;
#232 = ORIENTED_EDGE ( 'NONE', *, *, #192, .T. ) ;
#233 = ORIENTED_EDGE ( 'NONE', *, *, #18, .F. ) ;
#234 = CIRCLE ( 'NONE', #100, 0.3125000000000000000 ) ;
#235 = EDGE_CURVE ( 'NONE', #259, #52, #278, .T. ) ;
#236 = FACE_OUTER_BOUND ( 'NONE', #294, .T. ) ;
#237 = MANIFOLD_SOLID_BREP ( 'Cut-Revolve1', #74 ) ;
#238 = DIRECTION ( 'NONE',  ( 0.1736481776669313859, 0.0000000000000000000, 0.9848077530122077983 ) ) ;
#239 =( GEOMETRIC_REPRESENTATION_CONTEXT ( 3 ) GLOBAL_UNCERTAINTY_ASSIGNED_CONTEXT ( ( #126 ) ) GLOBAL_UNIT_ASSIGNED_CONTEXT ( ( #182, #290, #41 ) ) REPRESENTATION_CONTEXT ( 'NONE', 'WORKASPACE' ) );
#240 = DIRECTION ( 'NONE',  ( 1.000000000000000000, 0.0000000000000000000, 0.0000000000000000000 ) ) ;
#241 = DIRECTION ( 'NONE',  ( -1.224646799147353207E-16, -0.0000000000000000000, -1.000000000000000000 ) ) ;
#242 = CARTESIAN_POINT ( 'NONE',  ( 0.0000000000000000000, 0.0000000000000000000, 3.500000000000000000 ) ) ;
#243 = PRESENTATION_LAYER_ASSIGNMENT (  '', '', ( #255 ) ) ;
#244 =( CONVERSION_BASED_UNIT ( 'INCH', #43 ) LENGTH_UNIT ( ) NAMED_UNIT ( #193 ) );
#245 = APPLICATION_PROTOCOL_DEFINITION ( 'draft international standard', 'automotive_design', 1998, #10 ) ;
#246 = DIRECTION ( 'NONE',  ( -1.224646799147353207E-16, -0.0000000000000000000, -1.000000000000000000 ) ) ;
#247 = CARTESIAN_POINT ( 'NONE',  ( 0.2975000000000003197, 3.735172737399428256E-17, 3.500000000000000000 ) ) ;
#248 = ORIENTED_EDGE ( 'NONE', *, *, #136, .T. ) ;
#249 = CARTESIAN_POINT ( 'NONE',  ( 0.0000000000000000000, 0.0000000000000000000, 0.0000000000000000000 ) ) ;
#250 = ORIENTED_EDGE ( 'NONE', *, *, #136, .F. ) ;
#251 = EDGE_CURVE ( 'NONE', #28, #134, #205, .T. ) ;
#252 = LINE ( 'NONE', #48, #213 ) ;
#253 = CIRCLE ( 'NONE', #3, 0.3121874999999998956 ) ;
#254 = ORIENTED_EDGE ( 'NONE', *, *, #280, .F. ) ;
#255 = STYLED_ITEM ( 'NONE', ( #271 ), #69 ) ;
#256 = FACE_OUTER_BOUND ( 'NONE', #73, .T. ) ;
#257 = CARTESIAN_POINT ( 'NONE',  ( 0.0000000000000000000, 0.0000000000000000000, 0.0000000000000000000 ) ) ;
#258 = EDGE_LOOP ( 'NONE', ( #214, #89 ) ) ;
#259 = VERTEX_POINT ( 'NONE', #221 ) ;
#260 = AXIS2_PLACEMENT_3D ( 'NONE', #257, #297, #29 ) ;
#261 = CARTESIAN_POINT ( 'NONE',  ( 1.532978910536522064E-16, 0.0000000000000000000, 1.251772275568630910 ) ) ;
#262 = DIRECTION ( 'NONE',  ( -0.0000000000000000000, -0.0000000000000000000, -1.000000000000000000 ) ) ;
#263 = PRESENTATION_STYLE_ASSIGNMENT (( #36 ) ) ;
#264 = DIMENSIONAL_EXPONENTS ( 1.000000000000000000, 0.0000000000000000000, 0.0000000000000000000, 0.0000000000000000000, 0.0000000000000000000, 0.0000000000000000000, 0.0000000000000000000 ) ;
#265 = DIRECTION ( 'NONE',  ( 1.000000000000000000, 0.0000000000000000000, 0.0000000000000000000 ) ) ;
#266 = CARTESIAN_POINT ( 'NONE',  ( 0.3121875000000001177, 0.0000000000000000000, 1.250000000000000000 ) ) ;
#267 = SURFACE_STYLE_USAGE ( .BOTH. , #199 ) ;
#268 = CONICAL_SURFACE ( 'NONE', #33, 0.3121874999999999512, 0.1745329251994338915 ) ;
#269 = COLOUR_RGB ( '',0.7921568627450980005, 0.8196078431372548767, 0.9333333333333333481 ) ;
#270 = CARTESIAN_POINT ( 'NONE',  ( 1.530808498934191571E-16, 0.0000000000000000000, 1.250000000000000000 ) ) ;
#271 = PRESENTATION_STYLE_ASSIGNMENT (( #267 ) ) ;
#272 = CARTESIAN_POINT ( 'NONE',  ( -0.3125000000000000000, 0.0000000000000000000, 3.500000000000000000 ) ) ;
#273 = CARTESIAN_POINT ( 'NONE',  ( 1.530808498934191571E-16, 0.0000000000000000000, 1.250000000000000000 ) ) ;
#274 = CARTESIAN_POINT ( 'NONE',  ( -0.3121874999999998956, 0.0000000000000000000, 7.646388452176284293E-17 ) ) ;
#275 = VERTEX_POINT ( 'NONE', #266 ) ;
#276 = ADVANCED_FACE ( 'NONE', ( #62 ), #150, .T. ) ;
#277 = DIRECTION ( 'NONE',  ( -1.000000000000000000, 0.0000000000000000000, 1.224646799147353207E-16 ) ) ;
#278 = CIRCLE ( 'NONE', #121, 0.3121874999999998956 ) ;
#279 = ORIENTED_EDGE ( 'NONE', *, *, #235, .T. ) ;
#280 = EDGE_CURVE ( 'NONE', #185, #28, #171, .T. ) ;
#281 = SURFACE_SIDE_STYLE ('',( #34 ) ) ;
#282 = EDGE_CURVE ( 'NONE', #53, #25, #67, .T. ) ;
#283 = CARTESIAN_POINT ( 'NONE',  ( 1.530808498934191571E-16, 0.0000000000000000000, 1.250000000000000000 ) ) ;
#284 = DIRECTION ( 'NONE',  ( 0.0000000000000000000, 0.0000000000000000000, 1.000000000000000000 ) ) ;
#285 = CIRCLE ( 'NONE', #184, 0.2975000000000003197 ) ;
#286 = CARTESIAN_POINT ( 'NONE',  ( 1.532978910536522064E-16, 0.0000000000000000000, 1.251772275568630910 ) ) ;
#287 = ORIENTED_EDGE ( 'NONE', *, *, #190, .F. ) ;
#288 = AXIS2_PLACEMENT_3D ( 'NONE', #261, #70, #291 ) ;
#289 = EDGE_CURVE ( 'NONE', #53, #72, #164, .T. ) ;
#290 =( NAMED_UNIT ( * ) PLANE_ANGLE_UNIT ( ) SI_UNIT ( $, .RADIAN. ) );
#291 = DIRECTION ( 'NONE',  ( 1.000000000000000000, 0.0000000000000000000, 0.0000000000000000000 ) ) ;
#292 = LENGTH_MEASURE_WITH_UNIT ( LENGTH_MEASURE( 0.02539999999999999897 ), #63 );
#293 = PRESENTATION_LAYER_ASSIGNMENT (  '', '', ( #20 ) ) ;
#294 = EDGE_LOOP ( 'NONE', ( #233, #298, #191, #118 ) ) ;
#295 = ORIENTED_EDGE ( 'NONE', *, *, #13, .F. ) ;
#296 = CARTESIAN_POINT ( 'NONE',  ( 0.0000000000000000000, 0.0000000000000000000, 0.0000000000000000000 ) ) ;
#297 = DIRECTION ( 'NONE',  ( -1.224646799147353207E-16, -0.0000000000000000000, -1.000000000000000000 ) ) ;
#298 = ORIENTED_EDGE ( 'NONE', *, *, #155, .F. ) ;
#299 = FACE_OUTER_BOUND ( 'NONE', #258, .T. ) ;
ENDSEC;
END-ISO-10303-21;
