ISO-10303-21;
HEADER;
FILE_DESCRIPTION (( 'STEP AP214' ),
    '1' );
FILE_NAME ('Micro_RTC-312-2.STEP',
    '2021-09-03T18:15:03',
    ( '' ),
    ( '' ),
    'SwSTEP 2.0',
    'SolidWorks 2020',
    '' );
FILE_SCHEMA (( 'AUTOMOTIVE_DESIGN' ));
ENDSEC;

DATA;
#1 = CARTESIAN_POINT ( 'NONE',  ( 0.0000000000000000000, 0.0000000000000000000, 2.500000000000000000 ) ) ;
#2 = ADVANCED_FACE ( 'NONE', ( #156 ), #65, .T. ) ;
#3 = FILL_AREA_STYLE_COLOUR ( '', #23 ) ;
#4 = CIRCLE ( 'NONE', #203, 0.003999999999999999216 ) ;
#5 = AXIS2_PLACEMENT_3D ( 'NONE', #164, #46, #50 ) ;
#6 = LINE ( 'NONE', #9, #233 ) ;
#7 = LENGTH_MEASURE_WITH_UNIT ( LENGTH_MEASURE( 0.02539999999999999897 ), #8 );
#8 =( LENGTH_UNIT ( ) NAMED_UNIT ( * ) SI_UNIT ( $, .METRE. ) );
#9 = CARTESIAN_POINT ( 'NONE',  ( 0.003999999999999999216, 0.0000000000000000000, 0.0000000000000000000 ) ) ;
#10 = EDGE_CURVE ( 'NONE', #175, #235, #141, .T. ) ;
#11 = CARTESIAN_POINT ( 'NONE',  ( 0.1562500000000000000, 1.913510623667739463E-17, 1.931795264547640834 ) ) ;
#12 = CARTESIAN_POINT ( 'NONE',  ( 0.0000000000000000000, 0.0000000000000000000, 2.500000000000000000 ) ) ;
#13 = CIRCLE ( 'NONE', #48, 0.003999999999999999216 ) ;
#14 = LINE ( 'NONE', #121, #55 ) ;
#15 = ORIENTED_EDGE ( 'NONE', *, *, #152, .T. ) ;
#16 = EDGE_CURVE ( 'NONE', #211, #245, #237, .T. ) ;
#17 = PRESENTATION_LAYER_ASSIGNMENT (  '', '', ( #198 ) ) ;
#18 = ORIENTED_EDGE ( 'NONE', *, *, #200, .T. ) ;
#19 = PRESENTATION_LAYER_ASSIGNMENT (  '', '', ( #209 ) ) ;
#20 = FILL_AREA_STYLE ('',( #3 ) ) ;
#21 = LINE ( 'NONE', #108, #184 ) ;
#22 =( NAMED_UNIT ( * ) PLANE_ANGLE_UNIT ( ) SI_UNIT ( $, .RADIAN. ) );
#23 = COLOUR_RGB ( '',0.7921568627450980005, 0.8196078431372548767, 0.9333333333333333481 ) ;
#24 = SURFACE_STYLE_FILL_AREA ( #199 ) ;
#25 = ORIENTED_EDGE ( 'NONE', *, *, #10, .F. ) ;
#26 = DIRECTION ( 'NONE',  ( -1.000000000000000000, 0.0000000000000000000, 0.0000000000000000000 ) ) ;
#27 = ADVANCED_FACE ( 'NONE', ( #210 ), #176, .T. ) ;
#28 = CLOSED_SHELL ( 'NONE', ( #73, #51, #27, #228, #213, #64, #2, #107 ) ) ;
#29 = CARTESIAN_POINT ( 'NONE',  ( -0.003999999999999999216, -9.812482478168164334E-18, 2.500000000000000000 ) ) ;
#30 = ORIENTED_EDGE ( 'NONE', *, *, #42, .F. ) ;
#31 = SURFACE_SIDE_STYLE ('',( #24 ) ) ;
#32 = DIRECTION ( 'NONE',  ( -0.2588190451025216832, 3.169619151431776035E-17, 0.9659258262890679791 ) ) ;
#33 = CARTESIAN_POINT ( 'NONE',  ( 0.0000000000000000000, 0.0000000000000000000, 2.500000000000000000 ) ) ;
#34 = AXIS2_PLACEMENT_3D ( 'NONE', #106, #139, #155 ) ;
#35 =( CONVERSION_BASED_UNIT ( 'INCH', #243 ) LENGTH_UNIT ( ) NAMED_UNIT ( #239 ) );
#36 = ORIENTED_EDGE ( 'NONE', *, *, #231, .T. ) ;
#37 = DIRECTION ( 'NONE',  ( -0.0000000000000000000, -0.0000000000000000000, -1.000000000000000000 ) ) ;
#38 = EDGE_LOOP ( 'NONE', ( #137, #83 ) ) ;
#39 = SURFACE_SIDE_STYLE ('',( #103 ) ) ;
#40 =( LENGTH_UNIT ( ) NAMED_UNIT ( * ) SI_UNIT ( $, .METRE. ) );
#41 = MECHANICAL_DESIGN_GEOMETRIC_PRESENTATION_REPRESENTATION (  '', ( #198 ), #214 ) ;
#42 = EDGE_CURVE ( 'NONE', #245, #187, #14, .T. ) ;
#43 = CARTESIAN_POINT ( 'NONE',  ( 0.0000000000000000000, 0.0000000000000000000, 0.5682047354523593885 ) ) ;
#44 = EDGE_CURVE ( 'NONE', #150, #140, #4, .T. ) ;
#45 = DIRECTION ( 'NONE',  ( 0.0000000000000000000, 0.0000000000000000000, -1.000000000000000000 ) ) ;
#46 = DIRECTION ( 'NONE',  ( 0.0000000000000000000, 0.0000000000000000000, -1.000000000000000000 ) ) ;
#47 = EDGE_LOOP ( 'NONE', ( #30, #70, #220, #15 ) ) ;
#48 = AXIS2_PLACEMENT_3D ( 'NONE', #33, #45, #177 ) ;
#49 = CIRCLE ( 'NONE', #5, 0.1562500000000000000 ) ;
#50 = DIRECTION ( 'NONE',  ( -1.000000000000000000, 0.0000000000000000000, 0.0000000000000000000 ) ) ;
#51 = ADVANCED_FACE ( 'NONE', ( #59 ), #181, .T. ) ;
#52 = CARTESIAN_POINT ( 'NONE',  ( 0.0000000000000000000, 0.0000000000000000000, 0.5682047354523593885 ) ) ;
#53 = LINE ( 'NONE', #168, #229 ) ;
#54 = ORIENTED_EDGE ( 'NONE', *, *, #42, .T. ) ;
#55 = VECTOR ( 'NONE', #32, 39.37007874015748143 ) ;
#56 = DIRECTION ( 'NONE',  ( -1.000000000000000000, 0.0000000000000000000, 0.0000000000000000000 ) ) ;
#57 = ORIENTED_EDGE ( 'NONE', *, *, #82, .T. ) ;
#58 = ORIENTED_EDGE ( 'NONE', *, *, #221, .F. ) ;
#59 = FACE_OUTER_BOUND ( 'NONE', #159, .T. ) ;
#60 = MECHANICAL_DESIGN_GEOMETRIC_PRESENTATION_REPRESENTATION (  '', ( #209 ), #215 ) ;
#61 = DIRECTION ( 'NONE',  ( 0.0000000000000000000, 0.0000000000000000000, -1.000000000000000000 ) ) ;
#62 = EDGE_LOOP ( 'NONE', ( #119, #57, #116, #241 ) ) ;
#63 = PRODUCT_DEFINITION ( 'UNKNOWN', '', #151, #74 ) ;
#64 = ADVANCED_FACE ( 'NONE', ( #225 ), #249, .F. ) ;
#65 = CONICAL_SURFACE ( 'NONE', #157, 0.003999999999999999216, 0.2617993877991502960 ) ;
#66 = COLOUR_RGB ( '',0.7921568627450980005, 0.8196078431372548767, 0.9333333333333333481 ) ;
#67 = AXIS2_PLACEMENT_3D ( 'NONE', #247, #85, #158 ) ;
#68 = PRODUCT_DEFINITION_SHAPE ( 'NONE', 'NONE',  #63 ) ;
#69 = CARTESIAN_POINT ( 'NONE',  ( 0.0000000000000000000, 0.0000000000000000000, 0.0000000000000000000 ) ) ;
#70 = ORIENTED_EDGE ( 'NONE', *, *, #16, .F. ) ;
#71 = DIRECTION ( 'NONE',  ( -0.0000000000000000000, -0.0000000000000000000, -1.000000000000000000 ) ) ;
#72 = AXIS2_PLACEMENT_3D ( 'NONE', #52, #128, #91 ) ;
#73 = ADVANCED_FACE ( 'NONE', ( #170 ), #110, .T. ) ;
#74 = PRODUCT_DEFINITION_CONTEXT ( 'detailed design', #88, 'design' ) ;
#75 = LINE ( 'NONE', #166, #248 ) ;
#76 = CARTESIAN_POINT ( 'NONE',  ( -0.003999999999999999216, 9.812482478168164334E-18, 0.0000000000000000000 ) ) ;
#77 = VERTEX_POINT ( 'NONE', #219 ) ;
#78 = AXIS2_PLACEMENT_3D ( 'NONE', #12, #37, #81 ) ;
#79 = DIRECTION ( 'NONE',  ( 0.0000000000000000000, 0.0000000000000000000, -1.000000000000000000 ) ) ;
#80 = MANIFOLD_SOLID_BREP ( 'Mirror1', #28 ) ;
#81 = DIRECTION ( 'NONE',  ( -1.000000000000000000, 0.0000000000000000000, 0.0000000000000000000 ) ) ;
#82 = EDGE_CURVE ( 'NONE', #140, #150, #13, .T. ) ;
#83 = ORIENTED_EDGE ( 'NONE', *, *, #82, .F. ) ;
#84 = DIRECTION ( 'NONE',  ( 1.000000000000000000, 0.0000000000000000000, 0.0000000000000000000 ) ) ;
#85 = DIRECTION ( 'NONE',  ( 0.0000000000000000000, 0.0000000000000000000, 1.000000000000000000 ) ) ;
#86 = CARTESIAN_POINT ( 'NONE',  ( 0.0000000000000000000, 0.0000000000000000000, 0.0000000000000000000 ) ) ;
#87 =( GEOMETRIC_REPRESENTATION_CONTEXT ( 3 ) GLOBAL_UNCERTAINTY_ASSIGNED_CONTEXT ( ( #127 ) ) GLOBAL_UNIT_ASSIGNED_CONTEXT ( ( #163, #185, #115 ) ) REPRESENTATION_CONTEXT ( 'NONE', 'WORKASPACE' ) );
#88 = APPLICATION_CONTEXT ( 'automotive_design' ) ;
#89 =( NAMED_UNIT ( * ) SI_UNIT ( $, .STERADIAN. ) SOLID_ANGLE_UNIT ( ) );
#90 = VECTOR ( 'NONE', #148, 39.37007874015748143 ) ;
#91 = DIRECTION ( 'NONE',  ( -1.000000000000000000, 0.0000000000000000000, 0.0000000000000000000 ) ) ;
#92 = ORIENTED_EDGE ( 'NONE', *, *, #44, .T. ) ;
#93 = AXIS2_PLACEMENT_3D ( 'NONE', #173, #246, #84 ) ;
#94 = EDGE_CURVE ( 'NONE', #140, #235, #21, .T. ) ;
#95 = DIRECTION ( 'NONE',  ( -0.0000000000000000000, -0.0000000000000000000, -1.000000000000000000 ) ) ;
#96 = PRESENTATION_STYLE_ASSIGNMENT (( #224 ) ) ;
#97 = DIMENSIONAL_EXPONENTS ( 1.000000000000000000, 0.0000000000000000000, 0.0000000000000000000, 0.0000000000000000000, 0.0000000000000000000, 0.0000000000000000000, 0.0000000000000000000 ) ;
#98 = DIRECTION ( 'NONE',  ( 1.000000000000000000, 0.0000000000000000000, -0.0000000000000000000 ) ) ;
#99 = AXIS2_PLACEMENT_3D ( 'NONE', #43, #71, #56 ) ;
#100 = SHAPE_DEFINITION_REPRESENTATION ( #68, #195 ) ;
#101 = ORIENTED_EDGE ( 'NONE', *, *, #16, .T. ) ;
#102 = ORIENTED_EDGE ( 'NONE', *, *, #109, .F. ) ;
#103 = SURFACE_STYLE_FILL_AREA ( #20 ) ;
#104 = DIRECTION ( 'NONE',  ( -1.000000000000000000, 0.0000000000000000000, 0.0000000000000000000 ) ) ;
#105 = AXIS2_PLACEMENT_3D ( 'NONE', #86, #227, #98 ) ;
#106 = CARTESIAN_POINT ( 'NONE',  ( 0.0000000000000000000, 0.0000000000000000000, 0.0000000000000000000 ) ) ;
#107 = ADVANCED_FACE ( 'NONE', ( #160 ), #196, .T. ) ;
#108 = CARTESIAN_POINT ( 'NONE',  ( -0.003999999999999999216, -4.898587196589411612E-19, 2.500000000000000000 ) ) ;
#109 = EDGE_CURVE ( 'NONE', #187, #77, #122, .T. ) ;
#110 = CONICAL_SURFACE ( 'NONE', #232, 0.003999999999999999216, 0.2617993877991502960 ) ;
#111 = EDGE_LOOP ( 'NONE', ( #101, #36 ) ) ;
#112 = AXIS2_PLACEMENT_3D ( 'NONE', #114, #234, #147 ) ;
#113 = ORIENTED_EDGE ( 'NONE', *, *, #149, .T. ) ;
#114 = CARTESIAN_POINT ( 'NONE',  ( 0.0000000000000000000, 0.0000000000000000000, 2.500000000000000000 ) ) ;
#115 =( NAMED_UNIT ( * ) SI_UNIT ( $, .STERADIAN. ) SOLID_ANGLE_UNIT ( ) );
#116 = ORIENTED_EDGE ( 'NONE', *, *, #134, .T. ) ;
#117 = ORIENTED_EDGE ( 'NONE', *, *, #221, .T. ) ;
#118 = APPLICATION_PROTOCOL_DEFINITION ( 'draft international standard', 'automotive_design', 1998, #88 ) ;
#119 = ORIENTED_EDGE ( 'NONE', *, *, #94, .F. ) ;
#120 = DIRECTION ( 'NONE',  ( 0.0000000000000000000, 0.0000000000000000000, -1.000000000000000000 ) ) ;
#121 = CARTESIAN_POINT ( 'NONE',  ( -0.003999999999999999216, 4.898587196589411612E-19, 0.0000000000000000000 ) ) ;
#122 = CIRCLE ( 'NONE', #99, 0.1562500000000000000 ) ;
#123 = PRODUCT_RELATED_PRODUCT_CATEGORY ( 'part', '', ( #179 ) ) ;
#124 = SURFACE_STYLE_USAGE ( .BOTH. , #39 ) ;
#125 = LENGTH_MEASURE_WITH_UNIT ( LENGTH_MEASURE( 0.02539999999999999897 ), #40 );
#126 = FILL_AREA_STYLE_COLOUR ( '', #66 ) ;
#127 = UNCERTAINTY_MEASURE_WITH_UNIT (LENGTH_MEASURE( 1.000000000000000082E-05 ), #163, 'distance_accuracy_value', 'NONE');
#128 = DIRECTION ( 'NONE',  ( -0.0000000000000000000, -0.0000000000000000000, -1.000000000000000000 ) ) ;
#129 = CARTESIAN_POINT ( 'NONE',  ( 0.0000000000000000000, 0.0000000000000000000, 0.0000000000000000000 ) ) ;
#130 = DIRECTION ( 'NONE',  ( 1.000000000000000000, 0.0000000000000000000, 0.0000000000000000000 ) ) ;
#131 = CARTESIAN_POINT ( 'NONE',  ( 0.0000000000000000000, 0.0000000000000000000, 2.500000000000000000 ) ) ;
#132 = DIMENSIONAL_EXPONENTS ( 1.000000000000000000, 0.0000000000000000000, 0.0000000000000000000, 0.0000000000000000000, 0.0000000000000000000, 0.0000000000000000000, 0.0000000000000000000 ) ;
#133 = UNCERTAINTY_MEASURE_WITH_UNIT (LENGTH_MEASURE( 1.000000000000000082E-05 ), #197, 'distance_accuracy_value', 'NONE');
#134 = EDGE_CURVE ( 'NONE', #150, #175, #240, .T. ) ;
#135 =( NAMED_UNIT ( * ) PLANE_ANGLE_UNIT ( ) SI_UNIT ( $, .RADIAN. ) );
#136 = CARTESIAN_POINT ( 'NONE',  ( 0.0000000000000000000, 0.0000000000000000000, 2.500000000000000000 ) ) ;
#137 = ORIENTED_EDGE ( 'NONE', *, *, #44, .F. ) ;
#138 = AXIS2_PLACEMENT_3D ( 'NONE', #188, #193, #222 ) ;
#139 = DIRECTION ( 'NONE',  ( -0.0000000000000000000, -0.0000000000000000000, -1.000000000000000000 ) ) ;
#140 = VERTEX_POINT ( 'NONE', #29 ) ;
#141 = CIRCLE ( 'NONE', #138, 0.1562500000000000000 ) ;
#142 = AXIS2_PLACEMENT_3D ( 'NONE', #1, #230, #144 ) ;
#143 = AXIS2_PLACEMENT_3D ( 'NONE', #69, #204, #130 ) ;
#144 = DIRECTION ( 'NONE',  ( 1.000000000000000000, 0.0000000000000000000, -0.0000000000000000000 ) ) ;
#145 = CARTESIAN_POINT ( 'NONE',  ( -0.1562500000000000000, 0.0000000000000000000, 1.931795264547640834 ) ) ;
#146 = CARTESIAN_POINT ( 'NONE',  ( 0.003999999999999999216, 0.0000000000000000000, 2.500000000000000000 ) ) ;
#147 = DIRECTION ( 'NONE',  ( -1.000000000000000000, 0.0000000000000000000, 0.0000000000000000000 ) ) ;
#148 = DIRECTION ( 'NONE',  ( 0.2588190451025216832, 0.0000000000000000000, -0.9659258262890679791 ) ) ;
#149 = EDGE_CURVE ( 'NONE', #235, #187, #75, .T. ) ;
#150 = VERTEX_POINT ( 'NONE', #146 ) ;
#151 = PRODUCT_DEFINITION_FORMATION_WITH_SPECIFIED_SOURCE ( 'ANY', '', #179, .NOT_KNOWN. ) ;
#152 = EDGE_CURVE ( 'NONE', #77, #187, #223, .T. ) ;
#153 = DIRECTION ( 'NONE',  ( 1.000000000000000000, 0.0000000000000000000, 0.0000000000000000000 ) ) ;
#154 = PRODUCT_CONTEXT ( 'NONE', #189, 'mechanical' ) ;
#155 = DIRECTION ( 'NONE',  ( -1.000000000000000000, 0.0000000000000000000, 0.0000000000000000000 ) ) ;
#156 = FACE_OUTER_BOUND ( 'NONE', #62, .T. ) ;
#157 = AXIS2_PLACEMENT_3D ( 'NONE', #131, #61, #244 ) ;
#158 = DIRECTION ( 'NONE',  ( 1.000000000000000000, 0.0000000000000000000, 0.0000000000000000000 ) ) ;
#159 = EDGE_LOOP ( 'NONE', ( #162, #54, #172, #206 ) ) ;
#160 = FACE_OUTER_BOUND ( 'NONE', #38, .T. ) ;
#161 = CARTESIAN_POINT ( 'NONE',  ( 0.003999999999999999216, 0.0000000000000000000, 0.0000000000000000000 ) ) ;
#162 = ORIENTED_EDGE ( 'NONE', *, *, #231, .F. ) ;
#163 =( CONVERSION_BASED_UNIT ( 'INCH', #7 ) LENGTH_UNIT ( ) NAMED_UNIT ( #97 ) );
#164 = CARTESIAN_POINT ( 'NONE',  ( 0.0000000000000000000, 0.0000000000000000000, 1.931795264547640834 ) ) ;
#165 = CONICAL_SURFACE ( 'NONE', #143, 0.003999999999999999216, 0.2617993877991502960 ) ;
#166 = CARTESIAN_POINT ( 'NONE',  ( -0.1562500000000000000, 0.0000000000000000000, 2.500000000000000000 ) ) ;
#167 = ORIENTED_EDGE ( 'NONE', *, *, #152, .F. ) ;
#168 = CARTESIAN_POINT ( 'NONE',  ( 0.1562500000000000000, 1.913510623667739463E-17, 2.500000000000000000 ) ) ;
#169 = ORIENTED_EDGE ( 'NONE', *, *, #94, .T. ) ;
#170 = FACE_OUTER_BOUND ( 'NONE', #207, .T. ) ;
#171 = EDGE_CURVE ( 'NONE', #211, #77, #6, .T. ) ;
#172 = ORIENTED_EDGE ( 'NONE', *, *, #109, .T. ) ;
#173 = CARTESIAN_POINT ( 'NONE',  ( 0.0000000000000000000, 0.0000000000000000000, 0.0000000000000000000 ) ) ;
#174 = EDGE_LOOP ( 'NONE', ( #58, #190, #113, #167 ) ) ;
#175 = VERTEX_POINT ( 'NONE', #11 ) ;
#176 = CYLINDRICAL_SURFACE ( 'NONE', #78, 0.1562500000000000000 ) ;
#177 = DIRECTION ( 'NONE',  ( -1.000000000000000000, 0.0000000000000000000, 0.0000000000000000000 ) ) ;
#178 = DIRECTION ( 'NONE',  ( -0.2588190451025216832, -3.169619151431776035E-17, -0.9659258262890679791 ) ) ;
#179 = PRODUCT ( 'Micro_RTC-312-2', 'Micro_RTC-312-2', '', ( #154 ) ) ;
#180 = PRESENTATION_STYLE_ASSIGNMENT (( #124 ) ) ;
#181 = CONICAL_SURFACE ( 'NONE', #67, 0.003999999999999999216, 0.2617993877991502960 ) ;
#182 = ORIENTED_EDGE ( 'NONE', *, *, #149, .F. ) ;
#183 = CARTESIAN_POINT ( 'NONE',  ( 0.003999999999999999216, 0.0000000000000000000, 2.500000000000000000 ) ) ;
#184 = VECTOR ( 'NONE', #178, 39.37007874015748143 ) ;
#185 =( NAMED_UNIT ( * ) PLANE_ANGLE_UNIT ( ) SI_UNIT ( $, .RADIAN. ) );
#186 = APPLICATION_PROTOCOL_DEFINITION ( 'draft international standard', 'automotive_design', 1998, #189 ) ;
#187 = VERTEX_POINT ( 'NONE', #236 ) ;
#188 = CARTESIAN_POINT ( 'NONE',  ( 0.0000000000000000000, 0.0000000000000000000, 1.931795264547640834 ) ) ;
#189 = APPLICATION_CONTEXT ( 'automotive_design' ) ;
#190 = ORIENTED_EDGE ( 'NONE', *, *, #10, .T. ) ;
#191 = ORIENTED_EDGE ( 'NONE', *, *, #134, .F. ) ;
#192 =( NAMED_UNIT ( * ) SI_UNIT ( $, .STERADIAN. ) SOLID_ANGLE_UNIT ( ) );
#193 = DIRECTION ( 'NONE',  ( 0.0000000000000000000, 0.0000000000000000000, -1.000000000000000000 ) ) ;
#194 = AXIS2_PLACEMENT_3D ( 'NONE', #129, #216, #26 ) ;
#195 = ADVANCED_BREP_SHAPE_REPRESENTATION ( 'Micro_RTC-312-2', ( #80, #93 ), #87 ) ;
#196 = PLANE ( 'NONE',  #142 ) ;
#197 =( CONVERSION_BASED_UNIT ( 'INCH', #125 ) LENGTH_UNIT ( ) NAMED_UNIT ( #132 ) );
#198 = STYLED_ITEM ( 'NONE', ( #180 ), #80 ) ;
#199 = FILL_AREA_STYLE ('',( #126 ) ) ;
#200 = EDGE_CURVE ( 'NONE', #235, #175, #49, .T. ) ;
#201 = DIRECTION ( 'NONE',  ( 0.2588190451025216832, 0.0000000000000000000, 0.9659258262890679791 ) ) ;
#202 = UNCERTAINTY_MEASURE_WITH_UNIT (LENGTH_MEASURE( 1.000000000000000082E-05 ), #35, 'distance_accuracy_value', 'NONE');
#203 = AXIS2_PLACEMENT_3D ( 'NONE', #136, #120, #104 ) ;
#204 = DIRECTION ( 'NONE',  ( 0.0000000000000000000, 0.0000000000000000000, 1.000000000000000000 ) ) ;
#205 = CYLINDRICAL_SURFACE ( 'NONE', #112, 0.1562500000000000000 ) ;
#206 = ORIENTED_EDGE ( 'NONE', *, *, #171, .F. ) ;
#207 = EDGE_LOOP ( 'NONE', ( #92, #169, #25, #191 ) ) ;
#208 = EDGE_LOOP ( 'NONE', ( #18, #117, #102, #182 ) ) ;
#209 = STYLED_ITEM ( 'NONE', ( #96 ), #195 ) ;
#210 = FACE_OUTER_BOUND ( 'NONE', #208, .T. ) ;
#211 = VERTEX_POINT ( 'NONE', #161 ) ;
#212 = CIRCLE ( 'NONE', #194, 0.003999999999999999216 ) ;
#213 = ADVANCED_FACE ( 'NONE', ( #238 ), #165, .T. ) ;
#214 =( GEOMETRIC_REPRESENTATION_CONTEXT ( 3 ) GLOBAL_UNCERTAINTY_ASSIGNED_CONTEXT ( ( #133 ) ) GLOBAL_UNIT_ASSIGNED_CONTEXT ( ( #197, #22, #89 ) ) REPRESENTATION_CONTEXT ( 'NONE', 'WORKASPACE' ) );
#215 =( GEOMETRIC_REPRESENTATION_CONTEXT ( 3 ) GLOBAL_UNCERTAINTY_ASSIGNED_CONTEXT ( ( #202 ) ) GLOBAL_UNIT_ASSIGNED_CONTEXT ( ( #35, #135, #192 ) ) REPRESENTATION_CONTEXT ( 'NONE', 'WORKASPACE' ) );
#216 = DIRECTION ( 'NONE',  ( -0.0000000000000000000, -0.0000000000000000000, -1.000000000000000000 ) ) ;
#217 = DIRECTION ( 'NONE',  ( -0.0000000000000000000, -0.0000000000000000000, -1.000000000000000000 ) ) ;
#218 = FACE_OUTER_BOUND ( 'NONE', #174, .T. ) ;
#219 = CARTESIAN_POINT ( 'NONE',  ( 0.1562500000000000000, 1.913510623667739463E-17, 0.5682047354523593885 ) ) ;
#220 = ORIENTED_EDGE ( 'NONE', *, *, #171, .T. ) ;
#221 = EDGE_CURVE ( 'NONE', #175, #77, #53, .T. ) ;
#222 = DIRECTION ( 'NONE',  ( -1.000000000000000000, 0.0000000000000000000, 0.0000000000000000000 ) ) ;
#223 = CIRCLE ( 'NONE', #72, 0.1562500000000000000 ) ;
#224 = SURFACE_STYLE_USAGE ( .BOTH. , #31 ) ;
#225 = FACE_OUTER_BOUND ( 'NONE', #111, .T. ) ;
#226 =( LENGTH_UNIT ( ) NAMED_UNIT ( * ) SI_UNIT ( $, .METRE. ) );
#227 = DIRECTION ( 'NONE',  ( 0.0000000000000000000, 0.0000000000000000000, 1.000000000000000000 ) ) ;
#228 = ADVANCED_FACE ( 'NONE', ( #218 ), #205, .T. ) ;
#229 = VECTOR ( 'NONE', #95, 39.37007874015748143 ) ;
#230 = DIRECTION ( 'NONE',  ( 0.0000000000000000000, 0.0000000000000000000, 1.000000000000000000 ) ) ;
#231 = EDGE_CURVE ( 'NONE', #245, #211, #212, .T. ) ;
#232 = AXIS2_PLACEMENT_3D ( 'NONE', #242, #79, #153 ) ;
#233 = VECTOR ( 'NONE', #201, 39.37007874015748143 ) ;
#234 = DIRECTION ( 'NONE',  ( -0.0000000000000000000, -0.0000000000000000000, -1.000000000000000000 ) ) ;
#235 = VERTEX_POINT ( 'NONE', #145 ) ;
#236 = CARTESIAN_POINT ( 'NONE',  ( -0.1562500000000000000, 0.0000000000000000000, 0.5682047354523593885 ) ) ;
#237 = CIRCLE ( 'NONE', #34, 0.003999999999999999216 ) ;
#238 = FACE_OUTER_BOUND ( 'NONE', #47, .T. ) ;
#239 = DIMENSIONAL_EXPONENTS ( 1.000000000000000000, 0.0000000000000000000, 0.0000000000000000000, 0.0000000000000000000, 0.0000000000000000000, 0.0000000000000000000, 0.0000000000000000000 ) ;
#240 = LINE ( 'NONE', #183, #90 ) ;
#241 = ORIENTED_EDGE ( 'NONE', *, *, #200, .F. ) ;
#242 = CARTESIAN_POINT ( 'NONE',  ( 0.0000000000000000000, 0.0000000000000000000, 2.500000000000000000 ) ) ;
#243 = LENGTH_MEASURE_WITH_UNIT ( LENGTH_MEASURE( 0.02539999999999999897 ), #226 );
#244 = DIRECTION ( 'NONE',  ( 1.000000000000000000, 0.0000000000000000000, 0.0000000000000000000 ) ) ;
#245 = VERTEX_POINT ( 'NONE', #76 ) ;
#246 = DIRECTION ( 'NONE',  ( 0.0000000000000000000, 0.0000000000000000000, 1.000000000000000000 ) ) ;
#247 = CARTESIAN_POINT ( 'NONE',  ( 0.0000000000000000000, 0.0000000000000000000, 0.0000000000000000000 ) ) ;
#248 = VECTOR ( 'NONE', #217, 39.37007874015748143 ) ;
#249 = PLANE ( 'NONE',  #105 ) ;
ENDSEC;
END-ISO-10303-21;
