ISO-10303-21;
HEADER;
FILE_DESCRIPTION (( 'STEP AP214' ),
    '1' );
FILE_NAME ('48075.STEP',
    '2023-06-22T21:07:57',
    ( '' ),
    ( '' ),
    'SwSTEP 2.0',
    'SolidWorks 2023',
    '' );
FILE_SCHEMA (( 'AUTOMOTIVE_DESIGN' ));
ENDSEC;

DATA;
#1 =( NAMED_UNIT ( * ) PLANE_ANGLE_UNIT ( ) SI_UNIT ( $, .RADIAN. ) );
#2 = EDGE_LOOP ( 'NONE', ( #237, #182 ) ) ;
#3 = SURFACE_SIDE_STYLE ('',( #98 ) ) ;
#4 = ORIENTED_EDGE ( 'NONE', *, *, #39, .T. ) ;
#5 = DIRECTION ( 'NONE',  ( 0.000000000000000000, 0.000000000000000000, -1.000000000000000000 ) ) ;
#6 = PRESENTATION_LAYER_ASSIGNMENT (  '', '', ( #308 ) ) ;
#7 = EDGE_LOOP ( 'NONE', ( #70, #287, #289, #44 ) ) ;
#8 = PRESENTATION_LAYER_ASSIGNMENT (  '', '', ( #265 ) ) ;
#9 = CARTESIAN_POINT ( 'NONE',  ( 0.000000000000000000, 0.000000000000000000, 0.000000000000000000 ) ) ;
#10 = EDGE_CURVE ( 'NONE', #144, #191, #253, .T. ) ;
#11 = CARTESIAN_POINT ( 'NONE',  ( 0.000000000000000000, 0.000000000000000000, 0.000000000000000000 ) ) ;
#12 = DIRECTION ( 'NONE',  ( 0.000000000000000000, 0.000000000000000000, -1.000000000000000000 ) ) ;
#13 =( NAMED_UNIT ( * ) PLANE_ANGLE_UNIT ( ) SI_UNIT ( $, .RADIAN. ) );
#14 = AXIS2_PLACEMENT_3D ( 'NONE', #24, #101, #207 ) ;
#15 = LINE ( 'NONE', #112, #252 ) ;
#16 = ORIENTED_EDGE ( 'NONE', *, *, #84, .F. ) ;
#17 =( NAMED_UNIT ( * ) PLANE_ANGLE_UNIT ( ) SI_UNIT ( $, .RADIAN. ) );
#18 = CARTESIAN_POINT ( 'NONE',  ( 0.000000000000000000, 0.3749999999999999445, -0.1250000000000000278 ) ) ;
#19 = PLANE ( 'NONE',  #130 ) ;
#20 = FILL_AREA_STYLE_COLOUR ( '', #155 ) ;
#21 = ORIENTED_EDGE ( 'NONE', *, *, #183, .T. ) ;
#22 = AXIS2_PLACEMENT_3D ( 'NONE', #42, #226, #90 ) ;
#23 = DIRECTION ( 'NONE',  ( -0.000000000000000000, -1.000000000000000000, -0.000000000000000000 ) ) ;
#24 = CARTESIAN_POINT ( 'NONE',  ( 1.224646799147353700E-16, 2.000000000000000000, 0.000000000000000000 ) ) ;
#25 = EDGE_LOOP ( 'NONE', ( #235, #94, #21, #205 ) ) ;
#26 = UNCERTAINTY_MEASURE_WITH_UNIT (LENGTH_MEASURE( 1.000000000000000082E-05 ), #151, 'distance_accuracy_value', 'NONE');
#27 = SURFACE_SIDE_STYLE ('',( #236 ) ) ;
#28 = CYLINDRICAL_SURFACE ( 'NONE', #240, 0.1250000000000000000 ) ;
#29 = VERTEX_POINT ( 'NONE', #79 ) ;
#30 = COLOUR_RGB ( '',1.000000000000000000, 0.000000000000000000, 0.000000000000000000 ) ;
#31 = CIRCLE ( 'NONE', #59, 0.1250000000000000278 ) ;
#32 = LENGTH_MEASURE_WITH_UNIT ( LENGTH_MEASURE( 0.02539999999999999897 ), #172 );
#33 = LENGTH_MEASURE_WITH_UNIT ( LENGTH_MEASURE( 0.02539999999999999897 ), #173 );
#34 = SURFACE_STYLE_USAGE ( .BOTH. , #298 ) ;
#35 = PRODUCT ( '48075', '48075', '', ( #266 ) ) ;
#36 = SURFACE_STYLE_FILL_AREA ( #299 ) ;
#37 = EDGE_CURVE ( 'NONE', #191, #144, #31, .T. ) ;
#38 = FILL_AREA_STYLE ('',( #201 ) ) ;
#39 = EDGE_CURVE ( 'NONE', #191, #50, #147, .T. ) ;
#40 = CARTESIAN_POINT ( 'NONE',  ( 3.549727296241087278E-34, 0.3749999999999999445, 0.000000000000000000 ) ) ;
#41 = AXIS2_PLACEMENT_3D ( 'NONE', #11, #292, #270 ) ;
#42 = CARTESIAN_POINT ( 'NONE',  ( 0.000000000000000000, 0.000000000000000000, 0.000000000000000000 ) ) ;
#43 =( LENGTH_UNIT ( ) NAMED_UNIT ( * ) SI_UNIT ( $, .METRE. ) );
#44 = ORIENTED_EDGE ( 'NONE', *, *, #183, .F. ) ;
#45 = ORIENTED_EDGE ( 'NONE', *, *, #254, .F. ) ;
#46 = FILL_AREA_STYLE ('',( #20 ) ) ;
#47 = DIRECTION ( 'NONE',  ( 0.000000000000000000, 0.000000000000000000, -1.000000000000000000 ) ) ;
#48 = ADVANCED_FACE ( 'NONE', ( #118 ), #28, .T. ) ;
#49 = DIRECTION ( 'NONE',  ( 7.536287994752946416E-17, 1.000000000000000000, -0.000000000000000000 ) ) ;
#50 = VERTEX_POINT ( 'NONE', #153 ) ;
#51 = PRODUCT_DEFINITION_SHAPE ( 'NONE', 'NONE',  #168 ) ;
#52 = DIRECTION ( 'NONE',  ( -0.000000000000000000, -1.000000000000000000, -0.000000000000000000 ) ) ;
#53 = ORIENTED_EDGE ( 'NONE', *, *, #150, .F. ) ;
#54 = COLOUR_RGB ( '',1.000000000000000000, 0.000000000000000000, 0.000000000000000000 ) ;
#55 = DIRECTION ( 'NONE',  ( -1.000000000000000000, 0.000000000000000000, 0.000000000000000000 ) ) ;
#56 =( NAMED_UNIT ( * ) PLANE_ANGLE_UNIT ( ) SI_UNIT ( $, .RADIAN. ) );
#57 = CARTESIAN_POINT ( 'NONE',  ( 1.224646799147353700E-16, 2.000000000000000000, 0.000000000000000000 ) ) ;
#58 = FACE_OUTER_BOUND ( 'NONE', #2, .T. ) ;
#59 = AXIS2_PLACEMENT_3D ( 'NONE', #264, #95, #5 ) ;
#60 = DIRECTION ( 'NONE',  ( 0.000000000000000000, -0.000000000000000000, 1.000000000000000000 ) ) ;
#61 = CARTESIAN_POINT ( 'NONE',  ( 0.000000000000000000, 0.000000000000000000, -0.1250000000000000000 ) ) ;
#62 = ADVANCED_FACE ( 'NONE', ( #152 ), #241, .T. ) ;
#63 = MECHANICAL_DESIGN_GEOMETRIC_PRESENTATION_REPRESENTATION (  '', ( #265 ), #169 ) ;
#64 = UNCERTAINTY_MEASURE_WITH_UNIT (LENGTH_MEASURE( 1.000000000000000082E-05 ), #213, 'distance_accuracy_value', 'NONE');
#65 = MANIFOLD_SOLID_BREP ( 'Revolve - Cutting Edge', #93 ) ;
#66 = CARTESIAN_POINT ( 'NONE',  ( 0.000000000000000000, 0.3749999999999999445, 0.000000000000000000 ) ) ;
#67 = FACE_OUTER_BOUND ( 'NONE', #100, .T. ) ;
#68 = FILL_AREA_STYLE ('',( #146 ) ) ;
#69 = CARTESIAN_POINT ( 'NONE',  ( 0.000000000000000000, 0.000000000000000000, -0.1250000000000000000 ) ) ;
#70 = ORIENTED_EDGE ( 'NONE', *, *, #105, .T. ) ;
#71 = PLANE ( 'NONE',  #80 ) ;
#72 = SURFACE_STYLE_FILL_AREA ( #185 ) ;
#73 = PRESENTATION_STYLE_ASSIGNMENT (( #92 ) ) ;
#74 = CIRCLE ( 'NONE', #300, 0.1249999999999999029 ) ;
#75 = ORIENTED_EDGE ( 'NONE', *, *, #37, .T. ) ;
#76 = DIRECTION ( 'NONE',  ( 0.000000000000000000, 0.000000000000000000, -1.000000000000000000 ) ) ;
#77 = SURFACE_SIDE_STYLE ('',( #72 ) ) ;
#78 = DIRECTION ( 'NONE',  ( 7.536287994752946416E-17, 1.000000000000000000, -0.000000000000000000 ) ) ;
#79 = CARTESIAN_POINT ( 'NONE',  ( -0.1249999999999997780, 2.000000000000000000, 0.000000000000000000 ) ) ;
#80 = AXIS2_PLACEMENT_3D ( 'NONE', #97, #138, #163 ) ;
#81 = ADVANCED_FACE ( 'NONE', ( #58 ), #272, .T. ) ;
#82 = SURFACE_STYLE_FILL_AREA ( #129 ) ;
#83 = PRODUCT_DEFINITION_FORMATION_WITH_SPECIFIED_SOURCE ( 'ANY', '', #35, .NOT_KNOWN. ) ;
#84 = EDGE_CURVE ( 'NONE', #50, #119, #106, .T. ) ;
#85 = CLOSED_SHELL ( 'NONE', ( #223, #115, #62, #232 ) ) ;
#86 = PLANE ( 'NONE',  #225 ) ;
#87 = UNCERTAINTY_MEASURE_WITH_UNIT (LENGTH_MEASURE( 1.000000000000000082E-05 ), #199, 'distance_accuracy_value', 'NONE');
#88 = CARTESIAN_POINT ( 'NONE',  ( 0.1250000000000000278, 0.3749999999999999445, 1.530808498934191509E-17 ) ) ;
#89 = SURFACE_STYLE_USAGE ( .BOTH. , #304 ) ;
#90 = DIRECTION ( 'NONE',  ( 0.000000000000000000, 0.000000000000000000, -1.000000000000000000 ) ) ;
#91 = DIMENSIONAL_EXPONENTS ( 1.000000000000000000, 0.000000000000000000, 0.000000000000000000, 0.000000000000000000, 0.000000000000000000, 0.000000000000000000, 0.000000000000000000 ) ;
#92 = SURFACE_STYLE_USAGE ( .BOTH. , #3 ) ;
#93 = CLOSED_SHELL ( 'NONE', ( #293, #81, #48, #197 ) ) ;
#94 = ORIENTED_EDGE ( 'NONE', *, *, #150, .T. ) ;
#95 = DIRECTION ( 'NONE',  ( -0.000000000000000000, -1.000000000000000000, -0.000000000000000000 ) ) ;
#96 = DIMENSIONAL_EXPONENTS ( 1.000000000000000000, 0.000000000000000000, 0.000000000000000000, 0.000000000000000000, 0.000000000000000000, 0.000000000000000000, 0.000000000000000000 ) ;
#97 = CARTESIAN_POINT ( 'NONE',  ( 0.1250000000000000278, 2.000000000000000000, 0.000000000000000000 ) ) ;
#98 = SURFACE_STYLE_FILL_AREA ( #68 ) ;
#99 = AXIS2_PLACEMENT_3D ( 'NONE', #234, #49, #202 ) ;
#100 = EDGE_LOOP ( 'NONE', ( #249, #53 ) ) ;
#101 = DIRECTION ( 'NONE',  ( 7.536287994752946416E-17, 1.000000000000000000, -0.000000000000000000 ) ) ;
#102 = APPLICATION_PROTOCOL_DEFINITION ( 'draft international standard', 'automotive_design', 1998, #284 ) ;
#103 = SURFACE_SIDE_STYLE ('',( #82 ) ) ;
#104 = FILL_AREA_STYLE_COLOUR ( '', #117 ) ;
#105 = EDGE_CURVE ( 'NONE', #121, #164, #282, .T. ) ;
#106 = CIRCLE ( 'NONE', #22, 0.1250000000000000000 ) ;
#107 = DIRECTION ( 'NONE',  ( -1.000000000000000000, 0.000000000000000000, 0.000000000000000000 ) ) ;
#108 = DIRECTION ( 'NONE',  ( -1.000000000000000000, 7.536287994752946416E-17, 0.000000000000000000 ) ) ;
#109 =( NAMED_UNIT ( * ) SI_UNIT ( $, .STERADIAN. ) SOLID_ANGLE_UNIT ( ) );
#110 = VECTOR ( 'NONE', #255, 39.37007874015748143 ) ;
#111 = DIMENSIONAL_EXPONENTS ( 1.000000000000000000, 0.000000000000000000, 0.000000000000000000, 0.000000000000000000, 0.000000000000000000, 0.000000000000000000, 0.000000000000000000 ) ;
#112 = CARTESIAN_POINT ( 'NONE',  ( -0.1249999999999998473, 2.000000000000000000, 0.000000000000000000 ) ) ;
#113 = PRESENTATION_STYLE_ASSIGNMENT (( #120 ) ) ;
#114 = VERTEX_POINT ( 'NONE', #179 ) ;
#115 = ADVANCED_FACE ( 'NONE', ( #67 ), #19, .F. ) ;
#116 =( CONVERSION_BASED_UNIT ( 'INCH', #256 ) LENGTH_UNIT ( ) NAMED_UNIT ( #280 ) );
#117 = COLOUR_RGB ( '',0.7921568627450980005, 0.8196078431372548767, 0.9333333333333333481 ) ;
#118 = FACE_OUTER_BOUND ( 'NONE', #230, .T. ) ;
#119 = VERTEX_POINT ( 'NONE', #61 ) ;
#120 = SURFACE_STYLE_USAGE ( .BOTH. , #27 ) ;
#121 = VERTEX_POINT ( 'NONE', #136 ) ;
#122 = UNCERTAINTY_MEASURE_WITH_UNIT (LENGTH_MEASURE( 1.000000000000000082E-05 ), #116, 'distance_accuracy_value', 'NONE');
#123 = DIRECTION ( 'NONE',  ( -0.000000000000000000, -1.000000000000000000, -0.000000000000000000 ) ) ;
#124 = CIRCLE ( 'NONE', #99, 0.1249999999999999029 ) ;
#125 = CARTESIAN_POINT ( 'NONE',  ( 0.000000000000000000, 0.3749999999999999445, 0.000000000000000000 ) ) ;
#126 = ADVANCED_BREP_SHAPE_REPRESENTATION ( '48075', ( #65, #267, #41 ), #188 ) ;
#127 = AXIS2_PLACEMENT_3D ( 'NONE', #125, #23, #47 ) ;
#128 =( CONVERSION_BASED_UNIT ( 'INCH', #33 ) LENGTH_UNIT ( ) NAMED_UNIT ( #96 ) );
#129 = FILL_AREA_STYLE ('',( #194 ) ) ;
#130 = AXIS2_PLACEMENT_3D ( 'NONE', #40, #156, #108 ) ;
#131 = VECTOR ( 'NONE', #263, 39.37007874015748143 ) ;
#132 = CARTESIAN_POINT ( 'NONE',  ( 0.000000000000000000, 0.000000000000000000, 0.000000000000000000 ) ) ;
#133 = CARTESIAN_POINT ( 'NONE',  ( 1.530808498934191817E-17, 0.3749999999999999445, 0.1250000000000000278 ) ) ;
#134 =( GEOMETRIC_REPRESENTATION_CONTEXT ( 3 ) GLOBAL_UNCERTAINTY_ASSIGNED_CONTEXT ( ( #122 ) ) GLOBAL_UNIT_ASSIGNED_CONTEXT ( ( #116, #186, #189 ) ) REPRESENTATION_CONTEXT ( 'NONE', 'WORKASPACE' ) );
#135 = DIRECTION ( 'NONE',  ( 7.536287994752946416E-17, 1.000000000000000000, -0.000000000000000000 ) ) ;
#136 = CARTESIAN_POINT ( 'NONE',  ( -0.1250000000000000278, 0.3749999999999999445, 0.000000000000000000 ) ) ;
#137 = MECHANICAL_DESIGN_GEOMETRIC_PRESENTATION_REPRESENTATION (  '', ( #248 ), #134 ) ;
#138 = DIRECTION ( 'NONE',  ( -7.536287994752946416E-17, -1.000000000000000000, 0.000000000000000000 ) ) ;
#139 =( CONVERSION_BASED_UNIT ( 'INCH', #281 ) LENGTH_UNIT ( ) NAMED_UNIT ( #145 ) );
#140 = ORIENTED_EDGE ( 'NONE', *, *, #222, .T. ) ;
#141 = AXIS2_PLACEMENT_3D ( 'NONE', #302, #135, #107 ) ;
#142 = LINE ( 'NONE', #69, #180 ) ;
#143 = MECHANICAL_DESIGN_GEOMETRIC_PRESENTATION_REPRESENTATION (  '', ( #278 ), #245 ) ;
#144 = VERTEX_POINT ( 'NONE', #18 ) ;
#145 = DIMENSIONAL_EXPONENTS ( 1.000000000000000000, 0.000000000000000000, 0.000000000000000000, 0.000000000000000000, 0.000000000000000000, 0.000000000000000000, 0.000000000000000000 ) ;
#146 = FILL_AREA_STYLE_COLOUR ( '', #303 ) ;
#147 = LINE ( 'NONE', #286, #131 ) ;
#148 = PRESENTATION_STYLE_ASSIGNMENT (( #259 ) ) ;
#149 = PRESENTATION_LAYER_ASSIGNMENT (  '', '', ( #290 ) ) ;
#150 = EDGE_CURVE ( 'NONE', #164, #121, #210, .T. ) ;
#151 =( CONVERSION_BASED_UNIT ( 'INCH', #219 ) LENGTH_UNIT ( ) NAMED_UNIT ( #91 ) );
#152 = FACE_OUTER_BOUND ( 'NONE', #25, .T. ) ;
#153 = CARTESIAN_POINT ( 'NONE',  ( 1.530808498934191509E-17, 0.000000000000000000, 0.1250000000000000000 ) ) ;
#154 =( LENGTH_UNIT ( ) NAMED_UNIT ( * ) SI_UNIT ( $, .METRE. ) );
#155 = COLOUR_RGB ( '',1.000000000000000000, 0.000000000000000000, 0.000000000000000000 ) ;
#156 = DIRECTION ( 'NONE',  ( 7.536287994752946416E-17, 1.000000000000000000, -0.000000000000000000 ) ) ;
#157 = LENGTH_MEASURE_WITH_UNIT ( LENGTH_MEASURE( 0.02539999999999999897 ), #158 );
#158 =( LENGTH_UNIT ( ) NAMED_UNIT ( * ) SI_UNIT ( $, .METRE. ) );
#159 = LINE ( 'NONE', #204, #110 ) ;
#160 = CARTESIAN_POINT ( 'NONE',  ( 0.000000000000000000, 0.000000000000000000, 0.000000000000000000 ) ) ;
#161 = ORIENTED_EDGE ( 'NONE', *, *, #39, .F. ) ;
#162 = PRODUCT_DEFINITION_CONTEXT ( 'detailed design', #238, 'design' ) ;
#163 = DIRECTION ( 'NONE',  ( 1.000000000000000000, -7.536287994752946416E-17, 0.000000000000000000 ) ) ;
#164 = VERTEX_POINT ( 'NONE', #88 ) ;
#165 = AXIS2_PLACEMENT_3D ( 'NONE', #9, #52, #296 ) ;
#166 = EDGE_LOOP ( 'NONE', ( #209, #4, #309, #45 ) ) ;
#167 = ORIENTED_EDGE ( 'NONE', *, *, #297, .T. ) ;
#168 = PRODUCT_DEFINITION ( 'UNKNOWN', '', #83, #162 ) ;
#169 =( GEOMETRIC_REPRESENTATION_CONTEXT ( 3 ) GLOBAL_UNCERTAINTY_ASSIGNED_CONTEXT ( ( #87 ) ) GLOBAL_UNIT_ASSIGNED_CONTEXT ( ( #199, #17, #109 ) ) REPRESENTATION_CONTEXT ( 'NONE', 'WORKASPACE' ) );
#170 = SURFACE_STYLE_USAGE ( .BOTH. , #103 ) ;
#171 = CARTESIAN_POINT ( 'NONE',  ( 1.224646799147353700E-16, 2.000000000000000000, 0.000000000000000000 ) ) ;
#172 =( LENGTH_UNIT ( ) NAMED_UNIT ( * ) SI_UNIT ( $, .METRE. ) );
#173 =( LENGTH_UNIT ( ) NAMED_UNIT ( * ) SI_UNIT ( $, .METRE. ) );
#174 =( GEOMETRIC_REPRESENTATION_CONTEXT ( 3 ) GLOBAL_UNCERTAINTY_ASSIGNED_CONTEXT ( ( #227 ) ) GLOBAL_UNIT_ASSIGNED_CONTEXT ( ( #139, #1, #216 ) ) REPRESENTATION_CONTEXT ( 'NONE', 'WORKASPACE' ) );
#175 =( GEOMETRIC_REPRESENTATION_CONTEXT ( 3 ) GLOBAL_UNCERTAINTY_ASSIGNED_CONTEXT ( ( #181 ) ) GLOBAL_UNIT_ASSIGNED_CONTEXT ( ( #203, #13, #244 ) ) REPRESENTATION_CONTEXT ( 'NONE', 'WORKASPACE' ) );
#176 = SURFACE_STYLE_FILL_AREA ( #38 ) ;
#177 = PRESENTATION_LAYER_ASSIGNMENT (  '', '', ( #278 ) ) ;
#178 = PRODUCT_RELATED_PRODUCT_CATEGORY ( 'part', '', ( #35 ) ) ;
#179 = CARTESIAN_POINT ( 'NONE',  ( 0.1250000000000000278, 2.000000000000000000, 1.530808498934191509E-17 ) ) ;
#180 = VECTOR ( 'NONE', #228, 39.37007874015748143 ) ;
#181 = UNCERTAINTY_MEASURE_WITH_UNIT (LENGTH_MEASURE( 1.000000000000000082E-05 ), #203, 'distance_accuracy_value', 'NONE');
#182 = ORIENTED_EDGE ( 'NONE', *, *, #37, .F. ) ;
#183 = EDGE_CURVE ( 'NONE', #121, #29, #15, .T. ) ;
#184 = DIRECTION ( 'NONE',  ( 0.000000000000000000, 0.000000000000000000, -1.000000000000000000 ) ) ;
#185 = FILL_AREA_STYLE ('',( #291 ) ) ;
#186 =( NAMED_UNIT ( * ) PLANE_ANGLE_UNIT ( ) SI_UNIT ( $, .RADIAN. ) );
#187 = EDGE_LOOP ( 'NONE', ( #261, #190 ) ) ;
#188 =( GEOMETRIC_REPRESENTATION_CONTEXT ( 3 ) GLOBAL_UNCERTAINTY_ASSIGNED_CONTEXT ( ( #64 ) ) GLOBAL_UNIT_ASSIGNED_CONTEXT ( ( #213, #246, #243 ) ) REPRESENTATION_CONTEXT ( 'NONE', 'WORKASPACE' ) );
#189 =( NAMED_UNIT ( * ) SI_UNIT ( $, .STERADIAN. ) SOLID_ANGLE_UNIT ( ) );
#190 = ORIENTED_EDGE ( 'NONE', *, *, #84, .T. ) ;
#191 = VERTEX_POINT ( 'NONE', #133 ) ;
#192 = APPLICATION_PROTOCOL_DEFINITION ( 'draft international standard', 'automotive_design', 1998, #238 ) ;
#193 = SHAPE_DEFINITION_REPRESENTATION ( #51, #126 ) ;
#194 = FILL_AREA_STYLE_COLOUR ( '', #239 ) ;
#195 = CIRCLE ( 'NONE', #221, 0.1250000000000000000 ) ;
#196 = STYLED_ITEM ( 'NONE', ( #148 ), #48 ) ;
#197 = ADVANCED_FACE ( 'NONE', ( #301 ), #86, .T. ) ;
#198 = DIRECTION ( 'NONE',  ( -1.000000000000000000, 0.000000000000000000, 0.000000000000000000 ) ) ;
#199 =( CONVERSION_BASED_UNIT ( 'INCH', #157 ) LENGTH_UNIT ( ) NAMED_UNIT ( #224 ) );
#200 = AXIS2_PLACEMENT_3D ( 'NONE', #66, #274, #198 ) ;
#201 = FILL_AREA_STYLE_COLOUR ( '', #30 ) ;
#202 = DIRECTION ( 'NONE',  ( -1.000000000000000000, 0.000000000000000000, 0.000000000000000000 ) ) ;
#203 =( CONVERSION_BASED_UNIT ( 'INCH', #229 ) LENGTH_UNIT ( ) NAMED_UNIT ( #111 ) );
#204 = CARTESIAN_POINT ( 'NONE',  ( 0.1250000000000000833, 2.000000000000000000, 1.530808498934191201E-17 ) ) ;
#205 = ORIENTED_EDGE ( 'NONE', *, *, #222, .F. ) ;
#206 = ORIENTED_EDGE ( 'NONE', *, *, #254, .T. ) ;
#207 = DIRECTION ( 'NONE',  ( -1.000000000000000000, 0.000000000000000000, 0.000000000000000000 ) ) ;
#208 = EDGE_CURVE ( 'NONE', #119, #50, #195, .T. ) ;
#209 = ORIENTED_EDGE ( 'NONE', *, *, #10, .T. ) ;
#210 = CIRCLE ( 'NONE', #200, 0.1250000000000000278 ) ;
#211 = FACE_OUTER_BOUND ( 'NONE', #166, .T. ) ;
#212 =( LENGTH_UNIT ( ) NAMED_UNIT ( * ) SI_UNIT ( $, .METRE. ) );
#213 =( CONVERSION_BASED_UNIT ( 'INCH', #32 ) LENGTH_UNIT ( ) NAMED_UNIT ( #275 ) );
#214 =( NAMED_UNIT ( * ) SI_UNIT ( $, .STERADIAN. ) SOLID_ANGLE_UNIT ( ) );
#215 = DIRECTION ( 'NONE',  ( -1.000000000000000000, 0.000000000000000000, 0.000000000000000000 ) ) ;
#216 =( NAMED_UNIT ( * ) SI_UNIT ( $, .STERADIAN. ) SOLID_ANGLE_UNIT ( ) );
#217 = AXIS2_PLACEMENT_3D ( 'NONE', #305, #251, #60 ) ;
#218 = DIRECTION ( 'NONE',  ( 7.536287994752946416E-17, 1.000000000000000000, -0.000000000000000000 ) ) ;
#219 = LENGTH_MEASURE_WITH_UNIT ( LENGTH_MEASURE( 0.02539999999999999897 ), #154 );
#220 = EDGE_CURVE ( 'NONE', #164, #114, #159, .T. ) ;
#221 = AXIS2_PLACEMENT_3D ( 'NONE', #160, #123, #76 ) ;
#222 = EDGE_CURVE ( 'NONE', #114, #29, #124, .T. ) ;
#223 = ADVANCED_FACE ( 'NONE', ( #262 ), #307, .T. ) ;
#224 = DIMENSIONAL_EXPONENTS ( 1.000000000000000000, 0.000000000000000000, 0.000000000000000000, 0.000000000000000000, 0.000000000000000000, 0.000000000000000000, 0.000000000000000000 ) ;
#225 = AXIS2_PLACEMENT_3D ( 'NONE', #279, #260, #184 ) ;
#226 = DIRECTION ( 'NONE',  ( -0.000000000000000000, -1.000000000000000000, -0.000000000000000000 ) ) ;
#227 = UNCERTAINTY_MEASURE_WITH_UNIT (LENGTH_MEASURE( 1.000000000000000082E-05 ), #139, 'distance_accuracy_value', 'NONE');
#228 = DIRECTION ( 'NONE',  ( -0.000000000000000000, -1.000000000000000000, -0.000000000000000000 ) ) ;
#229 = LENGTH_MEASURE_WITH_UNIT ( LENGTH_MEASURE( 0.02539999999999999897 ), #212 );
#230 = EDGE_LOOP ( 'NONE', ( #161, #75, #206, #16 ) ) ;
#231 = MECHANICAL_DESIGN_GEOMETRIC_PRESENTATION_REPRESENTATION (  '', ( #308 ), #174 ) ;
#232 = ADVANCED_FACE ( 'NONE', ( #288 ), #71, .F. ) ;
#233 = AXIS2_PLACEMENT_3D ( 'NONE', #171, #218, #55 ) ;
#234 = CARTESIAN_POINT ( 'NONE',  ( 1.224646799147353700E-16, 2.000000000000000000, 0.000000000000000000 ) ) ;
#235 = ORIENTED_EDGE ( 'NONE', *, *, #220, .F. ) ;
#236 = SURFACE_STYLE_FILL_AREA ( #46 ) ;
#237 = ORIENTED_EDGE ( 'NONE', *, *, #10, .F. ) ;
#238 = APPLICATION_CONTEXT ( 'automotive_design' ) ;
#239 = COLOUR_RGB ( '',1.000000000000000000, 0.000000000000000000, 0.000000000000000000 ) ;
#240 = AXIS2_PLACEMENT_3D ( 'NONE', #132, #269, #12 ) ;
#241 = CYLINDRICAL_SURFACE ( 'NONE', #233, 0.1249999999999999584 ) ;
#242 = PRESENTATION_STYLE_ASSIGNMENT (( #34 ) ) ;
#243 =( NAMED_UNIT ( * ) SI_UNIT ( $, .STERADIAN. ) SOLID_ANGLE_UNIT ( ) );
#244 =( NAMED_UNIT ( * ) SI_UNIT ( $, .STERADIAN. ) SOLID_ANGLE_UNIT ( ) );
#245 =( GEOMETRIC_REPRESENTATION_CONTEXT ( 3 ) GLOBAL_UNCERTAINTY_ASSIGNED_CONTEXT ( ( #306 ) ) GLOBAL_UNIT_ASSIGNED_CONTEXT ( ( #128, #56, #214 ) ) REPRESENTATION_CONTEXT ( 'NONE', 'WORKASPACE' ) );
#246 =( NAMED_UNIT ( * ) PLANE_ANGLE_UNIT ( ) SI_UNIT ( $, .RADIAN. ) );
#247 = DIRECTION ( 'NONE',  ( 7.536287994752946416E-17, 1.000000000000000000, -0.000000000000000000 ) ) ;
#248 = STYLED_ITEM ( 'NONE', ( #73 ), #267 ) ;
#249 = ORIENTED_EDGE ( 'NONE', *, *, #105, .F. ) ;
#250 = PRESENTATION_LAYER_ASSIGNMENT (  '', '', ( #196 ) ) ;
#251 = DIRECTION ( 'NONE',  ( 0.000000000000000000, 1.000000000000000000, 0.000000000000000000 ) ) ;
#252 = VECTOR ( 'NONE', #247, 39.37007874015748143 ) ;
#253 = CIRCLE ( 'NONE', #127, 0.1250000000000000278 ) ;
#254 = EDGE_CURVE ( 'NONE', #144, #119, #142, .T. ) ;
#255 = DIRECTION ( 'NONE',  ( 7.536287994752946416E-17, 1.000000000000000000, -0.000000000000000000 ) ) ;
#256 = LENGTH_MEASURE_WITH_UNIT ( LENGTH_MEASURE( 0.02539999999999999897 ), #285 );
#257 = EDGE_LOOP ( 'NONE', ( #167, #140 ) ) ;
#258 = CYLINDRICAL_SURFACE ( 'NONE', #165, 0.1250000000000000000 ) ;
#259 = SURFACE_STYLE_USAGE ( .BOTH. , #77 ) ;
#260 = DIRECTION ( 'NONE',  ( 0.000000000000000000, -1.000000000000000000, -0.000000000000000000 ) ) ;
#261 = ORIENTED_EDGE ( 'NONE', *, *, #208, .T. ) ;
#262 = FACE_OUTER_BOUND ( 'NONE', #7, .T. ) ;
#263 = DIRECTION ( 'NONE',  ( -0.000000000000000000, -1.000000000000000000, -0.000000000000000000 ) ) ;
#264 = CARTESIAN_POINT ( 'NONE',  ( 0.000000000000000000, 0.3749999999999999445, 0.000000000000000000 ) ) ;
#265 = STYLED_ITEM ( 'NONE', ( #276 ), #197 ) ;
#266 = PRODUCT_CONTEXT ( 'NONE', #284, 'mechanical' ) ;
#267 = MANIFOLD_SOLID_BREP ( 'Revolve - Tool Body (Straight Shanked)', #85 ) ;
#268 =( NAMED_UNIT ( * ) SI_UNIT ( $, .STERADIAN. ) SOLID_ANGLE_UNIT ( ) );
#269 = DIRECTION ( 'NONE',  ( -0.000000000000000000, -1.000000000000000000, -0.000000000000000000 ) ) ;
#270 = DIRECTION ( 'NONE',  ( 1.000000000000000000, 0.000000000000000000, 0.000000000000000000 ) ) ;
#271 = PRESENTATION_LAYER_ASSIGNMENT (  '', '', ( #248 ) ) ;
#272 = PLANE ( 'NONE',  #217 ) ;
#273 = PRESENTATION_STYLE_ASSIGNMENT (( #170 ) ) ;
#274 = DIRECTION ( 'NONE',  ( 7.536287994752946416E-17, 1.000000000000000000, -0.000000000000000000 ) ) ;
#275 = DIMENSIONAL_EXPONENTS ( 1.000000000000000000, 0.000000000000000000, 0.000000000000000000, 0.000000000000000000, 0.000000000000000000, 0.000000000000000000, 0.000000000000000000 ) ;
#276 = PRESENTATION_STYLE_ASSIGNMENT (( #89 ) ) ;
#277 = MECHANICAL_DESIGN_GEOMETRIC_PRESENTATION_REPRESENTATION (  '', ( #290 ), #295 ) ;
#278 = STYLED_ITEM ( 'NONE', ( #242 ), #65 ) ;
#279 = CARTESIAN_POINT ( 'NONE',  ( 0.000000000000000000, 0.000000000000000000, 0.000000000000000000 ) ) ;
#280 = DIMENSIONAL_EXPONENTS ( 1.000000000000000000, 0.000000000000000000, 0.000000000000000000, 0.000000000000000000, 0.000000000000000000, 0.000000000000000000, 0.000000000000000000 ) ;
#281 = LENGTH_MEASURE_WITH_UNIT ( LENGTH_MEASURE( 0.02539999999999999897 ), #43 );
#282 = CIRCLE ( 'NONE', #141, 0.1250000000000000278 ) ;
#283 = MECHANICAL_DESIGN_GEOMETRIC_PRESENTATION_REPRESENTATION (  '', ( #196 ), #175 ) ;
#284 = APPLICATION_CONTEXT ( 'automotive_design' ) ;
#285 =( LENGTH_UNIT ( ) NAMED_UNIT ( * ) SI_UNIT ( $, .METRE. ) );
#286 = CARTESIAN_POINT ( 'NONE',  ( 1.530808498934191509E-17, 0.000000000000000000, 0.1250000000000000000 ) ) ;
#287 = ORIENTED_EDGE ( 'NONE', *, *, #220, .T. ) ;
#288 = FACE_OUTER_BOUND ( 'NONE', #257, .T. ) ;
#289 = ORIENTED_EDGE ( 'NONE', *, *, #297, .F. ) ;
#290 = STYLED_ITEM ( 'NONE', ( #273 ), #81 ) ;
#291 = FILL_AREA_STYLE_COLOUR ( '', #54 ) ;
#292 = DIRECTION ( 'NONE',  ( 0.000000000000000000, 0.000000000000000000, 1.000000000000000000 ) ) ;
#293 = ADVANCED_FACE ( 'NONE', ( #211 ), #258, .T. ) ;
#294 =( NAMED_UNIT ( * ) PLANE_ANGLE_UNIT ( ) SI_UNIT ( $, .RADIAN. ) );
#295 =( GEOMETRIC_REPRESENTATION_CONTEXT ( 3 ) GLOBAL_UNCERTAINTY_ASSIGNED_CONTEXT ( ( #26 ) ) GLOBAL_UNIT_ASSIGNED_CONTEXT ( ( #151, #294, #268 ) ) REPRESENTATION_CONTEXT ( 'NONE', 'WORKASPACE' ) );
#296 = DIRECTION ( 'NONE',  ( 0.000000000000000000, 0.000000000000000000, -1.000000000000000000 ) ) ;
#297 = EDGE_CURVE ( 'NONE', #29, #114, #74, .T. ) ;
#298 = SURFACE_SIDE_STYLE ('',( #36 ) ) ;
#299 = FILL_AREA_STYLE ('',( #104 ) ) ;
#300 = AXIS2_PLACEMENT_3D ( 'NONE', #57, #78, #215 ) ;
#301 = FACE_OUTER_BOUND ( 'NONE', #187, .T. ) ;
#302 = CARTESIAN_POINT ( 'NONE',  ( 0.000000000000000000, 0.3749999999999999445, 0.000000000000000000 ) ) ;
#303 = COLOUR_RGB ( '',0.7921568627450980005, 0.8196078431372548767, 0.9333333333333333481 ) ;
#304 = SURFACE_SIDE_STYLE ('',( #176 ) ) ;
#305 = CARTESIAN_POINT ( 'NONE',  ( 0.000000000000000000, 0.3749999999999999445, 0.000000000000000000 ) ) ;
#306 = UNCERTAINTY_MEASURE_WITH_UNIT (LENGTH_MEASURE( 1.000000000000000082E-05 ), #128, 'distance_accuracy_value', 'NONE');
#307 = CYLINDRICAL_SURFACE ( 'NONE', #14, 0.1249999999999999584 ) ;
#308 = STYLED_ITEM ( 'NONE', ( #113 ), #293 ) ;
#309 = ORIENTED_EDGE ( 'NONE', *, *, #208, .F. ) ;
ENDSEC;
END-ISO-10303-21;
