ISO-10303-21;
HEADER;
FILE_DESCRIPTION (( 'STEP AP214' ),
    '1' );
FILE_NAME ('Micro_SEM-062-03X.STEP',
    '2021-09-02T00:50:22',
    ( '' ),
    ( '' ),
    'SwSTEP 2.0',
    'SolidWorks 2020',
    '' );
FILE_SCHEMA (( 'AUTOMOTIVE_DESIGN' ));
ENDSEC;

DATA;
#1 = CARTESIAN_POINT ( 'NONE',  ( 1.530808498934191817E-17, 0.0000000000000000000, 0.1250000000000000000 ) ) ;
#2 = FACE_OUTER_BOUND ( 'NONE', #138, .T. ) ;
#3 = AXIS2_PLACEMENT_3D ( 'NONE', #71, #14, #146 ) ;
#4 = CIRCLE ( 'NONE', #125, 0.03121874999999999997 ) ;
#5 = LINE ( 'NONE', #277, #31 ) ;
#6 = LINE ( 'NONE', #101, #174 ) ;
#7 = EDGE_CURVE ( 'NONE', #252, #233, #5, .T. ) ;
#8 = DIMENSIONAL_EXPONENTS ( 1.000000000000000000, 0.0000000000000000000, 0.0000000000000000000, 0.0000000000000000000, 0.0000000000000000000, 0.0000000000000000000, 0.0000000000000000000 ) ;
#9 = DIRECTION ( 'NONE',  ( 0.0000000000000000000, 0.0000000000000000000, -1.000000000000000000 ) ) ;
#10 = CARTESIAN_POINT ( 'NONE',  ( 0.06250000000000002776, 7.654042494670959086E-18, 0.3024047844199154178 ) ) ;
#11 = DIRECTION ( 'NONE',  ( -1.224646799147353454E-16, -0.0000000000000000000, -1.000000000000000000 ) ) ;
#12 = DIMENSIONAL_EXPONENTS ( 1.000000000000000000, 0.0000000000000000000, 0.0000000000000000000, 0.0000000000000000000, 0.0000000000000000000, 0.0000000000000000000, 0.0000000000000000000 ) ;
#13 = MANIFOLD_SOLID_BREP ( 'Cut-Revolve1', #140 ) ;
#14 = DIRECTION ( 'NONE',  ( -1.224646799147353454E-16, -0.0000000000000000000, -1.000000000000000000 ) ) ;
#15 = AXIS2_PLACEMENT_3D ( 'NONE', #98, #193, #30 ) ;
#16 = VERTEX_POINT ( 'NONE', #238 ) ;
#17 = EDGE_LOOP ( 'NONE', ( #184, #187, #44, #298 ) ) ;
#18 = MECHANICAL_DESIGN_GEOMETRIC_PRESENTATION_REPRESENTATION (  '', ( #217 ), #267 ) ;
#19 = ORIENTED_EDGE ( 'NONE', *, *, #7, .T. ) ;
#20 = EDGE_LOOP ( 'NONE', ( #254, #106, #230, #165 ) ) ;
#21 = VERTEX_POINT ( 'NONE', #206 ) ;
#22 = ADVANCED_FACE ( 'NONE', ( #46 ), #211, .F. ) ;
#23 = DIRECTION ( 'NONE',  ( 1.000000000000000000, 0.0000000000000000000, -0.0000000000000000000 ) ) ;
#24 = SURFACE_STYLE_FILL_AREA ( #191 ) ;
#25 = LENGTH_MEASURE_WITH_UNIT ( LENGTH_MEASURE( 0.02539999999999999897 ), #188 );
#26 = CONICAL_SURFACE ( 'NONE', #190, 0.03121875000000000691, 0.1745329251994339192 ) ;
#27 = CARTESIAN_POINT ( 'NONE',  ( -0.03121874999999998956, 3.823194226088144458E-18, 0.1250000000000000000 ) ) ;
#28 = PRODUCT_DEFINITION ( 'UNKNOWN', '', #229, #213 ) ;
#29 = CARTESIAN_POINT ( 'NONE',  ( -0.03121875000000000691, 0.0000000000000000000, 3.823194226088144458E-18 ) ) ;
#30 = DIRECTION ( 'NONE',  ( -1.000000000000000000, 0.0000000000000000000, 0.0000000000000000000 ) ) ;
#31 = VECTOR ( 'NONE', #208, 39.37007874015748143 ) ;
#32 = CIRCLE ( 'NONE', #239, 0.04750000000000064587 ) ;
#33 = FACE_OUTER_BOUND ( 'NONE', #280, .T. ) ;
#34 = DIRECTION ( 'NONE',  ( -0.0000000000000000000, -0.0000000000000000000, -1.000000000000000000 ) ) ;
#35 = ORIENTED_EDGE ( 'NONE', *, *, #284, .F. ) ;
#36 =( CONVERSION_BASED_UNIT ( 'INCH', #152 ) LENGTH_UNIT ( ) NAMED_UNIT ( #12 ) );
#37 = CARTESIAN_POINT ( 'NONE',  ( -0.06249999999999996531, 0.0000000000000000000, 0.3024047844199154178 ) ) ;
#38 = ORIENTED_EDGE ( 'NONE', *, *, #284, .T. ) ;
#39 = CYLINDRICAL_SURFACE ( 'NONE', #278, 0.06250000000000000000 ) ;
#40 = EDGE_LOOP ( 'NONE', ( #135, #296, #198, #85 ) ) ;
#41 = PRESENTATION_STYLE_ASSIGNMENT (( #57 ) ) ;
#42 = EDGE_CURVE ( 'NONE', #160, #252, #235, .T. ) ;
#43 = DIRECTION ( 'NONE',  ( -1.224646799147353454E-16, -0.0000000000000000000, -1.000000000000000000 ) ) ;
#44 = ORIENTED_EDGE ( 'NONE', *, *, #236, .T. ) ;
#45 = CIRCLE ( 'NONE', #244, 0.03121875000000000691 ) ;
#46 = FACE_OUTER_BOUND ( 'NONE', #113, .T. ) ;
#47 = ORIENTED_EDGE ( 'NONE', *, *, #151, .T. ) ;
#48 = PLANE ( 'NONE',  #294 ) ;
#49 = AXIS2_PLACEMENT_3D ( 'NONE', #73, #34, #245 ) ;
#50 = DIRECTION ( 'NONE',  ( -0.0000000000000000000, -0.0000000000000000000, -1.000000000000000000 ) ) ;
#51 = CARTESIAN_POINT ( 'NONE',  ( 3.703390512866948185E-17, 0.0000000000000000000, 0.3024047844199154178 ) ) ;
#52 = CARTESIAN_POINT ( 'NONE',  ( 0.0000000000000000000, 0.0000000000000000000, 1.500000000000000222 ) ) ;
#53 = DIRECTION ( 'NONE',  ( -1.224646799147353454E-16, -0.0000000000000000000, -1.000000000000000000 ) ) ;
#54 = AXIS2_PLACEMENT_3D ( 'NONE', #126, #9, #264 ) ;
#55 = LINE ( 'NONE', #221, #110 ) ;
#56 = UNCERTAINTY_MEASURE_WITH_UNIT (LENGTH_MEASURE( 1.000000000000000082E-05 ), #69, 'distance_accuracy_value', 'NONE');
#57 = SURFACE_STYLE_USAGE ( .BOTH. , #58 ) ;
#58 = SURFACE_SIDE_STYLE ('',( #256 ) ) ;
#59 = ADVANCED_FACE ( 'NONE', ( #63 ), #48, .T. ) ;
#60 = DIRECTION ( 'NONE',  ( 0.0000000000000000000, 0.0000000000000000000, 1.000000000000000000 ) ) ;
#61 = ORIENTED_EDGE ( 'NONE', *, *, #151, .F. ) ;
#62 = ORIENTED_EDGE ( 'NONE', *, *, #121, .T. ) ;
#63 = FACE_OUTER_BOUND ( 'NONE', #223, .T. ) ;
#64 = CARTESIAN_POINT ( 'NONE',  ( 1.530808498934191817E-17, 0.0000000000000000000, 0.1250000000000000000 ) ) ;
#65 = ORIENTED_EDGE ( 'NONE', *, *, #131, .F. ) ;
#66 = PRODUCT_RELATED_PRODUCT_CATEGORY ( 'part', '', ( #265 ) ) ;
#67 = AXIS2_PLACEMENT_3D ( 'NONE', #299, #281, #23 ) ;
#68 = COLOUR_RGB ( '',0.7921568627450980005, 0.8196078431372548767, 0.9333333333333333481 ) ;
#69 =( CONVERSION_BASED_UNIT ( 'INCH', #25 ) LENGTH_UNIT ( ) NAMED_UNIT ( #8 ) );
#70 = CARTESIAN_POINT ( 'NONE',  ( 0.04750000000000064587, 5.817072295950006528E-18, 1.500000000000000222 ) ) ;
#71 = CARTESIAN_POINT ( 'NONE',  ( 3.703390512866948185E-17, 0.0000000000000000000, 0.3024047844199154178 ) ) ;
#72 = EDGE_CURVE ( 'NONE', #292, #16, #4, .T. ) ;
#73 = CARTESIAN_POINT ( 'NONE',  ( 0.0000000000000000000, 0.0000000000000000000, 1.500000000000000222 ) ) ;
#74 = CARTESIAN_POINT ( 'NONE',  ( 0.0000000000000000000, 0.0000000000000000000, 1.500000000000000222 ) ) ;
#75 = CARTESIAN_POINT ( 'NONE',  ( -0.04750000000000064587, 0.0000000000000000000, 1.500000000000000222 ) ) ;
#76 = LINE ( 'NONE', #27, #210 ) ;
#77 = FACE_OUTER_BOUND ( 'NONE', #167, .T. ) ;
#78 = ADVANCED_FACE ( 'NONE', ( #234 ), #26, .T. ) ;
#79 = CARTESIAN_POINT ( 'NONE',  ( 4.682062571497488738E-34, 0.0000000000000000000, 3.823194226088144458E-18 ) ) ;
#80 = CIRCLE ( 'NONE', #158, 0.03121874999999999997 ) ;
#81 = FILL_AREA_STYLE_COLOUR ( '', #268 ) ;
#82 = AXIS2_PLACEMENT_3D ( 'NONE', #282, #144, #285 ) ;
#83 = ORIENTED_EDGE ( 'NONE', *, *, #169, .F. ) ;
#84 = DIRECTION ( 'NONE',  ( -0.0000000000000000000, -0.0000000000000000000, -1.000000000000000000 ) ) ;
#85 = ORIENTED_EDGE ( 'NONE', *, *, #236, .F. ) ;
#86 = ADVANCED_FACE ( 'NONE', ( #257 ), #199, .T. ) ;
#87 = EDGE_LOOP ( 'NONE', ( #114, #83, #275, #182 ) ) ;
#88 = VECTOR ( 'NONE', #11, 39.37007874015748143 ) ;
#89 = FILL_AREA_STYLE_COLOUR ( '', #68 ) ;
#90 = ADVANCED_FACE ( 'NONE', ( #2 ), #92, .T. ) ;
#91 = DIRECTION ( 'NONE',  ( 1.224646799147353454E-16, 0.0000000000000000000, 1.000000000000000000 ) ) ;
#92 = CYLINDRICAL_SURFACE ( 'NONE', #201, 0.03121875000000000691 ) ;
#93 = AXIS2_PLACEMENT_3D ( 'NONE', #1, #91, #116 ) ;
#94 = VECTOR ( 'NONE', #50, 39.37007874015748143 ) ;
#95 =( NAMED_UNIT ( * ) SI_UNIT ( $, .STERADIAN. ) SOLID_ANGLE_UNIT ( ) );
#96 = ADVANCED_FACE ( 'NONE', ( #263 ), #175, .T. ) ;
#97 = DIRECTION ( 'NONE',  ( 0.1736481776669314137, 0.0000000000000000000, 0.9848077530122077983 ) ) ;
#98 = CARTESIAN_POINT ( 'NONE',  ( 1.530808498934191817E-17, 0.0000000000000000000, 0.1250000000000000000 ) ) ;
#99 = PRODUCT_DEFINITION_SHAPE ( 'NONE', 'NONE',  #28 ) ;
#100 = DIRECTION ( 'NONE',  ( -1.224646799147353454E-16, -0.0000000000000000000, -1.000000000000000000 ) ) ;
#101 = CARTESIAN_POINT ( 'NONE',  ( 0.03121875000000002426, 0.0000000000000000000, 0.1250000000000000000 ) ) ;
#102 = PRESENTATION_LAYER_ASSIGNMENT (  '', '', ( #217 ) ) ;
#103 = CARTESIAN_POINT ( 'NONE',  ( 0.03121875000000002426, 0.0000000000000000000, 0.1250000000000000000 ) ) ;
#104 = LENGTH_MEASURE_WITH_UNIT ( LENGTH_MEASURE( 0.02539999999999999897 ), #272 );
#105 = EDGE_CURVE ( 'NONE', #21, #273, #76, .T. ) ;
#106 = ORIENTED_EDGE ( 'NONE', *, *, #105, .T. ) ;
#107 = CIRCLE ( 'NONE', #82, 0.04750000000000064587 ) ;
#108 =( NAMED_UNIT ( * ) PLANE_ANGLE_UNIT ( ) SI_UNIT ( $, .RADIAN. ) );
#109 = ORIENTED_EDGE ( 'NONE', *, *, #185, .F. ) ;
#110 = VECTOR ( 'NONE', #100, 39.37007874015748143 ) ;
#111 =( NAMED_UNIT ( * ) SI_UNIT ( $, .STERADIAN. ) SOLID_ANGLE_UNIT ( ) );
#112 = ADVANCED_FACE ( 'NONE', ( #33 ), #269, .T. ) ;
#113 = EDGE_LOOP ( 'NONE', ( #115, #38 ) ) ;
#114 = ORIENTED_EDGE ( 'NONE', *, *, #105, .F. ) ;
#115 = ORIENTED_EDGE ( 'NONE', *, *, #72, .T. ) ;
#116 = DIRECTION ( 'NONE',  ( 1.000000000000000000, 0.0000000000000000000, 0.0000000000000000000 ) ) ;
#117 = UNCERTAINTY_MEASURE_WITH_UNIT (LENGTH_MEASURE( 1.000000000000000082E-05 ), #36, 'distance_accuracy_value', 'NONE');
#118 = ORIENTED_EDGE ( 'NONE', *, *, #124, .F. ) ;
#119 = CIRCLE ( 'NONE', #197, 0.06250000000000000000 ) ;
#120 = DIRECTION ( 'NONE',  ( 0.0000000000000000000, 0.0000000000000000000, 1.000000000000000000 ) ) ;
#121 = EDGE_CURVE ( 'NONE', #252, #142, #119, .T. ) ;
#122 = CARTESIAN_POINT ( 'NONE',  ( 0.0000000000000000000, 0.0000000000000000000, 1.485000000000000764 ) ) ;
#123 = CARTESIAN_POINT ( 'NONE',  ( 1.530808498934191817E-17, 0.0000000000000000000, 0.1250000000000000000 ) ) ;
#124 = EDGE_CURVE ( 'NONE', #233, #273, #289, .T. ) ;
#125 = AXIS2_PLACEMENT_3D ( 'NONE', #276, #43, #237 ) ;
#126 = CARTESIAN_POINT ( 'NONE',  ( 0.0000000000000000000, 0.0000000000000000000, 1.485000000000000764 ) ) ;
#127 = DIMENSIONAL_EXPONENTS ( 1.000000000000000000, 0.0000000000000000000, 0.0000000000000000000, 0.0000000000000000000, 0.0000000000000000000, 0.0000000000000000000, 0.0000000000000000000 ) ;
#128 = DIRECTION ( 'NONE',  ( 0.0000000000000000000, 0.0000000000000000000, -1.000000000000000000 ) ) ;
#129 = DIRECTION ( 'NONE',  ( 1.000000000000000000, 0.0000000000000000000, 0.0000000000000000000 ) ) ;
#130 =( NAMED_UNIT ( * ) SI_UNIT ( $, .STERADIAN. ) SOLID_ANGLE_UNIT ( ) );
#131 = EDGE_CURVE ( 'NONE', #142, #273, #171, .T. ) ;
#132 = DIRECTION ( 'NONE',  ( -1.000000000000000000, 0.0000000000000000000, 1.224646799147353700E-16 ) ) ;
#133 = ORIENTED_EDGE ( 'NONE', *, *, #7, .F. ) ;
#134 = AXIS2_PLACEMENT_3D ( 'NONE', #288, #149, #246 ) ;
#135 = ORIENTED_EDGE ( 'NONE', *, *, #224, .F. ) ;
#136 = CONICAL_SURFACE ( 'NONE', #173, 0.04750000000000064587, 0.7853981633974457255 ) ;
#137 = PRODUCT_CONTEXT ( 'NONE', #225, 'mechanical' ) ;
#138 = EDGE_LOOP ( 'NONE', ( #181, #293, #153, #61 ) ) ;
#139 = EDGE_CURVE ( 'NONE', #202, #233, #6, .T. ) ;
#140 = CLOSED_SHELL ( 'NONE', ( #90, #86, #260, #290, #112, #59, #232, #78, #96, #22 ) ) ;
#141 = DIRECTION ( 'NONE',  ( 1.000000000000000000, 0.0000000000000000000, 0.0000000000000000000 ) ) ;
#142 = VERTEX_POINT ( 'NONE', #192 ) ;
#143 = CARTESIAN_POINT ( 'NONE',  ( 0.0000000000000000000, 0.0000000000000000000, 1.500000000000000222 ) ) ;
#144 = DIRECTION ( 'NONE',  ( 0.0000000000000000000, 0.0000000000000000000, 1.000000000000000000 ) ) ;
#145 = CARTESIAN_POINT ( 'NONE',  ( 0.04750000000000064587, 6.735557395310482421E-18, 1.500000000000000222 ) ) ;
#146 = DIRECTION ( 'NONE',  ( 1.000000000000000000, 0.0000000000000000000, 0.0000000000000000000 ) ) ;
#147 =( GEOMETRIC_REPRESENTATION_CONTEXT ( 3 ) GLOBAL_UNCERTAINTY_ASSIGNED_CONTEXT ( ( #262 ) ) GLOBAL_UNIT_ASSIGNED_CONTEXT ( ( #270, #108, #111 ) ) REPRESENTATION_CONTEXT ( 'NONE', 'WORKASPACE' ) );
#148 = PRESENTATION_LAYER_ASSIGNMENT (  '', '', ( #243 ) ) ;
#149 = DIRECTION ( 'NONE',  ( -1.224646799147353454E-16, -0.0000000000000000000, -1.000000000000000000 ) ) ;
#150 = DIRECTION ( 'NONE',  ( -1.224646799147353454E-16, -0.0000000000000000000, -1.000000000000000000 ) ) ;
#151 = EDGE_CURVE ( 'NONE', #21, #292, #168, .T. ) ;
#152 = LENGTH_MEASURE_WITH_UNIT ( LENGTH_MEASURE( 0.02539999999999999897 ), #250 );
#153 = ORIENTED_EDGE ( 'NONE', *, *, #72, .F. ) ;
#154 = FILL_AREA_STYLE ('',( #81 ) ) ;
#155 = ORIENTED_EDGE ( 'NONE', *, *, #131, .T. ) ;
#156 = CARTESIAN_POINT ( 'NONE',  ( 0.0000000000000000000, 0.0000000000000000000, 1.500000000000000222 ) ) ;
#157 = VERTEX_POINT ( 'NONE', #283 ) ;
#158 = AXIS2_PLACEMENT_3D ( 'NONE', #79, #177, #132 ) ;
#159 = APPLICATION_PROTOCOL_DEFINITION ( 'draft international standard', 'automotive_design', 1998, #225 ) ;
#160 = VERTEX_POINT ( 'NONE', #145 ) ;
#161 = DIRECTION ( 'NONE',  ( 1.000000000000000000, 0.0000000000000000000, -0.0000000000000000000 ) ) ;
#162 = DIRECTION ( 'NONE',  ( 1.224646799147353454E-16, 0.0000000000000000000, 1.000000000000000000 ) ) ;
#163 = PRESENTATION_STYLE_ASSIGNMENT (( #186 ) ) ;
#164 = CONICAL_SURFACE ( 'NONE', #279, 0.04750000000000064587, 0.7853981633974457255 ) ;
#165 = ORIENTED_EDGE ( 'NONE', *, *, #139, .F. ) ;
#166 = EDGE_CURVE ( 'NONE', #157, #160, #32, .T. ) ;
#167 = EDGE_LOOP ( 'NONE', ( #180, #19, #109, #65 ) ) ;
#168 = LINE ( 'NONE', #29, #88 ) ;
#169 = EDGE_CURVE ( 'NONE', #202, #21, #45, .T. ) ;
#170 = DIRECTION ( 'NONE',  ( -0.1736481776669312194, 2.126576849575783625E-17, 0.9848077530122080203 ) ) ;
#171 = LINE ( 'NONE', #241, #94 ) ;
#172 = DIRECTION ( 'NONE',  ( -0.7071067811865456854, 0.0000000000000000000, -0.7071067811865493491 ) ) ;
#173 = AXIS2_PLACEMENT_3D ( 'NONE', #74, #242, #219 ) ;
#174 = VECTOR ( 'NONE', #97, 39.37007874015748143 ) ;
#175 = CYLINDRICAL_SURFACE ( 'NONE', #134, 0.03121875000000000691 ) ;
#176 = EDGE_CURVE ( 'NONE', #142, #252, #222, .T. ) ;
#177 = DIRECTION ( 'NONE',  ( -1.224646799147353454E-16, -0.0000000000000000000, -1.000000000000000000 ) ) ;
#178 = CARTESIAN_POINT ( 'NONE',  ( 0.0000000000000000000, 0.0000000000000000000, 0.0000000000000000000 ) ) ;
#179 = EDGE_CURVE ( 'NONE', #202, #16, #55, .T. ) ;
#180 = ORIENTED_EDGE ( 'NONE', *, *, #176, .T. ) ;
#181 = ORIENTED_EDGE ( 'NONE', *, *, #196, .T. ) ;
#182 = ORIENTED_EDGE ( 'NONE', *, *, #124, .T. ) ;
#183 = VECTOR ( 'NONE', #214, 39.37007874015748143 ) ;
#184 = ORIENTED_EDGE ( 'NONE', *, *, #42, .F. ) ;
#185 = EDGE_CURVE ( 'NONE', #273, #233, #218, .T. ) ;
#186 = SURFACE_STYLE_USAGE ( .BOTH. , #207 ) ;
#187 = ORIENTED_EDGE ( 'NONE', *, *, #166, .F. ) ;
#188 =( LENGTH_UNIT ( ) NAMED_UNIT ( * ) SI_UNIT ( $, .METRE. ) );
#189 = MECHANICAL_DESIGN_GEOMETRIC_PRESENTATION_REPRESENTATION (  '', ( #243 ), #212 ) ;
#190 = AXIS2_PLACEMENT_3D ( 'NONE', #64, #162, #141 ) ;
#191 = FILL_AREA_STYLE ('',( #89 ) ) ;
#192 = CARTESIAN_POINT ( 'NONE',  ( -0.06250000000000000000, 0.0000000000000000000, 1.485000000000000764 ) ) ;
#193 = DIRECTION ( 'NONE',  ( -1.224646799147353454E-16, -0.0000000000000000000, -1.000000000000000000 ) ) ;
#194 = DIRECTION ( 'NONE',  ( -1.000000000000000000, 0.0000000000000000000, 1.224646799147353207E-16 ) ) ;
#195 = DIRECTION ( 'NONE',  ( 1.000000000000000000, 0.0000000000000000000, 0.0000000000000000000 ) ) ;
#196 = EDGE_CURVE ( 'NONE', #21, #202, #295, .T. ) ;
#197 = AXIS2_PLACEMENT_3D ( 'NONE', #122, #128, #261 ) ;
#198 = ORIENTED_EDGE ( 'NONE', *, *, #176, .F. ) ;
#199 = CONICAL_SURFACE ( 'NONE', #93, 0.03121875000000000691, 0.1745329251994339192 ) ;
#200 = CARTESIAN_POINT ( 'NONE',  ( 0.0000000000000000000, 0.0000000000000000000, 1.500000000000000222 ) ) ;
#201 = AXIS2_PLACEMENT_3D ( 'NONE', #220, #53, #194 ) ;
#202 = VERTEX_POINT ( 'NONE', #103 ) ;
#203 = DIRECTION ( 'NONE',  ( -1.000000000000000000, 0.0000000000000000000, 0.0000000000000000000 ) ) ;
#204 = EDGE_LOOP ( 'NONE', ( #248, #205, #47, #35 ) ) ;
#205 = ORIENTED_EDGE ( 'NONE', *, *, #169, .T. ) ;
#206 = CARTESIAN_POINT ( 'NONE',  ( -0.03121874999999998956, 5.738618360379551386E-18, 0.1250000000000000000 ) ) ;
#207 = SURFACE_SIDE_STYLE ('',( #24 ) ) ;
#208 = DIRECTION ( 'NONE',  ( -0.0000000000000000000, -0.0000000000000000000, -1.000000000000000000 ) ) ;
#209 = APPLICATION_PROTOCOL_DEFINITION ( 'draft international standard', 'automotive_design', 1998, #249 ) ;
#210 = VECTOR ( 'NONE', #170, 39.37007874015747433 ) ;
#211 = PLANE ( 'NONE',  #67 ) ;
#212 =( GEOMETRIC_REPRESENTATION_CONTEXT ( 3 ) GLOBAL_UNCERTAINTY_ASSIGNED_CONTEXT ( ( #56 ) ) GLOBAL_UNIT_ASSIGNED_CONTEXT ( ( #69, #259, #95 ) ) REPRESENTATION_CONTEXT ( 'NONE', 'WORKASPACE' ) );
#213 = PRODUCT_DEFINITION_CONTEXT ( 'detailed design', #249, 'design' ) ;
#214 = DIRECTION ( 'NONE',  ( 0.7071067811865456854, 8.659560562354911904E-17, -0.7071067811865493491 ) ) ;
#215 = DIRECTION ( 'NONE',  ( 0.0000000000000000000, 0.0000000000000000000, 1.000000000000000000 ) ) ;
#216 = DIRECTION ( 'NONE',  ( -1.000000000000000000, 0.0000000000000000000, 0.0000000000000000000 ) ) ;
#217 = STYLED_ITEM ( 'NONE', ( #41 ), #287 ) ;
#218 = CIRCLE ( 'NONE', #3, 0.06250000000000000000 ) ;
#219 = DIRECTION ( 'NONE',  ( -1.000000000000000000, 0.0000000000000000000, 0.0000000000000000000 ) ) ;
#220 = CARTESIAN_POINT ( 'NONE',  ( 0.0000000000000000000, 0.0000000000000000000, 0.0000000000000000000 ) ) ;
#221 = CARTESIAN_POINT ( 'NONE',  ( 0.03121875000000000691, 3.823194226088144458E-18, -3.823194226088144458E-18 ) ) ;
#222 = CIRCLE ( 'NONE', #54, 0.06250000000000000000 ) ;
#223 = EDGE_LOOP ( 'NONE', ( #271, #226 ) ) ;
#224 = EDGE_CURVE ( 'NONE', #160, #157, #107, .T. ) ;
#225 = APPLICATION_CONTEXT ( 'automotive_design' ) ;
#226 = ORIENTED_EDGE ( 'NONE', *, *, #224, .T. ) ;
#227 = AXIS2_PLACEMENT_3D ( 'NONE', #51, #266, #129 ) ;
#228 = CARTESIAN_POINT ( 'NONE',  ( 0.06250000000000000000, 7.654042494670956004E-18, 1.485000000000000764 ) ) ;
#229 = PRODUCT_DEFINITION_FORMATION_WITH_SPECIFIED_SOURCE ( 'ANY', '', #265, .NOT_KNOWN. ) ;
#230 = ORIENTED_EDGE ( 'NONE', *, *, #185, .T. ) ;
#231 = CARTESIAN_POINT ( 'NONE',  ( -0.03121874999999999997, 0.0000000000000000000, 7.646388452176288915E-18 ) ) ;
#232 = ADVANCED_FACE ( 'NONE', ( #240 ), #136, .T. ) ;
#233 = VERTEX_POINT ( 'NONE', #10 ) ;
#234 = FACE_OUTER_BOUND ( 'NONE', #87, .T. ) ;
#235 = LINE ( 'NONE', #70, #183 ) ;
#236 = EDGE_CURVE ( 'NONE', #157, #142, #286, .T. ) ;
#237 = DIRECTION ( 'NONE',  ( -1.000000000000000000, 0.0000000000000000000, 1.224646799147353700E-16 ) ) ;
#238 = CARTESIAN_POINT ( 'NONE',  ( 0.03121874999999999997, 3.823194226088143687E-18, -4.739000847409537175E-34 ) ) ;
#239 = AXIS2_PLACEMENT_3D ( 'NONE', #52, #215, #195 ) ;
#240 = FACE_OUTER_BOUND ( 'NONE', #17, .T. ) ;
#241 = CARTESIAN_POINT ( 'NONE',  ( -0.06250000000000000000, 0.0000000000000000000, 1.500000000000000222 ) ) ;
#242 = DIRECTION ( 'NONE',  ( 0.0000000000000000000, 0.0000000000000000000, -1.000000000000000000 ) ) ;
#243 = STYLED_ITEM ( 'NONE', ( #163 ), #13 ) ;
#244 = AXIS2_PLACEMENT_3D ( 'NONE', #123, #150, #216 ) ;
#245 = DIRECTION ( 'NONE',  ( -1.000000000000000000, 0.0000000000000000000, 0.0000000000000000000 ) ) ;
#246 = DIRECTION ( 'NONE',  ( -1.000000000000000000, 0.0000000000000000000, 1.224646799147353207E-16 ) ) ;
#247 =( NAMED_UNIT ( * ) PLANE_ANGLE_UNIT ( ) SI_UNIT ( $, .RADIAN. ) );
#248 = ORIENTED_EDGE ( 'NONE', *, *, #179, .F. ) ;
#249 = APPLICATION_CONTEXT ( 'automotive_design' ) ;
#250 =( LENGTH_UNIT ( ) NAMED_UNIT ( * ) SI_UNIT ( $, .METRE. ) );
#251 = DIRECTION ( 'NONE',  ( 1.000000000000000000, 0.0000000000000000000, 0.0000000000000000000 ) ) ;
#252 = VERTEX_POINT ( 'NONE', #228 ) ;
#253 = DIRECTION ( 'NONE',  ( 0.0000000000000000000, 0.0000000000000000000, -1.000000000000000000 ) ) ;
#254 = ORIENTED_EDGE ( 'NONE', *, *, #196, .F. ) ;
#255 = VECTOR ( 'NONE', #172, 39.37007874015748143 ) ;
#256 = SURFACE_STYLE_FILL_AREA ( #154 ) ;
#257 = FACE_OUTER_BOUND ( 'NONE', #20, .T. ) ;
#258 = SHAPE_DEFINITION_REPRESENTATION ( #99, #287 ) ;
#259 =( NAMED_UNIT ( * ) PLANE_ANGLE_UNIT ( ) SI_UNIT ( $, .RADIAN. ) );
#260 = ADVANCED_FACE ( 'NONE', ( #297 ), #164, .T. ) ;
#261 = DIRECTION ( 'NONE',  ( 1.000000000000000000, 0.0000000000000000000, 0.0000000000000000000 ) ) ;
#262 = UNCERTAINTY_MEASURE_WITH_UNIT (LENGTH_MEASURE( 1.000000000000000082E-05 ), #270, 'distance_accuracy_value', 'NONE');
#263 = FACE_OUTER_BOUND ( 'NONE', #204, .T. ) ;
#264 = DIRECTION ( 'NONE',  ( 1.000000000000000000, 0.0000000000000000000, 0.0000000000000000000 ) ) ;
#265 = PRODUCT ( 'Micro_SEM-062-03X', 'Micro_SEM-062-03X', '', ( #137 ) ) ;
#266 = DIRECTION ( 'NONE',  ( -1.224646799147353454E-16, -0.0000000000000000000, -1.000000000000000000 ) ) ;
#267 =( GEOMETRIC_REPRESENTATION_CONTEXT ( 3 ) GLOBAL_UNCERTAINTY_ASSIGNED_CONTEXT ( ( #117 ) ) GLOBAL_UNIT_ASSIGNED_CONTEXT ( ( #36, #247, #130 ) ) REPRESENTATION_CONTEXT ( 'NONE', 'WORKASPACE' ) );
#268 = COLOUR_RGB ( '',0.7921568627450980005, 0.8196078431372548767, 0.9333333333333333481 ) ;
#269 = CYLINDRICAL_SURFACE ( 'NONE', #49, 0.06250000000000000000 ) ;
#270 =( CONVERSION_BASED_UNIT ( 'INCH', #104 ) LENGTH_UNIT ( ) NAMED_UNIT ( #127 ) );
#271 = ORIENTED_EDGE ( 'NONE', *, *, #166, .T. ) ;
#272 =( LENGTH_UNIT ( ) NAMED_UNIT ( * ) SI_UNIT ( $, .METRE. ) );
#273 = VERTEX_POINT ( 'NONE', #37 ) ;
#274 = AXIS2_PLACEMENT_3D ( 'NONE', #178, #60, #251 ) ;
#275 = ORIENTED_EDGE ( 'NONE', *, *, #139, .T. ) ;
#276 = CARTESIAN_POINT ( 'NONE',  ( 4.682062571497488738E-34, 0.0000000000000000000, 3.823194226088144458E-18 ) ) ;
#277 = CARTESIAN_POINT ( 'NONE',  ( 0.06250000000000000000, 7.654042494670956004E-18, 1.500000000000000222 ) ) ;
#278 = AXIS2_PLACEMENT_3D ( 'NONE', #200, #84, #291 ) ;
#279 = AXIS2_PLACEMENT_3D ( 'NONE', #156, #253, #203 ) ;
#280 = EDGE_LOOP ( 'NONE', ( #133, #62, #155, #118 ) ) ;
#281 = DIRECTION ( 'NONE',  ( 0.0000000000000000000, 0.0000000000000000000, 1.000000000000000000 ) ) ;
#282 = CARTESIAN_POINT ( 'NONE',  ( 0.0000000000000000000, 0.0000000000000000000, 1.500000000000000222 ) ) ;
#283 = CARTESIAN_POINT ( 'NONE',  ( -0.04750000000000064587, 0.0000000000000000000, 1.500000000000000222 ) ) ;
#284 = EDGE_CURVE ( 'NONE', #16, #292, #80, .T. ) ;
#285 = DIRECTION ( 'NONE',  ( 1.000000000000000000, 0.0000000000000000000, 0.0000000000000000000 ) ) ;
#286 = LINE ( 'NONE', #75, #255 ) ;
#287 = ADVANCED_BREP_SHAPE_REPRESENTATION ( 'Micro_SEM-062-03X', ( #13, #274 ), #147 ) ;
#288 = CARTESIAN_POINT ( 'NONE',  ( 0.0000000000000000000, 0.0000000000000000000, 0.0000000000000000000 ) ) ;
#289 = CIRCLE ( 'NONE', #227, 0.06250000000000000000 ) ;
#290 = ADVANCED_FACE ( 'NONE', ( #77 ), #39, .T. ) ;
#291 = DIRECTION ( 'NONE',  ( -1.000000000000000000, 0.0000000000000000000, 0.0000000000000000000 ) ) ;
#292 = VERTEX_POINT ( 'NONE', #231 ) ;
#293 = ORIENTED_EDGE ( 'NONE', *, *, #179, .T. ) ;
#294 = AXIS2_PLACEMENT_3D ( 'NONE', #143, #120, #161 ) ;
#295 = CIRCLE ( 'NONE', #15, 0.03121875000000000691 ) ;
#296 = ORIENTED_EDGE ( 'NONE', *, *, #42, .T. ) ;
#297 = FACE_OUTER_BOUND ( 'NONE', #40, .T. ) ;
#298 = ORIENTED_EDGE ( 'NONE', *, *, #121, .F. ) ;
#299 = CARTESIAN_POINT ( 'NONE',  ( 0.0000000000000000000, 0.0000000000000000000, 0.0000000000000000000 ) ) ;
ENDSEC;
END-ISO-10303-21;
