ISO-10303-21;
HEADER;
FILE_DESCRIPTION (( 'STEP AP214' ),
    '1' );
FILE_NAME ('Micro_RMEM-016-2.STEP',
    '2021-09-02T00:09:28',
    ( '' ),
    ( '' ),
    'SwSTEP 2.0',
    'SolidWorks 2020',
    '' );
FILE_SCHEMA (( 'AUTOMOTIVE_DESIGN' ));
ENDSEC;

DATA;
#1 = ADVANCED_FACE ( 'NONE', ( #174 ), #297, .T. ) ;
#2 = ADVANCED_FACE ( 'NONE', ( #28 ), #31, .T. ) ;
#3 = AXIS2_PLACEMENT_3D ( 'NONE', #118, #67, #212 ) ;
#4 = ORIENTED_EDGE ( 'NONE', *, *, #179, .T. ) ;
#5 = APPLICATION_CONTEXT ( 'automotive_design' ) ;
#6 = DIRECTION ( 'NONE',  ( -0.0000000000000000000, -0.0000000000000000000, -1.000000000000000000 ) ) ;
#7 = EDGE_CURVE ( 'NONE', #19, #172, #82, .T. ) ;
#8 = DIRECTION ( 'NONE',  ( 1.224646799147353207E-16, 0.0000000000000000000, 1.000000000000000000 ) ) ;
#9 = AXIS2_PLACEMENT_3D ( 'NONE', #223, #103, #171 ) ;
#10 = CARTESIAN_POINT ( 'NONE',  ( 2.314288535156702350E-17, 0.0000000000000000000, 0.1889760000000000051 ) ) ;
#11 = CYLINDRICAL_SURFACE ( 'NONE', #26, 0.03146450399999999731 ) ;
#12 = CLOSED_SHELL ( 'NONE', ( #197, #1, #193, #92, #126, #148, #2, #295, #46, #24 ) ) ;
#13 = LINE ( 'NONE', #290, #85 ) ;
#14 = FILL_AREA_STYLE ('',( #208 ) ) ;
#15 = AXIS2_PLACEMENT_3D ( 'NONE', #224, #241, #54 ) ;
#16 = DIRECTION ( 'NONE',  ( -1.224646799147353207E-16, -0.0000000000000000000, -1.000000000000000000 ) ) ;
#17 = DIRECTION ( 'NONE',  ( 1.000000000000000000, 0.0000000000000000000, 0.0000000000000000000 ) ) ;
#18 = CARTESIAN_POINT ( 'NONE',  ( -0.03146450399999999731, 0.0000000000000000000, 3.853290411035908808E-18 ) ) ;
#19 = VERTEX_POINT ( 'NONE', #282 ) ;
#20 = DIRECTION ( 'NONE',  ( -0.1736481776669311083, 2.126576849575782084E-17, 0.9848077530122080203 ) ) ;
#21 = ORIENTED_EDGE ( 'NONE', *, *, #7, .T. ) ;
#22 = UNCERTAINTY_MEASURE_WITH_UNIT (LENGTH_MEASURE( 1.000000000000000082E-05 ), #268, 'distance_accuracy_value', 'NONE');
#23 = EDGE_CURVE ( 'NONE', #296, #19, #146, .T. ) ;
#24 = ADVANCED_FACE ( 'NONE', ( #227 ), #130, .F. ) ;
#25 = DIRECTION ( 'NONE',  ( -1.000000000000000000, 0.0000000000000000000, 1.224646799147353207E-16 ) ) ;
#26 = AXIS2_PLACEMENT_3D ( 'NONE', #55, #49, #225 ) ;
#27 = MECHANICAL_DESIGN_GEOMETRIC_PRESENTATION_REPRESENTATION (  '', ( #178 ), #252 ) ;
#28 = FACE_OUTER_BOUND ( 'NONE', #140, .T. ) ;
#29 = DIRECTION ( 'NONE',  ( -1.000000000000000000, 0.0000000000000000000, 0.0000000000000000000 ) ) ;
#30 = ORIENTED_EDGE ( 'NONE', *, *, #77, .T. ) ;
#31 = CONICAL_SURFACE ( 'NONE', #44, 0.04405499999999973326, 0.7853981633974491672 ) ;
#32 = ORIENTED_EDGE ( 'NONE', *, *, #101, .F. ) ;
#33 = EDGE_CURVE ( 'NONE', #117, #296, #176, .T. ) ;
#34 = SURFACE_STYLE_FILL_AREA ( #248 ) ;
#35 = DIRECTION ( 'NONE',  ( 1.000000000000000000, 0.0000000000000000000, 0.0000000000000000000 ) ) ;
#36 = PRESENTATION_STYLE_ASSIGNMENT (( #228 ) ) ;
#37 =( NAMED_UNIT ( * ) SI_UNIT ( $, .STERADIAN. ) SOLID_ANGLE_UNIT ( ) );
#38 = DIRECTION ( 'NONE',  ( -1.000000000000000000, 0.0000000000000000000, 0.0000000000000000000 ) ) ;
#39 = EDGE_LOOP ( 'NONE', ( #256, #242, #279, #190 ) ) ;
#40 = DIRECTION ( 'NONE',  ( 1.000000000000000000, 0.0000000000000000000, 0.0000000000000000000 ) ) ;
#41 = EDGE_LOOP ( 'NONE', ( #71, #84, #21, #164 ) ) ;
#42 = CYLINDRICAL_SURFACE ( 'NONE', #204, 0.05905500000000000332 ) ;
#43 = ORIENTED_EDGE ( 'NONE', *, *, #286, .T. ) ;
#44 = AXIS2_PLACEMENT_3D ( 'NONE', #132, #280, #29 ) ;
#45 = AXIS2_PLACEMENT_3D ( 'NONE', #219, #166, #232 ) ;
#46 = ADVANCED_FACE ( 'NONE', ( #78 ), #11, .T. ) ;
#47 = VECTOR ( 'NONE', #20, 39.37007874015747433 ) ;
#48 = AXIS2_PLACEMENT_3D ( 'NONE', #266, #253, #83 ) ;
#49 = DIRECTION ( 'NONE',  ( -1.224646799147353207E-16, -0.0000000000000000000, -1.000000000000000000 ) ) ;
#50 = ORIENTED_EDGE ( 'NONE', *, *, #102, .T. ) ;
#51 = DIMENSIONAL_EXPONENTS ( 1.000000000000000000, 0.0000000000000000000, 0.0000000000000000000, 0.0000000000000000000, 0.0000000000000000000, 0.0000000000000000000, 0.0000000000000000000 ) ;
#52 = APPLICATION_CONTEXT ( 'automotive_design' ) ;
#53 = CIRCLE ( 'NONE', #285, 0.05905500000000000332 ) ;
#54 = DIRECTION ( 'NONE',  ( 1.000000000000000000, 0.0000000000000000000, 0.0000000000000000000 ) ) ;
#55 = CARTESIAN_POINT ( 'NONE',  ( 0.0000000000000000000, 0.0000000000000000000, 0.0000000000000000000 ) ) ;
#56 = ORIENTED_EDGE ( 'NONE', *, *, #57, .T. ) ;
#57 = EDGE_CURVE ( 'NONE', #19, #296, #53, .T. ) ;
#58 = CIRCLE ( 'NONE', #3, 0.03146450399999999731 ) ;
#59 = FILL_AREA_STYLE_COLOUR ( '', #173 ) ;
#60 = LINE ( 'NONE', #180, #75 ) ;
#61 = CARTESIAN_POINT ( 'NONE',  ( 4.230535979395143065E-17, 0.0000000000000000000, 0.3454494783590343898 ) ) ;
#62 = EDGE_LOOP ( 'NONE', ( #263, #4, #113, #196 ) ) ;
#63 = EDGE_CURVE ( 'NONE', #151, #289, #213, .T. ) ;
#64 = CARTESIAN_POINT ( 'NONE',  ( 4.230535979395143065E-17, 0.0000000000000000000, 0.3454494783590343898 ) ) ;
#65 =( NAMED_UNIT ( * ) PLANE_ANGLE_UNIT ( ) SI_UNIT ( $, .RADIAN. ) );
#66 = AXIS2_PLACEMENT_3D ( 'NONE', #61, #16, #269 ) ;
#67 = DIRECTION ( 'NONE',  ( -1.224646799147353207E-16, -0.0000000000000000000, -1.000000000000000000 ) ) ;
#68 = ADVANCED_BREP_SHAPE_REPRESENTATION ( 'Micro_RMEM-016-2', ( #235, #45 ), #80 ) ;
#69 = ORIENTED_EDGE ( 'NONE', *, *, #7, .F. ) ;
#70 = FACE_OUTER_BOUND ( 'NONE', #261, .T. ) ;
#71 = ORIENTED_EDGE ( 'NONE', *, *, #299, .F. ) ;
#72 = APPLICATION_PROTOCOL_DEFINITION ( 'draft international standard', 'automotive_design', 1998, #52 ) ;
#73 = SHAPE_DEFINITION_REPRESENTATION ( #125, #68 ) ;
#74 = CIRCLE ( 'NONE', #66, 0.05905500000000000332 ) ;
#75 = VECTOR ( 'NONE', #116, 39.37007874015748143 ) ;
#76 = DIRECTION ( 'NONE',  ( -1.224646799147353207E-16, -0.0000000000000000000, -1.000000000000000000 ) ) ;
#77 = EDGE_CURVE ( 'NONE', #289, #151, #186, .T. ) ;
#78 = FACE_OUTER_BOUND ( 'NONE', #217, .T. ) ;
#79 =( GEOMETRIC_REPRESENTATION_CONTEXT ( 3 ) GLOBAL_UNCERTAINTY_ASSIGNED_CONTEXT ( ( #22 ) ) GLOBAL_UNIT_ASSIGNED_CONTEXT ( ( #268, #123, #37 ) ) REPRESENTATION_CONTEXT ( 'NONE', 'WORKASPACE' ) );
#80 =( GEOMETRIC_REPRESENTATION_CONTEXT ( 3 ) GLOBAL_UNCERTAINTY_ASSIGNED_CONTEXT ( ( #220 ) ) GLOBAL_UNIT_ASSIGNED_CONTEXT ( ( #247, #160, #154 ) ) REPRESENTATION_CONTEXT ( 'NONE', 'WORKASPACE' ) );
#81 = EDGE_LOOP ( 'NONE', ( #30, #188 ) ) ;
#82 = LINE ( 'NONE', #109, #239 ) ;
#83 = DIRECTION ( 'NONE',  ( 1.000000000000000000, 0.0000000000000000000, 0.0000000000000000000 ) ) ;
#84 = ORIENTED_EDGE ( 'NONE', *, *, #23, .T. ) ;
#85 = VECTOR ( 'NONE', #257, 39.37007874015748143 ) ;
#86 = DIRECTION ( 'NONE',  ( 0.0000000000000000000, 0.0000000000000000000, 1.000000000000000000 ) ) ;
#87 = LENGTH_MEASURE_WITH_UNIT ( LENGTH_MEASURE( 0.02539999999999999897 ), #207 );
#88 = SURFACE_STYLE_FILL_AREA ( #14 ) ;
#89 = CARTESIAN_POINT ( 'NONE',  ( 0.03146450399999999731, 3.853290411035908808E-18, 0.0000000000000000000 ) ) ;
#90 = CARTESIAN_POINT ( 'NONE',  ( 0.0000000000000000000, 0.0000000000000000000, 1.496062999999999921 ) ) ;
#91 = ORIENTED_EDGE ( 'NONE', *, *, #128, .F. ) ;
#92 = ADVANCED_FACE ( 'NONE', ( #264 ), #127, .T. ) ;
#93 = DIRECTION ( 'NONE',  ( -1.000000000000000000, 0.0000000000000000000, 0.0000000000000000000 ) ) ;
#94 = VERTEX_POINT ( 'NONE', #195 ) ;
#95 = VECTOR ( 'NONE', #189, 39.37007874015748143 ) ;
#96 = CARTESIAN_POINT ( 'NONE',  ( 0.0000000000000000000, 0.0000000000000000000, 1.496062999999999921 ) ) ;
#97 = ORIENTED_EDGE ( 'NONE', *, *, #106, .F. ) ;
#98 = LINE ( 'NONE', #216, #95 ) ;
#99 = ORIENTED_EDGE ( 'NONE', *, *, #102, .F. ) ;
#100 = MECHANICAL_DESIGN_GEOMETRIC_PRESENTATION_REPRESENTATION (  '', ( #240 ), #79 ) ;
#101 = EDGE_CURVE ( 'NONE', #129, #94, #168, .T. ) ;
#102 = EDGE_CURVE ( 'NONE', #129, #172, #134, .T. ) ;
#103 = DIRECTION ( 'NONE',  ( -0.0000000000000000000, -0.0000000000000000000, -1.000000000000000000 ) ) ;
#104 = CARTESIAN_POINT ( 'NONE',  ( 0.0000000000000000000, 0.0000000000000000000, 0.0000000000000000000 ) ) ;
#105 = CARTESIAN_POINT ( 'NONE',  ( 4.718919768060314138E-34, 0.0000000000000000000, 3.853290411035908808E-18 ) ) ;
#106 = EDGE_CURVE ( 'NONE', #94, #147, #157, .T. ) ;
#107 = DIRECTION ( 'NONE',  ( 1.000000000000000000, 0.0000000000000000000, 0.0000000000000000000 ) ) ;
#108 = PRODUCT ( 'Micro_RMEM-016-2', 'Micro_RMEM-016-2', '', ( #122 ) ) ;
#109 = CARTESIAN_POINT ( 'NONE',  ( -0.05905500000000000332, 0.0000000000000000000, 1.496062999999999921 ) ) ;
#110 = CARTESIAN_POINT ( 'NONE',  ( 0.05905500000000004496, 7.232151672364700045E-18, 0.3454494783590343898 ) ) ;
#111 = PRESENTATION_LAYER_ASSIGNMENT (  '', '', ( #240 ) ) ;
#112 = SURFACE_STYLE_USAGE ( .BOTH. , #182 ) ;
#113 = ORIENTED_EDGE ( 'NONE', *, *, #77, .F. ) ;
#114 = ORIENTED_EDGE ( 'NONE', *, *, #163, .T. ) ;
#115 = CARTESIAN_POINT ( 'NONE',  ( 0.04405499999999973326, 6.313666573004162521E-18, 1.496062999999999921 ) ) ;
#116 = DIRECTION ( 'NONE',  ( -0.0000000000000000000, -0.0000000000000000000, -1.000000000000000000 ) ) ;
#117 = VERTEX_POINT ( 'NONE', #115 ) ;
#118 = CARTESIAN_POINT ( 'NONE',  ( 2.314288535156702350E-17, 0.0000000000000000000, 0.1889760000000000051 ) ) ;
#119 = AXIS2_PLACEMENT_3D ( 'NONE', #105, #150, #281 ) ;
#120 = DIRECTION ( 'NONE',  ( -1.224646799147353207E-16, -0.0000000000000000000, -1.000000000000000000 ) ) ;
#121 = ORIENTED_EDGE ( 'NONE', *, *, #299, .T. ) ;
#122 = PRODUCT_CONTEXT ( 'NONE', #5, 'mechanical' ) ;
#123 =( NAMED_UNIT ( * ) PLANE_ANGLE_UNIT ( ) SI_UNIT ( $, .RADIAN. ) );
#124 = EDGE_CURVE ( 'NONE', #211, #19, #13, .T. ) ;
#125 = PRODUCT_DEFINITION_SHAPE ( 'NONE', 'NONE',  #167 ) ;
#126 = ADVANCED_FACE ( 'NONE', ( #255 ), #42, .T. ) ;
#127 = CYLINDRICAL_SURFACE ( 'NONE', #9, 0.05905500000000000332 ) ;
#128 = EDGE_CURVE ( 'NONE', #172, #147, #74, .T. ) ;
#129 = VERTEX_POINT ( 'NONE', #288 ) ;
#130 = PLANE ( 'NONE',  #191 ) ;
#131 = CARTESIAN_POINT ( 'NONE',  ( 0.04405499999999973326, 5.395181473643630390E-18, 1.496062999999999921 ) ) ;
#132 = CARTESIAN_POINT ( 'NONE',  ( 0.0000000000000000000, 0.0000000000000000000, 1.496062999999999921 ) ) ;
#133 = PRESENTATION_STYLE_ASSIGNMENT (( #112 ) ) ;
#134 = LINE ( 'NONE', #234, #47 ) ;
#135 = APPLICATION_PROTOCOL_DEFINITION ( 'draft international standard', 'automotive_design', 1998, #5 ) ;
#136 = LINE ( 'NONE', #18, #267 ) ;
#137 = CARTESIAN_POINT ( 'NONE',  ( -0.04405499999999973326, 0.0000000000000000000, 1.496062999999999921 ) ) ;
#138 =( LENGTH_UNIT ( ) NAMED_UNIT ( * ) SI_UNIT ( $, .METRE. ) );
#139 = FACE_OUTER_BOUND ( 'NONE', #39, .T. ) ;
#140 = EDGE_LOOP ( 'NONE', ( #209, #293, #215, #206 ) ) ;
#141 = AXIS2_PLACEMENT_3D ( 'NONE', #210, #162, #93 ) ;
#142 = AXIS2_PLACEMENT_3D ( 'NONE', #175, #144, #25 ) ;
#143 = UNCERTAINTY_MEASURE_WITH_UNIT (LENGTH_MEASURE( 1.000000000000000082E-05 ), #283, 'distance_accuracy_value', 'NONE');
#144 = DIRECTION ( 'NONE',  ( -1.224646799147353207E-16, -0.0000000000000000000, -1.000000000000000000 ) ) ;
#145 = DIRECTION ( 'NONE',  ( 1.000000000000000000, 0.0000000000000000000, 0.0000000000000000000 ) ) ;
#146 = CIRCLE ( 'NONE', #15, 0.05905500000000000332 ) ;
#147 = VERTEX_POINT ( 'NONE', #110 ) ;
#148 = ADVANCED_FACE ( 'NONE', ( #70 ), #292, .T. ) ;
#149 = DIMENSIONAL_EXPONENTS ( 1.000000000000000000, 0.0000000000000000000, 0.0000000000000000000, 0.0000000000000000000, 0.0000000000000000000, 0.0000000000000000000, 0.0000000000000000000 ) ;
#150 = DIRECTION ( 'NONE',  ( -1.224646799147353207E-16, -0.0000000000000000000, -1.000000000000000000 ) ) ;
#151 = VERTEX_POINT ( 'NONE', #89 ) ;
#152 = FACE_OUTER_BOUND ( 'NONE', #291, .T. ) ;
#153 = FACE_OUTER_BOUND ( 'NONE', #62, .T. ) ;
#154 =( NAMED_UNIT ( * ) SI_UNIT ( $, .STERADIAN. ) SOLID_ANGLE_UNIT ( ) );
#155 = ORIENTED_EDGE ( 'NONE', *, *, #179, .F. ) ;
#156 = CARTESIAN_POINT ( 'NONE',  ( 0.03146450400000001812, 0.0000000000000000000, 0.1889760000000000051 ) ) ;
#157 = LINE ( 'NONE', #156, #221 ) ;
#158 = LENGTH_MEASURE_WITH_UNIT ( LENGTH_MEASURE( 0.02539999999999999897 ), #270 );
#159 = DIRECTION ( 'NONE',  ( -1.224646799147353207E-16, -0.0000000000000000000, -1.000000000000000000 ) ) ;
#160 =( NAMED_UNIT ( * ) PLANE_ANGLE_UNIT ( ) SI_UNIT ( $, .RADIAN. ) );
#161 = ORIENTED_EDGE ( 'NONE', *, *, #218, .F. ) ;
#162 = DIRECTION ( 'NONE',  ( 0.0000000000000000000, 0.0000000000000000000, -1.000000000000000000 ) ) ;
#163 = EDGE_CURVE ( 'NONE', #129, #289, #136, .T. ) ;
#164 = ORIENTED_EDGE ( 'NONE', *, *, #170, .F. ) ;
#165 = PRODUCT_DEFINITION_FORMATION_WITH_SPECIFIED_SOURCE ( 'ANY', '', #108, .NOT_KNOWN. ) ;
#166 = DIRECTION ( 'NONE',  ( 0.0000000000000000000, 0.0000000000000000000, 1.000000000000000000 ) ) ;
#167 = PRODUCT_DEFINITION ( 'UNKNOWN', '', #165, #169 ) ;
#168 = CIRCLE ( 'NONE', #199, 0.03146450399999999731 ) ;
#169 = PRODUCT_DEFINITION_CONTEXT ( 'detailed design', #52, 'design' ) ;
#170 = EDGE_CURVE ( 'NONE', #147, #172, #259, .T. ) ;
#171 = DIRECTION ( 'NONE',  ( -1.000000000000000000, 0.0000000000000000000, 0.0000000000000000000 ) ) ;
#172 = VERTEX_POINT ( 'NONE', #294 ) ;
#173 = COLOUR_RGB ( '',0.7921568627450980005, 0.8196078431372548767, 0.9333333333333333481 ) ;
#174 = FACE_OUTER_BOUND ( 'NONE', #233, .T. ) ;
#175 = CARTESIAN_POINT ( 'NONE',  ( 4.718919768060314138E-34, 0.0000000000000000000, 3.853290411035908808E-18 ) ) ;
#176 = LINE ( 'NONE', #131, #237 ) ;
#177 = AXIS2_PLACEMENT_3D ( 'NONE', #10, #8, #145 ) ;
#178 = STYLED_ITEM ( 'NONE', ( #133 ), #68 ) ;
#179 = EDGE_CURVE ( 'NONE', #94, #151, #98, .T. ) ;
#180 = CARTESIAN_POINT ( 'NONE',  ( 0.05905500000000000332, 7.232151672364695422E-18, 1.496062999999999921 ) ) ;
#181 = SURFACE_SIDE_STYLE ('',( #34 ) ) ;
#182 = SURFACE_SIDE_STYLE ('',( #88 ) ) ;
#183 = CARTESIAN_POINT ( 'NONE',  ( 0.0000000000000000000, 0.0000000000000000000, 1.496062999999999921 ) ) ;
#184 = LENGTH_MEASURE_WITH_UNIT ( LENGTH_MEASURE( 0.02539999999999999897 ), #138 );
#185 = DIRECTION ( 'NONE',  ( 1.000000000000000000, 0.0000000000000000000, -0.0000000000000000000 ) ) ;
#186 = CIRCLE ( 'NONE', #142, 0.03146450399999999731 ) ;
#187 = DIRECTION ( 'NONE',  ( 1.224646799147353207E-16, 0.0000000000000000000, 1.000000000000000000 ) ) ;
#188 = ORIENTED_EDGE ( 'NONE', *, *, #63, .T. ) ;
#189 = DIRECTION ( 'NONE',  ( -1.224646799147353207E-16, -0.0000000000000000000, -1.000000000000000000 ) ) ;
#190 = ORIENTED_EDGE ( 'NONE', *, *, #124, .F. ) ;
#191 = AXIS2_PLACEMENT_3D ( 'NONE', #104, #238, #202 ) ;
#192 = AXIS2_PLACEMENT_3D ( 'NONE', #284, #120, #271 ) ;
#193 = ADVANCED_FACE ( 'NONE', ( #139 ), #245, .T. ) ;
#194 = DIMENSIONAL_EXPONENTS ( 1.000000000000000000, 0.0000000000000000000, 0.0000000000000000000, 0.0000000000000000000, 0.0000000000000000000, 0.0000000000000000000, 0.0000000000000000000 ) ;
#195 = CARTESIAN_POINT ( 'NONE',  ( 0.03146450400000001812, 0.0000000000000000000, 0.1889760000000000051 ) ) ;
#196 = ORIENTED_EDGE ( 'NONE', *, *, #163, .F. ) ;
#197 = ADVANCED_FACE ( 'NONE', ( #153 ), #203, .T. ) ;
#198 = ORIENTED_EDGE ( 'NONE', *, *, #218, .T. ) ;
#199 = AXIS2_PLACEMENT_3D ( 'NONE', #278, #76, #274 ) ;
#200 = DIRECTION ( 'NONE',  ( 0.7071067811865482389, 8.659560562354941486E-17, -0.7071067811865469066 ) ) ;
#201 = CARTESIAN_POINT ( 'NONE',  ( -0.03146450399999999731, 0.0000000000000000000, 7.706580822071817615E-18 ) ) ;
#202 = DIRECTION ( 'NONE',  ( 1.000000000000000000, 0.0000000000000000000, -0.0000000000000000000 ) ) ;
#203 = CYLINDRICAL_SURFACE ( 'NONE', #192, 0.03146450399999999731 ) ;
#204 = AXIS2_PLACEMENT_3D ( 'NONE', #183, #250, #38 ) ;
#205 = CARTESIAN_POINT ( 'NONE',  ( 0.05905500000000000332, 7.232151672364695422E-18, 1.481062999999999574 ) ) ;
#206 = ORIENTED_EDGE ( 'NONE', *, *, #23, .F. ) ;
#207 =( LENGTH_UNIT ( ) NAMED_UNIT ( * ) SI_UNIT ( $, .METRE. ) );
#208 = FILL_AREA_STYLE_COLOUR ( '', #222 ) ;
#209 = ORIENTED_EDGE ( 'NONE', *, *, #33, .F. ) ;
#210 = CARTESIAN_POINT ( 'NONE',  ( 0.0000000000000000000, 0.0000000000000000000, 1.496062999999999921 ) ) ;
#211 = VERTEX_POINT ( 'NONE', #137 ) ;
#212 = DIRECTION ( 'NONE',  ( -1.000000000000000000, 0.0000000000000000000, 0.0000000000000000000 ) ) ;
#213 = CIRCLE ( 'NONE', #119, 0.03146450399999999731 ) ;
#214 =( NAMED_UNIT ( * ) SI_UNIT ( $, .STERADIAN. ) SOLID_ANGLE_UNIT ( ) );
#215 = ORIENTED_EDGE ( 'NONE', *, *, #124, .T. ) ;
#216 = CARTESIAN_POINT ( 'NONE',  ( 0.03146450399999999731, 3.853290411035908808E-18, -3.853290411035908808E-18 ) ) ;
#217 = EDGE_LOOP ( 'NONE', ( #155, #198, #114, #236 ) ) ;
#218 = EDGE_CURVE ( 'NONE', #94, #129, #58, .T. ) ;
#219 = CARTESIAN_POINT ( 'NONE',  ( 0.0000000000000000000, 0.0000000000000000000, 0.0000000000000000000 ) ) ;
#220 = UNCERTAINTY_MEASURE_WITH_UNIT (LENGTH_MEASURE( 1.000000000000000082E-05 ), #247, 'distance_accuracy_value', 'NONE');
#221 = VECTOR ( 'NONE', #231, 39.37007874015748143 ) ;
#222 = COLOUR_RGB ( '',0.7921568627450980005, 0.8196078431372548767, 0.9333333333333333481 ) ;
#223 = CARTESIAN_POINT ( 'NONE',  ( 0.0000000000000000000, 0.0000000000000000000, 1.496062999999999921 ) ) ;
#224 = CARTESIAN_POINT ( 'NONE',  ( 0.0000000000000000000, 0.0000000000000000000, 1.481062999999999574 ) ) ;
#225 = DIRECTION ( 'NONE',  ( -1.000000000000000000, 0.0000000000000000000, 1.224646799147353207E-16 ) ) ;
#226 = CARTESIAN_POINT ( 'NONE',  ( 0.0000000000000000000, 0.0000000000000000000, 1.481062999999999574 ) ) ;
#227 = FACE_OUTER_BOUND ( 'NONE', #81, .T. ) ;
#228 = SURFACE_STYLE_USAGE ( .BOTH. , #181 ) ;
#229 = CARTESIAN_POINT ( 'NONE',  ( 2.314288535156702350E-17, 0.0000000000000000000, 0.1889760000000000051 ) ) ;
#230 = DIRECTION ( 'NONE',  ( -1.224646799147353207E-16, -0.0000000000000000000, -1.000000000000000000 ) ) ;
#231 = DIRECTION ( 'NONE',  ( 0.1736481776669313026, 0.0000000000000000000, 0.9848077530122077983 ) ) ;
#232 = DIRECTION ( 'NONE',  ( 1.000000000000000000, 0.0000000000000000000, 0.0000000000000000000 ) ) ;
#233 = EDGE_LOOP ( 'NONE', ( #32, #50, #243, #97 ) ) ;
#234 = CARTESIAN_POINT ( 'NONE',  ( -0.03146450399999997649, 3.853290411035908808E-18, 0.1889760000000000051 ) ) ;
#235 = MANIFOLD_SOLID_BREP ( 'Cut-Revolve1', #12 ) ;
#236 = ORIENTED_EDGE ( 'NONE', *, *, #63, .F. ) ;
#237 = VECTOR ( 'NONE', #200, 39.37007874015748143 ) ;
#238 = DIRECTION ( 'NONE',  ( 0.0000000000000000000, 0.0000000000000000000, 1.000000000000000000 ) ) ;
#239 = VECTOR ( 'NONE', #6, 39.37007874015748143 ) ;
#240 = STYLED_ITEM ( 'NONE', ( #36 ), #235 ) ;
#241 = DIRECTION ( 'NONE',  ( 0.0000000000000000000, 0.0000000000000000000, -1.000000000000000000 ) ) ;
#242 = ORIENTED_EDGE ( 'NONE', *, *, #33, .T. ) ;
#243 = ORIENTED_EDGE ( 'NONE', *, *, #128, .T. ) ;
#244 = ORIENTED_EDGE ( 'NONE', *, *, #277, .T. ) ;
#245 = CONICAL_SURFACE ( 'NONE', #141, 0.04405499999999973326, 0.7853981633974491672 ) ;
#246 = CIRCLE ( 'NONE', #275, 0.04405499999999973326 ) ;
#247 =( CONVERSION_BASED_UNIT ( 'INCH', #184 ) LENGTH_UNIT ( ) NAMED_UNIT ( #149 ) );
#248 = FILL_AREA_STYLE ('',( #59 ) ) ;
#249 = DIRECTION ( 'NONE',  ( 0.0000000000000000000, 0.0000000000000000000, 1.000000000000000000 ) ) ;
#250 = DIRECTION ( 'NONE',  ( -0.0000000000000000000, -0.0000000000000000000, -1.000000000000000000 ) ) ;
#251 = CIRCLE ( 'NONE', #48, 0.04405499999999973326 ) ;
#252 =( GEOMETRIC_REPRESENTATION_CONTEXT ( 3 ) GLOBAL_UNCERTAINTY_ASSIGNED_CONTEXT ( ( #143 ) ) GLOBAL_UNIT_ASSIGNED_CONTEXT ( ( #283, #65, #214 ) ) REPRESENTATION_CONTEXT ( 'NONE', 'WORKASPACE' ) );
#253 = DIRECTION ( 'NONE',  ( 0.0000000000000000000, 0.0000000000000000000, 1.000000000000000000 ) ) ;
#254 = ORIENTED_EDGE ( 'NONE', *, *, #106, .T. ) ;
#255 = FACE_OUTER_BOUND ( 'NONE', #41, .T. ) ;
#256 = ORIENTED_EDGE ( 'NONE', *, *, #286, .F. ) ;
#257 = DIRECTION ( 'NONE',  ( -0.7071067811865482389, 0.0000000000000000000, -0.7071067811865469066 ) ) ;
#258 = ORIENTED_EDGE ( 'NONE', *, *, #170, .T. ) ;
#259 = CIRCLE ( 'NONE', #276, 0.05905500000000000332 ) ;
#260 = AXIS2_PLACEMENT_3D ( 'NONE', #229, #187, #17 ) ;
#261 = EDGE_LOOP ( 'NONE', ( #244, #43 ) ) ;
#262 = DIRECTION ( 'NONE',  ( 0.0000000000000000000, 0.0000000000000000000, -1.000000000000000000 ) ) ;
#263 = ORIENTED_EDGE ( 'NONE', *, *, #101, .T. ) ;
#264 = FACE_OUTER_BOUND ( 'NONE', #287, .T. ) ;
#265 = PRODUCT_RELATED_PRODUCT_CATEGORY ( 'part', '', ( #108 ) ) ;
#266 = CARTESIAN_POINT ( 'NONE',  ( 0.0000000000000000000, 0.0000000000000000000, 1.496062999999999921 ) ) ;
#267 = VECTOR ( 'NONE', #230, 39.37007874015748143 ) ;
#268 =( CONVERSION_BASED_UNIT ( 'INCH', #87 ) LENGTH_UNIT ( ) NAMED_UNIT ( #51 ) );
#269 = DIRECTION ( 'NONE',  ( 1.000000000000000000, 0.0000000000000000000, 0.0000000000000000000 ) ) ;
#270 =( LENGTH_UNIT ( ) NAMED_UNIT ( * ) SI_UNIT ( $, .METRE. ) );
#271 = DIRECTION ( 'NONE',  ( -1.000000000000000000, 0.0000000000000000000, 1.224646799147353207E-16 ) ) ;
#272 = AXIS2_PLACEMENT_3D ( 'NONE', #96, #249, #185 ) ;
#273 = CONICAL_SURFACE ( 'NONE', #260, 0.03146450399999999731, 0.1745329251994338082 ) ;
#274 = DIRECTION ( 'NONE',  ( -1.000000000000000000, 0.0000000000000000000, 0.0000000000000000000 ) ) ;
#275 = AXIS2_PLACEMENT_3D ( 'NONE', #90, #86, #35 ) ;
#276 = AXIS2_PLACEMENT_3D ( 'NONE', #64, #159, #40 ) ;
#277 = EDGE_CURVE ( 'NONE', #211, #117, #251, .T. ) ;
#278 = CARTESIAN_POINT ( 'NONE',  ( 2.314288535156702350E-17, 0.0000000000000000000, 0.1889760000000000051 ) ) ;
#279 = ORIENTED_EDGE ( 'NONE', *, *, #57, .F. ) ;
#280 = DIRECTION ( 'NONE',  ( 0.0000000000000000000, 0.0000000000000000000, -1.000000000000000000 ) ) ;
#281 = DIRECTION ( 'NONE',  ( -1.000000000000000000, 0.0000000000000000000, 1.224646799147353207E-16 ) ) ;
#282 = CARTESIAN_POINT ( 'NONE',  ( -0.05905500000000000332, 0.0000000000000000000, 1.481062999999999574 ) ) ;
#283 =( CONVERSION_BASED_UNIT ( 'INCH', #158 ) LENGTH_UNIT ( ) NAMED_UNIT ( #194 ) );
#284 = CARTESIAN_POINT ( 'NONE',  ( 0.0000000000000000000, 0.0000000000000000000, 0.0000000000000000000 ) ) ;
#285 = AXIS2_PLACEMENT_3D ( 'NONE', #226, #262, #107 ) ;
#286 = EDGE_CURVE ( 'NONE', #117, #211, #246, .T. ) ;
#287 = EDGE_LOOP ( 'NONE', ( #56, #121, #91, #69 ) ) ;
#288 = CARTESIAN_POINT ( 'NONE',  ( -0.03146450399999997649, 5.542721041700301730E-18, 0.1889760000000000051 ) ) ;
#289 = VERTEX_POINT ( 'NONE', #201 ) ;
#290 = CARTESIAN_POINT ( 'NONE',  ( -0.04405499999999973326, 0.0000000000000000000, 1.496062999999999921 ) ) ;
#291 = EDGE_LOOP ( 'NONE', ( #99, #161, #254, #258 ) ) ;
#292 = PLANE ( 'NONE',  #272 ) ;
#293 = ORIENTED_EDGE ( 'NONE', *, *, #277, .F. ) ;
#294 = CARTESIAN_POINT ( 'NONE',  ( -0.05905499999999996169, 0.0000000000000000000, 0.3454494783590343898 ) ) ;
#295 = ADVANCED_FACE ( 'NONE', ( #152 ), #273, .T. ) ;
#296 = VERTEX_POINT ( 'NONE', #205 ) ;
#297 = CONICAL_SURFACE ( 'NONE', #177, 0.03146450399999999731, 0.1745329251994338082 ) ;
#298 = PRESENTATION_LAYER_ASSIGNMENT (  '', '', ( #178 ) ) ;
#299 = EDGE_CURVE ( 'NONE', #296, #147, #60, .T. ) ;
ENDSEC;
END-ISO-10303-21;
