ISO-10303-21;
HEADER;
FILE_DESCRIPTION (( 'STEP AP214' ),
    '1' );
FILE_NAME ('81368.STEP',
    '2023-06-23T00:47:28',
    ( '' ),
    ( '' ),
    'SwSTEP 2.0',
    'SolidWorks 2023',
    '' );
FILE_SCHEMA (( 'AUTOMOTIVE_DESIGN' ));
ENDSEC;

DATA;
#1 = SURFACE_STYLE_USAGE ( .BOTH. , #167 ) ;
#2 = STYLED_ITEM ( 'NONE', ( #211 ), #93 ) ;
#3 = VERTEX_POINT ( 'NONE', #106 ) ;
#4 = CARTESIAN_POINT ( 'NONE',  ( -6.123233995736772199E-17, 3.000000000000000444, 0.000000000000000000 ) ) ;
#5 = ORIENTED_EDGE ( 'NONE', *, *, #191, .T. ) ;
#6 = AXIS2_PLACEMENT_3D ( 'NONE', #270, #88, #281 ) ;
#7 = CARTESIAN_POINT ( 'NONE',  ( -6.123233995736772199E-17, 3.000000000000000444, 0.000000000000000000 ) ) ;
#8 = DIRECTION ( 'NONE',  ( -4.082155997157848133E-17, 1.000000000000000000, -0.000000000000000000 ) ) ;
#9 = ORIENTED_EDGE ( 'NONE', *, *, #288, .T. ) ;
#10 = DIMENSIONAL_EXPONENTS ( 1.000000000000000000, 0.000000000000000000, 0.000000000000000000, 0.000000000000000000, 0.000000000000000000, 0.000000000000000000, 0.000000000000000000 ) ;
#11 = ORIENTED_EDGE ( 'NONE', *, *, #288, .F. ) ;
#12 =( CONVERSION_BASED_UNIT ( 'INCH', #204 ) LENGTH_UNIT ( ) NAMED_UNIT ( #161 ) );
#13 = DIRECTION ( 'NONE',  ( -4.082155997157848133E-17, 1.000000000000000000, -0.000000000000000000 ) ) ;
#14 = SURFACE_STYLE_USAGE ( .BOTH. , #19 ) ;
#15 = VERTEX_POINT ( 'NONE', #149 ) ;
#16 = CIRCLE ( 'NONE', #95, 0.1250000000000000278 ) ;
#17 = DIMENSIONAL_EXPONENTS ( 1.000000000000000000, 0.000000000000000000, 0.000000000000000000, 0.000000000000000000, 0.000000000000000000, 0.000000000000000000, 0.000000000000000000 ) ;
#18 = CIRCLE ( 'NONE', #97, 0.1250000000000001110 ) ;
#19 = SURFACE_SIDE_STYLE ('',( #182 ) ) ;
#20 =( NAMED_UNIT ( * ) PLANE_ANGLE_UNIT ( ) SI_UNIT ( $, .RADIAN. ) );
#21 = PLANE ( 'NONE',  #222 ) ;
#22 = SURFACE_SIDE_STYLE ('',( #241 ) ) ;
#23 =( LENGTH_UNIT ( ) NAMED_UNIT ( * ) SI_UNIT ( $, .METRE. ) );
#24 = ORIENTED_EDGE ( 'NONE', *, *, #127, .T. ) ;
#25 = CIRCLE ( 'NONE', #53, 0.1250000000000000000 ) ;
#26 = ORIENTED_EDGE ( 'NONE', *, *, #308, .T. ) ;
#27 = ORIENTED_EDGE ( 'NONE', *, *, #293, .F. ) ;
#28 = ORIENTED_EDGE ( 'NONE', *, *, #127, .F. ) ;
#29 = UNCERTAINTY_MEASURE_WITH_UNIT (LENGTH_MEASURE( 1.000000000000000082E-05 ), #36, 'distance_accuracy_value', 'NONE');
#30 = MECHANICAL_DESIGN_GEOMETRIC_PRESENTATION_REPRESENTATION (  '', ( #263 ), #105 ) ;
#31 = LINE ( 'NONE', #197, #101 ) ;
#32 = FILL_AREA_STYLE ('',( #73 ) ) ;
#33 = DIMENSIONAL_EXPONENTS ( 1.000000000000000000, 0.000000000000000000, 0.000000000000000000, 0.000000000000000000, 0.000000000000000000, 0.000000000000000000, 0.000000000000000000 ) ;
#34 = PRODUCT_DEFINITION_CONTEXT ( 'detailed design', #249, 'design' ) ;
#35 = FILL_AREA_STYLE_COLOUR ( '', #183 ) ;
#36 =( CONVERSION_BASED_UNIT ( 'INCH', #90 ) LENGTH_UNIT ( ) NAMED_UNIT ( #17 ) );
#37 = MECHANICAL_DESIGN_GEOMETRIC_PRESENTATION_REPRESENTATION (  '', ( #286 ), #190 ) ;
#38 = STYLED_ITEM ( 'NONE', ( #255 ), #248 ) ;
#39 = DIRECTION ( 'NONE',  ( -4.082155997157848133E-17, 1.000000000000000000, -0.000000000000000000 ) ) ;
#40 = EDGE_CURVE ( 'NONE', #3, #15, #307, .T. ) ;
#41 =( CONVERSION_BASED_UNIT ( 'INCH', #287 ) LENGTH_UNIT ( ) NAMED_UNIT ( #33 ) );
#42 =( GEOMETRIC_REPRESENTATION_CONTEXT ( 3 ) GLOBAL_UNCERTAINTY_ASSIGNED_CONTEXT ( ( #156 ) ) GLOBAL_UNIT_ASSIGNED_CONTEXT ( ( #41, #120, #92 ) ) REPRESENTATION_CONTEXT ( 'NONE', 'WORKASPACE' ) );
#43 = PRESENTATION_STYLE_ASSIGNMENT (( #99 ) ) ;
#44 = CARTESIAN_POINT ( 'NONE',  ( 1.530808498934191509E-17, 0.000000000000000000, 0.1250000000000000000 ) ) ;
#45 = PRESENTATION_LAYER_ASSIGNMENT (  '', '', ( #286 ) ) ;
#46 = CARTESIAN_POINT ( 'NONE',  ( 0.1250000000000000555, 3.000000000000000444, 1.530808498934192742E-17 ) ) ;
#47 = PRESENTATION_LAYER_ASSIGNMENT (  '', '', ( #296 ) ) ;
#48 = ADVANCED_FACE ( 'NONE', ( #178 ), #72, .T. ) ;
#49 = ORIENTED_EDGE ( 'NONE', *, *, #186, .T. ) ;
#50 = DIRECTION ( 'NONE',  ( 0.000000000000000000, 0.000000000000000000, 1.000000000000000000 ) ) ;
#51 = VERTEX_POINT ( 'NONE', #202 ) ;
#52 = DIRECTION ( 'NONE',  ( -1.000000000000000000, 0.000000000000000000, 0.000000000000000000 ) ) ;
#53 = AXIS2_PLACEMENT_3D ( 'NONE', #159, #301, #179 ) ;
#54 =( CONVERSION_BASED_UNIT ( 'INCH', #144 ) LENGTH_UNIT ( ) NAMED_UNIT ( #83 ) );
#55 = DIRECTION ( 'NONE',  ( -0.000000000000000000, -1.000000000000000000, -0.000000000000000000 ) ) ;
#56 = CLOSED_SHELL ( 'NONE', ( #48, #283, #64, #100 ) ) ;
#57 =( GEOMETRIC_REPRESENTATION_CONTEXT ( 3 ) GLOBAL_UNCERTAINTY_ASSIGNED_CONTEXT ( ( #29 ) ) GLOBAL_UNIT_ASSIGNED_CONTEXT ( ( #36, #142, #112 ) ) REPRESENTATION_CONTEXT ( 'NONE', 'WORKASPACE' ) );
#58 = PRODUCT_RELATED_PRODUCT_CATEGORY ( 'part', '', ( #104 ) ) ;
#59 = CARTESIAN_POINT ( 'NONE',  ( 0.000000000000000000, 0.000000000000000000, -0.1250000000000000000 ) ) ;
#60 = DIMENSIONAL_EXPONENTS ( 1.000000000000000000, 0.000000000000000000, 0.000000000000000000, 0.000000000000000000, 0.000000000000000000, 0.000000000000000000, 0.000000000000000000 ) ;
#61 = DIRECTION ( 'NONE',  ( 4.082155997157848133E-17, -1.000000000000000000, 0.000000000000000000 ) ) ;
#62 = CIRCLE ( 'NONE', #290, 0.1250000000000000278 ) ;
#63 = AXIS2_PLACEMENT_3D ( 'NONE', #122, #224, #221 ) ;
#64 = ADVANCED_FACE ( 'NONE', ( #299 ), #78, .T. ) ;
#65 =( LENGTH_UNIT ( ) NAMED_UNIT ( * ) SI_UNIT ( $, .METRE. ) );
#66 = SURFACE_STYLE_FILL_AREA ( #199 ) ;
#67 = DIRECTION ( 'NONE',  ( 0.000000000000000000, 0.000000000000000000, -1.000000000000000000 ) ) ;
#68 =( NAMED_UNIT ( * ) PLANE_ANGLE_UNIT ( ) SI_UNIT ( $, .RADIAN. ) );
#69 = PRESENTATION_LAYER_ASSIGNMENT (  '', '', ( #263 ) ) ;
#70 = DIRECTION ( 'NONE',  ( 0.000000000000000000, 0.000000000000000000, -1.000000000000000000 ) ) ;
#71 = APPLICATION_CONTEXT ( 'automotive_design' ) ;
#72 = CYLINDRICAL_SURFACE ( 'NONE', #172, 0.1250000000000000555 ) ;
#73 = FILL_AREA_STYLE_COLOUR ( '', #242 ) ;
#74 = CIRCLE ( 'NONE', #212, 0.1250000000000001110 ) ;
#75 = COLOUR_RGB ( '',0.7921568627450980005, 0.8196078431372548767, 0.9333333333333333481 ) ;
#76 = UNCERTAINTY_MEASURE_WITH_UNIT (LENGTH_MEASURE( 1.000000000000000082E-05 ), #303, 'distance_accuracy_value', 'NONE');
#77 = CARTESIAN_POINT ( 'NONE',  ( -0.1250000000000001388, 3.000000000000000444, 0.000000000000000000 ) ) ;
#78 = CYLINDRICAL_SURFACE ( 'NONE', #267, 0.1250000000000000555 ) ;
#79 = DIRECTION ( 'NONE',  ( -1.000000000000000000, 0.000000000000000000, 0.000000000000000000 ) ) ;
#80 = ORIENTED_EDGE ( 'NONE', *, *, #244, .F. ) ;
#81 = FACE_OUTER_BOUND ( 'NONE', #280, .T. ) ;
#82 = UNCERTAINTY_MEASURE_WITH_UNIT (LENGTH_MEASURE( 1.000000000000000082E-05 ), #12, 'distance_accuracy_value', 'NONE');
#83 = DIMENSIONAL_EXPONENTS ( 1.000000000000000000, 0.000000000000000000, 0.000000000000000000, 0.000000000000000000, 0.000000000000000000, 0.000000000000000000, 0.000000000000000000 ) ;
#84 = COLOUR_RGB ( '',1.000000000000000000, 0.000000000000000000, 0.000000000000000000 ) ;
#85 = VERTEX_POINT ( 'NONE', #46 ) ;
#86 =( NAMED_UNIT ( * ) SI_UNIT ( $, .STERADIAN. ) SOLID_ANGLE_UNIT ( ) );
#87 = CARTESIAN_POINT ( 'NONE',  ( 0.1250000000000000278, 3.000000000000000444, 0.000000000000000000 ) ) ;
#88 = DIRECTION ( 'NONE',  ( -0.000000000000000000, -1.000000000000000000, -0.000000000000000000 ) ) ;
#89 = DIRECTION ( 'NONE',  ( -1.000000000000000000, 0.000000000000000000, 0.000000000000000000 ) ) ;
#90 = LENGTH_MEASURE_WITH_UNIT ( LENGTH_MEASURE( 0.02539999999999999897 ), #65 );
#91 = FILL_AREA_STYLE_COLOUR ( '', #124 ) ;
#92 =( NAMED_UNIT ( * ) SI_UNIT ( $, .STERADIAN. ) SOLID_ANGLE_UNIT ( ) );
#93 = ADVANCED_FACE ( 'NONE', ( #294 ), #158, .T. ) ;
#94 = ORIENTED_EDGE ( 'NONE', *, *, #186, .F. ) ;
#95 = AXIS2_PLACEMENT_3D ( 'NONE', #109, #147, #289 ) ;
#96 = LINE ( 'NONE', #44, #130 ) ;
#97 = AXIS2_PLACEMENT_3D ( 'NONE', #264, #39, #89 ) ;
#98 = FILL_AREA_STYLE_COLOUR ( '', #75 ) ;
#99 = SURFACE_STYLE_USAGE ( .BOTH. , #22 ) ;
#100 = ADVANCED_FACE ( 'NONE', ( #238 ), #21, .F. ) ;
#101 = VECTOR ( 'NONE', #220, 39.37007874015748143 ) ;
#102 = ORIENTED_EDGE ( 'NONE', *, *, #308, .F. ) ;
#103 = DIRECTION ( 'NONE',  ( 0.000000000000000000, 0.000000000000000000, -1.000000000000000000 ) ) ;
#104 = PRODUCT ( '81368', '81368', '', ( #150 ) ) ;
#105 =( GEOMETRIC_REPRESENTATION_CONTEXT ( 3 ) GLOBAL_UNCERTAINTY_ASSIGNED_CONTEXT ( ( #207 ) ) GLOBAL_UNIT_ASSIGNED_CONTEXT ( ( #284, #68, #113 ) ) REPRESENTATION_CONTEXT ( 'NONE', 'WORKASPACE' ) );
#106 = CARTESIAN_POINT ( 'NONE',  ( 1.530808498934191817E-17, 1.500000000000000222, 0.1250000000000000278 ) ) ;
#107 = DIRECTION ( 'NONE',  ( 0.000000000000000000, 1.000000000000000000, 0.000000000000000000 ) ) ;
#108 = EDGE_LOOP ( 'NONE', ( #171, #185 ) ) ;
#109 = CARTESIAN_POINT ( 'NONE',  ( 0.000000000000000000, 1.500000000000000222, 0.000000000000000000 ) ) ;
#110 =( LENGTH_UNIT ( ) NAMED_UNIT ( * ) SI_UNIT ( $, .METRE. ) );
#111 = AXIS2_PLACEMENT_3D ( 'NONE', #195, #125, #67 ) ;
#112 =( NAMED_UNIT ( * ) SI_UNIT ( $, .STERADIAN. ) SOLID_ANGLE_UNIT ( ) );
#113 =( NAMED_UNIT ( * ) SI_UNIT ( $, .STERADIAN. ) SOLID_ANGLE_UNIT ( ) );
#114 = ADVANCED_FACE ( 'NONE', ( #81 ), #116, .T. ) ;
#115 =( NAMED_UNIT ( * ) PLANE_ANGLE_UNIT ( ) SI_UNIT ( $, .RADIAN. ) );
#116 = CYLINDRICAL_SURFACE ( 'NONE', #251, 0.1250000000000000000 ) ;
#117 = DIRECTION ( 'NONE',  ( -1.000000000000000000, -4.082155997157848133E-17, 0.000000000000000000 ) ) ;
#118 = DIRECTION ( 'NONE',  ( 1.000000000000000000, 4.082155997157848133E-17, 0.000000000000000000 ) ) ;
#119 = PRESENTATION_STYLE_ASSIGNMENT (( #1 ) ) ;
#120 =( NAMED_UNIT ( * ) PLANE_ANGLE_UNIT ( ) SI_UNIT ( $, .RADIAN. ) );
#121 = ADVANCED_FACE ( 'NONE', ( #136 ), #262, .T. ) ;
#122 = CARTESIAN_POINT ( 'NONE',  ( 0.000000000000000000, 0.000000000000000000, 0.000000000000000000 ) ) ;
#123 = SHAPE_DEFINITION_REPRESENTATION ( #272, #200 ) ;
#124 = COLOUR_RGB ( '',1.000000000000000000, 0.000000000000000000, 0.000000000000000000 ) ;
#125 = DIRECTION ( 'NONE',  ( -0.000000000000000000, -1.000000000000000000, -0.000000000000000000 ) ) ;
#126 = PRESENTATION_LAYER_ASSIGNMENT (  '', '', ( #38 ) ) ;
#127 = EDGE_CURVE ( 'NONE', #51, #274, #157, .T. ) ;
#128 = PRESENTATION_LAYER_ASSIGNMENT (  '', '', ( #2 ) ) ;
#129 = EDGE_LOOP ( 'NONE', ( #229, #133 ) ) ;
#130 = VECTOR ( 'NONE', #148, 39.37007874015748143 ) ;
#131 = EDGE_LOOP ( 'NONE', ( #252, #259 ) ) ;
#132 = DIRECTION ( 'NONE',  ( -4.082155997157848133E-17, 1.000000000000000000, -0.000000000000000000 ) ) ;
#133 = ORIENTED_EDGE ( 'NONE', *, *, #145, .T. ) ;
#134 = MECHANICAL_DESIGN_GEOMETRIC_PRESENTATION_REPRESENTATION (  '', ( #269 ), #42 ) ;
#135 = EDGE_CURVE ( 'NONE', #297, #209, #25, .T. ) ;
#136 = FACE_OUTER_BOUND ( 'NONE', #277, .T. ) ;
#137 = ORIENTED_EDGE ( 'NONE', *, *, #145, .F. ) ;
#138 = EDGE_LOOP ( 'NONE', ( #5, #26, #27, #28 ) ) ;
#139 = CARTESIAN_POINT ( 'NONE',  ( 7.582401355855259480E-33, 1.500000000000000222, 0.000000000000000000 ) ) ;
#140 = PRESENTATION_STYLE_ASSIGNMENT (( #14 ) ) ;
#141 = FILL_AREA_STYLE ('',( #35 ) ) ;
#142 =( NAMED_UNIT ( * ) PLANE_ANGLE_UNIT ( ) SI_UNIT ( $, .RADIAN. ) );
#143 = CIRCLE ( 'NONE', #111, 0.1250000000000000000 ) ;
#144 = LENGTH_MEASURE_WITH_UNIT ( LENGTH_MEASURE( 0.02539999999999999897 ), #250 );
#145 = EDGE_CURVE ( 'NONE', #85, #274, #74, .T. ) ;
#146 = MECHANICAL_DESIGN_GEOMETRIC_PRESENTATION_REPRESENTATION (  '', ( #38 ), #57 ) ;
#147 = DIRECTION ( 'NONE',  ( -0.000000000000000000, -1.000000000000000000, -0.000000000000000000 ) ) ;
#148 = DIRECTION ( 'NONE',  ( -0.000000000000000000, -1.000000000000000000, -0.000000000000000000 ) ) ;
#149 = CARTESIAN_POINT ( 'NONE',  ( 0.000000000000000000, 1.500000000000000222, -0.1250000000000000278 ) ) ;
#150 = PRODUCT_CONTEXT ( 'NONE', #71, 'mechanical' ) ;
#151 = COLOUR_RGB ( '',0.7921568627450980005, 0.8196078431372548767, 0.9333333333333333481 ) ;
#152 = ORIENTED_EDGE ( 'NONE', *, *, #135, .F. ) ;
#153 = SURFACE_STYLE_USAGE ( .BOTH. , #170 ) ;
#154 = SURFACE_SIDE_STYLE ('',( #276 ) ) ;
#155 = VERTEX_POINT ( 'NONE', #180 ) ;
#156 = UNCERTAINTY_MEASURE_WITH_UNIT (LENGTH_MEASURE( 1.000000000000000082E-05 ), #41, 'distance_accuracy_value', 'NONE');
#157 = LINE ( 'NONE', #77, #275 ) ;
#158 = CYLINDRICAL_SURFACE ( 'NONE', #6, 0.1250000000000000000 ) ;
#159 = CARTESIAN_POINT ( 'NONE',  ( 0.000000000000000000, 0.000000000000000000, 0.000000000000000000 ) ) ;
#160 = CARTESIAN_POINT ( 'NONE',  ( 1.041499849070736731E-34, 1.500000000000000222, 0.000000000000000000 ) ) ;
#161 = DIMENSIONAL_EXPONENTS ( 1.000000000000000000, 0.000000000000000000, 0.000000000000000000, 0.000000000000000000, 0.000000000000000000, 0.000000000000000000, 0.000000000000000000 ) ;
#162 = AXIS2_PLACEMENT_3D ( 'NONE', #235, #233, #103 ) ;
#163 =( GEOMETRIC_REPRESENTATION_CONTEXT ( 3 ) GLOBAL_UNCERTAINTY_ASSIGNED_CONTEXT ( ( #82 ) ) GLOBAL_UNIT_ASSIGNED_CONTEXT ( ( #12, #115, #86 ) ) REPRESENTATION_CONTEXT ( 'NONE', 'WORKASPACE' ) );
#164 = FILL_AREA_STYLE_COLOUR ( '', #151 ) ;
#165 = DIMENSIONAL_EXPONENTS ( 1.000000000000000000, 0.000000000000000000, 0.000000000000000000, 0.000000000000000000, 0.000000000000000000, 0.000000000000000000, 0.000000000000000000 ) ;
#166 = CARTESIAN_POINT ( 'NONE',  ( 0.000000000000000000, 0.000000000000000000, 0.000000000000000000 ) ) ;
#167 = SURFACE_SIDE_STYLE ('',( #193 ) ) ;
#168 = EDGE_CURVE ( 'NONE', #155, #51, #62, .T. ) ;
#169 = LENGTH_MEASURE_WITH_UNIT ( LENGTH_MEASURE( 0.02539999999999999897 ), #243 );
#170 = SURFACE_SIDE_STYLE ('',( #66 ) ) ;
#171 = ORIENTED_EDGE ( 'NONE', *, *, #135, .T. ) ;
#172 = AXIS2_PLACEMENT_3D ( 'NONE', #7, #132, #176 ) ;
#173 =( GEOMETRIC_REPRESENTATION_CONTEXT ( 3 ) GLOBAL_UNCERTAINTY_ASSIGNED_CONTEXT ( ( #234 ) ) GLOBAL_UNIT_ASSIGNED_CONTEXT ( ( #208, #304, #230 ) ) REPRESENTATION_CONTEXT ( 'NONE', 'WORKASPACE' ) );
#174 = CARTESIAN_POINT ( 'NONE',  ( 0.000000000000000000, 0.000000000000000000, 0.000000000000000000 ) ) ;
#175 = PRODUCT_DEFINITION ( 'UNKNOWN', '', #239, #34 ) ;
#176 = DIRECTION ( 'NONE',  ( -1.000000000000000000, 0.000000000000000000, 0.000000000000000000 ) ) ;
#177 = PRESENTATION_LAYER_ASSIGNMENT (  '', '', ( #269 ) ) ;
#178 = FACE_OUTER_BOUND ( 'NONE', #138, .T. ) ;
#179 = DIRECTION ( 'NONE',  ( 0.000000000000000000, 0.000000000000000000, -1.000000000000000000 ) ) ;
#180 = CARTESIAN_POINT ( 'NONE',  ( 0.1250000000000000278, 1.500000000000000222, 1.530808498934192742E-17 ) ) ;
#181 = ORIENTED_EDGE ( 'NONE', *, *, #168, .T. ) ;
#182 = SURFACE_STYLE_FILL_AREA ( #261 ) ;
#183 = COLOUR_RGB ( '',1.000000000000000000, 0.000000000000000000, 0.000000000000000000 ) ;
#184 =( NAMED_UNIT ( * ) PLANE_ANGLE_UNIT ( ) SI_UNIT ( $, .RADIAN. ) );
#185 = ORIENTED_EDGE ( 'NONE', *, *, #237, .T. ) ;
#186 = EDGE_CURVE ( 'NONE', #15, #3, #16, .T. ) ;
#187 = LENGTH_MEASURE_WITH_UNIT ( LENGTH_MEASURE( 0.02539999999999999897 ), #110 );
#188 = LINE ( 'NONE', #285, #201 ) ;
#189 = LENGTH_MEASURE_WITH_UNIT ( LENGTH_MEASURE( 0.02539999999999999897 ), #231 );
#190 =( GEOMETRIC_REPRESENTATION_CONTEXT ( 3 ) GLOBAL_UNCERTAINTY_ASSIGNED_CONTEXT ( ( #76 ) ) GLOBAL_UNIT_ASSIGNED_CONTEXT ( ( #303, #20, #215 ) ) REPRESENTATION_CONTEXT ( 'NONE', 'WORKASPACE' ) );
#191 = EDGE_CURVE ( 'NONE', #51, #155, #219, .T. ) ;
#192 = ORIENTED_EDGE ( 'NONE', *, *, #40, .F. ) ;
#193 = SURFACE_STYLE_FILL_AREA ( #271 ) ;
#194 = UNCERTAINTY_MEASURE_WITH_UNIT (LENGTH_MEASURE( 1.000000000000000082E-05 ), #54, 'distance_accuracy_value', 'NONE');
#195 = CARTESIAN_POINT ( 'NONE',  ( 0.000000000000000000, 0.000000000000000000, 0.000000000000000000 ) ) ;
#196 = AXIS2_PLACEMENT_3D ( 'NONE', #306, #217, #245 ) ;
#197 = CARTESIAN_POINT ( 'NONE',  ( 0.1250000000000000000, 3.000000000000000444, 1.530808498934192125E-17 ) ) ;
#198 =( LENGTH_UNIT ( ) NAMED_UNIT ( * ) SI_UNIT ( $, .METRE. ) );
#199 = FILL_AREA_STYLE ('',( #98 ) ) ;
#200 = ADVANCED_BREP_SHAPE_REPRESENTATION ( '81368', ( #254, #248, #223 ), #173 ) ;
#201 = VECTOR ( 'NONE', #55, 39.37007874015748143 ) ;
#202 = CARTESIAN_POINT ( 'NONE',  ( -0.1250000000000000278, 1.500000000000000222, 0.000000000000000000 ) ) ;
#203 = APPLICATION_PROTOCOL_DEFINITION ( 'draft international standard', 'automotive_design', 1998, #249 ) ;
#204 = LENGTH_MEASURE_WITH_UNIT ( LENGTH_MEASURE( 0.02539999999999999897 ), #23 );
#205 = EDGE_LOOP ( 'NONE', ( #80, #292, #9, #256 ) ) ;
#206 = EDGE_LOOP ( 'NONE', ( #102, #181, #24, #137 ) ) ;
#207 = UNCERTAINTY_MEASURE_WITH_UNIT (LENGTH_MEASURE( 1.000000000000000082E-05 ), #284, 'distance_accuracy_value', 'NONE');
#208 =( CONVERSION_BASED_UNIT ( 'INCH', #169 ) LENGTH_UNIT ( ) NAMED_UNIT ( #60 ) );
#209 = VERTEX_POINT ( 'NONE', #268 ) ;
#210 = DIRECTION ( 'NONE',  ( 0.000000000000000000, -0.000000000000000000, 1.000000000000000000 ) ) ;
#211 = PRESENTATION_STYLE_ASSIGNMENT (( #253 ) ) ;
#212 = AXIS2_PLACEMENT_3D ( 'NONE', #278, #257, #79 ) ;
#213 = SURFACE_STYLE_USAGE ( .BOTH. , #265 ) ;
#214 = DIRECTION ( 'NONE',  ( -4.082155997157848133E-17, 1.000000000000000000, 0.000000000000000000 ) ) ;
#215 =( NAMED_UNIT ( * ) SI_UNIT ( $, .STERADIAN. ) SOLID_ANGLE_UNIT ( ) );
#216 = FILL_AREA_STYLE_COLOUR ( '', #84 ) ;
#217 = DIRECTION ( 'NONE',  ( -4.082155997157848133E-17, 1.000000000000000000, -0.000000000000000000 ) ) ;
#218 = PLANE ( 'NONE',  #247 ) ;
#219 = CIRCLE ( 'NONE', #196, 0.1250000000000000278 ) ;
#220 = DIRECTION ( 'NONE',  ( -4.082155997157848133E-17, 1.000000000000000000, -0.000000000000000000 ) ) ;
#221 = DIRECTION ( 'NONE',  ( 0.000000000000000000, 0.000000000000000000, -1.000000000000000000 ) ) ;
#222 = AXIS2_PLACEMENT_3D ( 'NONE', #87, #61, #118 ) ;
#223 = AXIS2_PLACEMENT_3D ( 'NONE', #174, #50, #273 ) ;
#224 = DIRECTION ( 'NONE',  ( 0.000000000000000000, -1.000000000000000000, -0.000000000000000000 ) ) ;
#225 =( NAMED_UNIT ( * ) SI_UNIT ( $, .STERADIAN. ) SOLID_ANGLE_UNIT ( ) );
#226 = FACE_OUTER_BOUND ( 'NONE', #108, .T. ) ;
#227 =( GEOMETRIC_REPRESENTATION_CONTEXT ( 3 ) GLOBAL_UNCERTAINTY_ASSIGNED_CONTEXT ( ( #194 ) ) GLOBAL_UNIT_ASSIGNED_CONTEXT ( ( #54, #184, #225 ) ) REPRESENTATION_CONTEXT ( 'NONE', 'WORKASPACE' ) );
#228 = ORIENTED_EDGE ( 'NONE', *, *, #244, .T. ) ;
#229 = ORIENTED_EDGE ( 'NONE', *, *, #293, .T. ) ;
#230 =( NAMED_UNIT ( * ) SI_UNIT ( $, .STERADIAN. ) SOLID_ANGLE_UNIT ( ) );
#231 =( LENGTH_UNIT ( ) NAMED_UNIT ( * ) SI_UNIT ( $, .METRE. ) );
#232 = AXIS2_PLACEMENT_3D ( 'NONE', #298, #107, #210 ) ;
#233 = DIRECTION ( 'NONE',  ( -0.000000000000000000, -1.000000000000000000, -0.000000000000000000 ) ) ;
#234 = UNCERTAINTY_MEASURE_WITH_UNIT (LENGTH_MEASURE( 1.000000000000000082E-05 ), #208, 'distance_accuracy_value', 'NONE');
#235 = CARTESIAN_POINT ( 'NONE',  ( 0.000000000000000000, 1.500000000000000222, 0.000000000000000000 ) ) ;
#236 = PRESENTATION_STYLE_ASSIGNMENT (( #213 ) ) ;
#237 = EDGE_CURVE ( 'NONE', #209, #297, #143, .T. ) ;
#238 = FACE_OUTER_BOUND ( 'NONE', #129, .T. ) ;
#239 = PRODUCT_DEFINITION_FORMATION_WITH_SPECIFIED_SOURCE ( 'ANY', '', #104, .NOT_KNOWN. ) ;
#240 = ADVANCED_FACE ( 'NONE', ( #226 ), #291, .T. ) ;
#241 = SURFACE_STYLE_FILL_AREA ( #266 ) ;
#242 = COLOUR_RGB ( '',1.000000000000000000, 0.000000000000000000, 0.000000000000000000 ) ;
#243 =( LENGTH_UNIT ( ) NAMED_UNIT ( * ) SI_UNIT ( $, .METRE. ) );
#244 = EDGE_CURVE ( 'NONE', #3, #209, #96, .T. ) ;
#245 = DIRECTION ( 'NONE',  ( -1.000000000000000000, 0.000000000000000000, 0.000000000000000000 ) ) ;
#246 = MECHANICAL_DESIGN_GEOMETRIC_PRESENTATION_REPRESENTATION (  '', ( #2 ), #227 ) ;
#247 = AXIS2_PLACEMENT_3D ( 'NONE', #160, #214, #117 ) ;
#248 = MANIFOLD_SOLID_BREP ( 'Revolve - Tool Body (Straight Shanked)', #56 ) ;
#249 = APPLICATION_CONTEXT ( 'automotive_design' ) ;
#250 =( LENGTH_UNIT ( ) NAMED_UNIT ( * ) SI_UNIT ( $, .METRE. ) );
#251 = AXIS2_PLACEMENT_3D ( 'NONE', #166, #309, #70 ) ;
#252 = ORIENTED_EDGE ( 'NONE', *, *, #191, .F. ) ;
#253 = SURFACE_STYLE_USAGE ( .BOTH. , #154 ) ;
#254 = MANIFOLD_SOLID_BREP ( 'Revolve - Cutting Edge', #258 ) ;
#255 = PRESENTATION_STYLE_ASSIGNMENT (( #153 ) ) ;
#256 = ORIENTED_EDGE ( 'NONE', *, *, #237, .F. ) ;
#257 = DIRECTION ( 'NONE',  ( -4.082155997157848133E-17, 1.000000000000000000, -0.000000000000000000 ) ) ;
#258 = CLOSED_SHELL ( 'NONE', ( #114, #121, #93, #240 ) ) ;
#259 = ORIENTED_EDGE ( 'NONE', *, *, #168, .F. ) ;
#260 = DIRECTION ( 'NONE',  ( -1.000000000000000000, 0.000000000000000000, 0.000000000000000000 ) ) ;
#261 = FILL_AREA_STYLE ('',( #216 ) ) ;
#262 = PLANE ( 'NONE',  #232 ) ;
#263 = STYLED_ITEM ( 'NONE', ( #140 ), #114 ) ;
#264 = CARTESIAN_POINT ( 'NONE',  ( -6.123233995736772199E-17, 3.000000000000000444, 0.000000000000000000 ) ) ;
#265 = SURFACE_SIDE_STYLE ('',( #305 ) ) ;
#266 = FILL_AREA_STYLE ('',( #164 ) ) ;
#267 = AXIS2_PLACEMENT_3D ( 'NONE', #4, #279, #52 ) ;
#268 = CARTESIAN_POINT ( 'NONE',  ( 1.530808498934191509E-17, 0.000000000000000000, 0.1250000000000000000 ) ) ;
#269 = STYLED_ITEM ( 'NONE', ( #119 ), #240 ) ;
#270 = CARTESIAN_POINT ( 'NONE',  ( 0.000000000000000000, 0.000000000000000000, 0.000000000000000000 ) ) ;
#271 = FILL_AREA_STYLE ('',( #91 ) ) ;
#272 = PRODUCT_DEFINITION_SHAPE ( 'NONE', 'NONE',  #175 ) ;
#273 = DIRECTION ( 'NONE',  ( 1.000000000000000000, 0.000000000000000000, 0.000000000000000000 ) ) ;
#274 = VERTEX_POINT ( 'NONE', #300 ) ;
#275 = VECTOR ( 'NONE', #8, 39.37007874015748143 ) ;
#276 = SURFACE_STYLE_FILL_AREA ( #32 ) ;
#277 = EDGE_LOOP ( 'NONE', ( #94, #192 ) ) ;
#278 = CARTESIAN_POINT ( 'NONE',  ( -6.123233995736772199E-17, 3.000000000000000444, 0.000000000000000000 ) ) ;
#279 = DIRECTION ( 'NONE',  ( -4.082155997157848133E-17, 1.000000000000000000, -0.000000000000000000 ) ) ;
#280 = EDGE_LOOP ( 'NONE', ( #49, #228, #152, #11 ) ) ;
#281 = DIRECTION ( 'NONE',  ( 0.000000000000000000, 0.000000000000000000, -1.000000000000000000 ) ) ;
#282 = FACE_OUTER_BOUND ( 'NONE', #131, .T. ) ;
#283 = ADVANCED_FACE ( 'NONE', ( #282 ), #218, .F. ) ;
#284 =( CONVERSION_BASED_UNIT ( 'INCH', #187 ) LENGTH_UNIT ( ) NAMED_UNIT ( #10 ) );
#285 = CARTESIAN_POINT ( 'NONE',  ( 0.000000000000000000, 0.000000000000000000, -0.1250000000000000000 ) ) ;
#286 = STYLED_ITEM ( 'NONE', ( #236 ), #121 ) ;
#287 = LENGTH_MEASURE_WITH_UNIT ( LENGTH_MEASURE( 0.02539999999999999897 ), #198 );
#288 = EDGE_CURVE ( 'NONE', #15, #297, #188, .T. ) ;
#289 = DIRECTION ( 'NONE',  ( 0.000000000000000000, 0.000000000000000000, -1.000000000000000000 ) ) ;
#290 = AXIS2_PLACEMENT_3D ( 'NONE', #139, #13, #260 ) ;
#291 = PLANE ( 'NONE',  #63 ) ;
#292 = ORIENTED_EDGE ( 'NONE', *, *, #40, .T. ) ;
#293 = EDGE_CURVE ( 'NONE', #274, #85, #18, .T. ) ;
#294 = FACE_OUTER_BOUND ( 'NONE', #205, .T. ) ;
#295 = APPLICATION_PROTOCOL_DEFINITION ( 'draft international standard', 'automotive_design', 1998, #71 ) ;
#296 = STYLED_ITEM ( 'NONE', ( #43 ), #254 ) ;
#297 = VERTEX_POINT ( 'NONE', #59 ) ;
#298 = CARTESIAN_POINT ( 'NONE',  ( 0.000000000000000000, 1.500000000000000222, 0.000000000000000000 ) ) ;
#299 = FACE_OUTER_BOUND ( 'NONE', #206, .T. ) ;
#300 = CARTESIAN_POINT ( 'NONE',  ( -0.1250000000000001665, 3.000000000000000444, 0.000000000000000000 ) ) ;
#301 = DIRECTION ( 'NONE',  ( -0.000000000000000000, -1.000000000000000000, -0.000000000000000000 ) ) ;
#302 = MECHANICAL_DESIGN_GEOMETRIC_PRESENTATION_REPRESENTATION (  '', ( #296 ), #163 ) ;
#303 =( CONVERSION_BASED_UNIT ( 'INCH', #189 ) LENGTH_UNIT ( ) NAMED_UNIT ( #165 ) );
#304 =( NAMED_UNIT ( * ) PLANE_ANGLE_UNIT ( ) SI_UNIT ( $, .RADIAN. ) );
#305 = SURFACE_STYLE_FILL_AREA ( #141 ) ;
#306 = CARTESIAN_POINT ( 'NONE',  ( 7.582401355855259480E-33, 1.500000000000000222, 0.000000000000000000 ) ) ;
#307 = CIRCLE ( 'NONE', #162, 0.1250000000000000278 ) ;
#308 = EDGE_CURVE ( 'NONE', #155, #85, #31, .T. ) ;
#309 = DIRECTION ( 'NONE',  ( -0.000000000000000000, -1.000000000000000000, -0.000000000000000000 ) ) ;
ENDSEC;
END-ISO-10303-21;
