ISO-10303-21;
HEADER;
FILE_DESCRIPTION (( 'STEP AP214' ),
    '1' );
FILE_NAME ('Micro_SFA-500-88.STEP',
    '2021-09-02T04:05:54',
    ( '' ),
    ( '' ),
    'SwSTEP 2.0',
    'SolidWorks 2020',
    '' );
FILE_SCHEMA (( 'AUTOMOTIVE_DESIGN' ));
ENDSEC;

DATA;
#1 = DIRECTION ( 'NONE',  ( -0.7071067811865402453, 0.0000000000000000000, -0.7071067811865546782 ) ) ;
#2 = UNCERTAINTY_MEASURE_WITH_UNIT (LENGTH_MEASURE( 1.000000000000000082E-05 ), #67, 'distance_accuracy_value', 'NONE');
#3 = VECTOR ( 'NONE', #126, 39.37007874015748854 ) ;
#4 = DIRECTION ( 'NONE',  ( 0.0000000000000000000, 0.0000000000000000000, -1.000000000000000000 ) ) ;
#5 = VERTEX_POINT ( 'NONE', #28 ) ;
#6 = EDGE_CURVE ( 'NONE', #228, #22, #236, .T. ) ;
#7 = EDGE_LOOP ( 'NONE', ( #226, #205, #49, #161 ) ) ;
#8 = EDGE_CURVE ( 'NONE', #116, #68, #25, .T. ) ;
#9 = FACE_OUTER_BOUND ( 'NONE', #7, .T. ) ;
#10 = FACE_OUTER_BOUND ( 'NONE', #40, .T. ) ;
#11 = CARTESIAN_POINT ( 'NONE',  ( 0.2500000000000000000, 3.061616997868382402E-17, 2.985000000000001208 ) ) ;
#12 = ADVANCED_FACE ( 'NONE', ( #10 ), #213, .F. ) ;
#13 = DIRECTION ( 'NONE',  ( -0.0000000000000000000, -0.0000000000000000000, -1.000000000000000000 ) ) ;
#14 =( CONVERSION_BASED_UNIT ( 'INCH', #109 ) LENGTH_UNIT ( ) NAMED_UNIT ( #206 ) );
#15 = CARTESIAN_POINT ( 'NONE',  ( 0.0000000000000000000, 0.0000000000000000000, 0.0000000000000000000 ) ) ;
#16 = AXIS2_PLACEMENT_3D ( 'NONE', #52, #164, #238 ) ;
#17 = CIRCLE ( 'NONE', #245, 0.2350000000000011524 ) ;
#18 = DIRECTION ( 'NONE',  ( 1.000000000000000000, 0.0000000000000000000, 0.0000000000000000000 ) ) ;
#19 = EDGE_LOOP ( 'NONE', ( #278, #296, #45, #189 ) ) ;
#20 = APPLICATION_CONTEXT ( 'automotive_design' ) ;
#21 = DIRECTION ( 'NONE',  ( 1.000000000000000000, 0.0000000000000000000, -0.0000000000000000000 ) ) ;
#22 = VERTEX_POINT ( 'NONE', #188 ) ;
#23 = PRESENTATION_STYLE_ASSIGNMENT (( #179 ) ) ;
#24 = ORIENTED_EDGE ( 'NONE', *, *, #104, .F. ) ;
#25 = LINE ( 'NONE', #121, #265 ) ;
#26 = ORIENTED_EDGE ( 'NONE', *, *, #195, .T. ) ;
#27 = DIRECTION ( 'NONE',  ( -0.0000000000000000000, -0.0000000000000000000, -1.000000000000000000 ) ) ;
#28 = CARTESIAN_POINT ( 'NONE',  ( 0.2350000000000011524, 2.969768487932338510E-17, 3.000000000000000444 ) ) ;
#29 = CARTESIAN_POINT ( 'NONE',  ( 3.745650057197990990E-33, 0.0000000000000000000, 3.058555380870515566E-17 ) ) ;
#30 = DIRECTION ( 'NONE',  ( -1.224646799147353454E-16, -0.0000000000000000000, -1.000000000000000000 ) ) ;
#31 = LINE ( 'NONE', #80, #94 ) ;
#32 = CARTESIAN_POINT ( 'NONE',  ( 0.2497499999999999998, 3.058555380870514950E-17, -3.791200677927629740E-33 ) ) ;
#33 = CARTESIAN_POINT ( 'NONE',  ( -0.2350000000000011524, 0.0000000000000000000, 3.000000000000000444 ) ) ;
#34 = CONICAL_SURFACE ( 'NONE', #16, 0.2497500000000000553, 0.1745329251994339470 ) ;
#35 = AXIS2_PLACEMENT_3D ( 'NONE', #128, #82, #216 ) ;
#36 = SHAPE_DEFINITION_REPRESENTATION ( #81, #201 ) ;
#37 =( NAMED_UNIT ( * ) PLANE_ANGLE_UNIT ( ) SI_UNIT ( $, .RADIAN. ) );
#38 = DIRECTION ( 'NONE',  ( 1.000000000000000000, 0.0000000000000000000, 0.0000000000000000000 ) ) ;
#39 = FILL_AREA_STYLE ('',( #113 ) ) ;
#40 = EDGE_LOOP ( 'NONE', ( #137, #259 ) ) ;
#41 = AXIS2_PLACEMENT_3D ( 'NONE', #57, #147, #240 ) ;
#42 = UNCERTAINTY_MEASURE_WITH_UNIT (LENGTH_MEASURE( 1.000000000000000082E-05 ), #256, 'distance_accuracy_value', 'NONE');
#43 = DIRECTION ( 'NONE',  ( 0.0000000000000000000, 0.0000000000000000000, 1.000000000000000000 ) ) ;
#44 = ORIENTED_EDGE ( 'NONE', *, *, #8, .F. ) ;
#45 = ORIENTED_EDGE ( 'NONE', *, *, #70, .T. ) ;
#46 = DIRECTION ( 'NONE',  ( 1.000000000000000000, 0.0000000000000000000, -0.0000000000000000000 ) ) ;
#47 = AXIS2_PLACEMENT_3D ( 'NONE', #73, #144, #46 ) ;
#48 = PRODUCT_DEFINITION_FORMATION_WITH_SPECIFIED_SOURCE ( 'ANY', '', #56, .NOT_KNOWN. ) ;
#49 = ORIENTED_EDGE ( 'NONE', *, *, #299, .T. ) ;
#50 =( NAMED_UNIT ( * ) SI_UNIT ( $, .STERADIAN. ) SOLID_ANGLE_UNIT ( ) );
#51 = ORIENTED_EDGE ( 'NONE', *, *, #65, .T. ) ;
#52 = CARTESIAN_POINT ( 'NONE',  ( 1.224646799147353454E-16, 0.0000000000000000000, 1.000000000000000000 ) ) ;
#53 = CIRCLE ( 'NONE', #272, 0.2500000000000000000 ) ;
#54 = LINE ( 'NONE', #146, #279 ) ;
#55 = FACE_OUTER_BOUND ( 'NONE', #19, .T. ) ;
#56 = PRODUCT ( 'Micro_SFA-500-88', 'Micro_SFA-500-88', '', ( #63 ) ) ;
#57 = CARTESIAN_POINT ( 'NONE',  ( 1.224646799147353454E-16, 0.0000000000000000000, 1.000000000000000000 ) ) ;
#58 = CONICAL_SURFACE ( 'NONE', #237, 0.2350000000000011524, 0.7853981633974380649 ) ;
#59 = FILL_AREA_STYLE ('',( #271 ) ) ;
#60 = CIRCLE ( 'NONE', #214, 0.2497500000000000553 ) ;
#61 = EDGE_CURVE ( 'NONE', #258, #228, #282, .T. ) ;
#62 = DIRECTION ( 'NONE',  ( 0.0000000000000000000, 0.0000000000000000000, -1.000000000000000000 ) ) ;
#63 = PRODUCT_CONTEXT ( 'NONE', #20, 'mechanical' ) ;
#64 = SURFACE_STYLE_FILL_AREA ( #59 ) ;
#65 = EDGE_CURVE ( 'NONE', #253, #258, #284, .T. ) ;
#66 = ADVANCED_FACE ( 'NONE', ( #75 ), #58, .T. ) ;
#67 =( CONVERSION_BASED_UNIT ( 'INCH', #89 ) LENGTH_UNIT ( ) NAMED_UNIT ( #199 ) );
#68 = VERTEX_POINT ( 'NONE', #97 ) ;
#69 = ORIENTED_EDGE ( 'NONE', *, *, #269, .F. ) ;
#70 = EDGE_CURVE ( 'NONE', #258, #68, #215, .T. ) ;
#71 = AXIS2_PLACEMENT_3D ( 'NONE', #135, #251, #132 ) ;
#72 = ORIENTED_EDGE ( 'NONE', *, *, #61, .F. ) ;
#73 = CARTESIAN_POINT ( 'NONE',  ( 0.0000000000000000000, 0.0000000000000000000, 0.0000000000000000000 ) ) ;
#74 = ADVANCED_FACE ( 'NONE', ( #9 ), #34, .T. ) ;
#75 = FACE_OUTER_BOUND ( 'NONE', #112, .T. ) ;
#76 = CYLINDRICAL_SURFACE ( 'NONE', #158, 0.2500000000000000000 ) ;
#77 = CARTESIAN_POINT ( 'NONE',  ( 3.745650057197990990E-33, 0.0000000000000000000, 3.058555380870515566E-17 ) ) ;
#78 = ORIENTED_EDGE ( 'NONE', *, *, #227, .F. ) ;
#79 = CONICAL_SURFACE ( 'NONE', #35, 0.2350000000000011524, 0.7853981633974380649 ) ;
#80 = CARTESIAN_POINT ( 'NONE',  ( -0.2497499999999999165, 3.058555380870515566E-17, 1.000000000000000000 ) ) ;
#81 = PRODUCT_DEFINITION_SHAPE ( 'NONE', 'NONE',  #292 ) ;
#82 = DIRECTION ( 'NONE',  ( 0.0000000000000000000, 0.0000000000000000000, -1.000000000000000000 ) ) ;
#83 = CLOSED_SHELL ( 'NONE', ( #115, #74, #247, #281, #87, #264, #66, #151, #165, #12 ) ) ;
#84 = FACE_OUTER_BOUND ( 'NONE', #155, .T. ) ;
#85 = VECTOR ( 'NONE', #1, 39.37007874015748854 ) ;
#86 =( LENGTH_UNIT ( ) NAMED_UNIT ( * ) SI_UNIT ( $, .METRE. ) );
#87 = ADVANCED_FACE ( 'NONE', ( #286 ), #76, .T. ) ;
#88 = APPLICATION_PROTOCOL_DEFINITION ( 'draft international standard', 'automotive_design', 1998, #211 ) ;
#89 = LENGTH_MEASURE_WITH_UNIT ( LENGTH_MEASURE( 0.02539999999999999897 ), #277 );
#90 = ORIENTED_EDGE ( 'NONE', *, *, #6, .F. ) ;
#91 = CYLINDRICAL_SURFACE ( 'NONE', #71, 0.2500000000000000000 ) ;
#92 = AXIS2_PLACEMENT_3D ( 'NONE', #139, #212, #186 ) ;
#93 = ORIENTED_EDGE ( 'NONE', *, *, #8, .T. ) ;
#94 = VECTOR ( 'NONE', #172, 39.37007874015748143 ) ;
#95 = SURFACE_SIDE_STYLE ('',( #202 ) ) ;
#96 = CIRCLE ( 'NONE', #207, 0.2500000000000000000 ) ;
#97 = CARTESIAN_POINT ( 'NONE',  ( 0.2500000000000001110, 3.061616997868383634E-17, 1.001417820454904017 ) ) ;
#98 = VERTEX_POINT ( 'NONE', #262 ) ;
#99 = ORIENTED_EDGE ( 'NONE', *, *, #254, .T. ) ;
#100 = DIRECTION ( 'NONE',  ( -1.224646799147353454E-16, -0.0000000000000000000, -1.000000000000000000 ) ) ;
#101 = UNCERTAINTY_MEASURE_WITH_UNIT (LENGTH_MEASURE( 1.000000000000000082E-05 ), #14, 'distance_accuracy_value', 'NONE');
#102 = EDGE_CURVE ( 'NONE', #22, #228, #136, .T. ) ;
#103 = DIRECTION ( 'NONE',  ( -1.000000000000000000, 0.0000000000000000000, 0.0000000000000000000 ) ) ;
#104 = EDGE_CURVE ( 'NONE', #134, #187, #54, .T. ) ;
#105 = COLOUR_RGB ( '',0.7921568627450980005, 0.8196078431372548767, 0.9333333333333333481 ) ;
#106 = DIRECTION ( 'NONE',  ( -1.000000000000000000, 0.0000000000000000000, 1.224646799147353207E-16 ) ) ;
#107 = CARTESIAN_POINT ( 'NONE',  ( 0.0000000000000000000, 0.0000000000000000000, 2.985000000000001208 ) ) ;
#108 = DIRECTION ( 'NONE',  ( 0.0000000000000000000, 0.0000000000000000000, -1.000000000000000000 ) ) ;
#109 = LENGTH_MEASURE_WITH_UNIT ( LENGTH_MEASURE( 0.02539999999999999897 ), #86 );
#110 = DIRECTION ( 'NONE',  ( 1.000000000000000000, 0.0000000000000000000, 0.0000000000000000000 ) ) ;
#111 = DIRECTION ( 'NONE',  ( 0.0000000000000000000, 0.0000000000000000000, 1.000000000000000000 ) ) ;
#112 = EDGE_LOOP ( 'NONE', ( #78, #233, #99, #185 ) ) ;
#113 = FILL_AREA_STYLE_COLOUR ( '', #105 ) ;
#114 = ORIENTED_EDGE ( 'NONE', *, *, #252, .T. ) ;
#115 = ADVANCED_FACE ( 'NONE', ( #84 ), #219, .T. ) ;
#116 = VERTEX_POINT ( 'NONE', #11 ) ;
#117 = CARTESIAN_POINT ( 'NONE',  ( -0.2497499999999999165, 3.060086189369449292E-17, 1.000000000000000000 ) ) ;
#118 = CIRCLE ( 'NONE', #289, 0.2500000000000000000 ) ;
#119 = AXIS2_PLACEMENT_3D ( 'NONE', #157, #297, #21 ) ;
#120 = ORIENTED_EDGE ( 'NONE', *, *, #104, .T. ) ;
#121 = CARTESIAN_POINT ( 'NONE',  ( 0.2500000000000000000, 3.061616997868382402E-17, 3.000000000000000444 ) ) ;
#122 = DIRECTION ( 'NONE',  ( -1.000000000000000000, 0.0000000000000000000, 0.0000000000000000000 ) ) ;
#123 = EDGE_CURVE ( 'NONE', #134, #116, #96, .T. ) ;
#124 = DIRECTION ( 'NONE',  ( -1.000000000000000000, 0.0000000000000000000, 1.224646799147353700E-16 ) ) ;
#125 = PRODUCT_RELATED_PRODUCT_CATEGORY ( 'part', '', ( #56 ) ) ;
#126 = DIRECTION ( 'NONE',  ( 0.7071067811865402453, 8.659560562354845344E-17, -0.7071067811865546782 ) ) ;
#127 = DIRECTION ( 'NONE',  ( -1.224646799147353454E-16, -0.0000000000000000000, -1.000000000000000000 ) ) ;
#128 = CARTESIAN_POINT ( 'NONE',  ( 0.0000000000000000000, 0.0000000000000000000, 3.000000000000000444 ) ) ;
#129 = CARTESIAN_POINT ( 'NONE',  ( 0.0000000000000000000, 0.0000000000000000000, 3.000000000000000444 ) ) ;
#130 = CARTESIAN_POINT ( 'NONE',  ( -0.2499999999999998612, 0.0000000000000000000, 1.001417820454904017 ) ) ;
#131 = AXIS2_PLACEMENT_3D ( 'NONE', #203, #250, #38 ) ;
#132 = DIRECTION ( 'NONE',  ( -1.000000000000000000, 0.0000000000000000000, 0.0000000000000000000 ) ) ;
#133 = APPLICATION_PROTOCOL_DEFINITION ( 'draft international standard', 'automotive_design', 1998, #20 ) ;
#134 = VERTEX_POINT ( 'NONE', #217 ) ;
#135 = CARTESIAN_POINT ( 'NONE',  ( 0.0000000000000000000, 0.0000000000000000000, 3.000000000000000444 ) ) ;
#136 = CIRCLE ( 'NONE', #182, 0.2497499999999999998 ) ;
#137 = ORIENTED_EDGE ( 'NONE', *, *, #102, .T. ) ;
#138 = ORIENTED_EDGE ( 'NONE', *, *, #269, .T. ) ;
#139 = CARTESIAN_POINT ( 'NONE',  ( 1.224646799147353454E-16, 0.0000000000000000000, 1.000000000000000000 ) ) ;
#140 = ORIENTED_EDGE ( 'NONE', *, *, #143, .T. ) ;
#141 = DIRECTION ( 'NONE',  ( -1.224646799147353454E-16, -0.0000000000000000000, -1.000000000000000000 ) ) ;
#142 = EDGE_CURVE ( 'NONE', #68, #187, #118, .T. ) ;
#143 = EDGE_CURVE ( 'NONE', #116, #134, #153, .T. ) ;
#144 = DIRECTION ( 'NONE',  ( 0.0000000000000000000, 0.0000000000000000000, 1.000000000000000000 ) ) ;
#145 = STYLED_ITEM ( 'NONE', ( #294 ), #248 ) ;
#146 = CARTESIAN_POINT ( 'NONE',  ( -0.2500000000000000000, 0.0000000000000000000, 3.000000000000000444 ) ) ;
#147 = DIRECTION ( 'NONE',  ( 1.224646799147353454E-16, 0.0000000000000000000, 1.000000000000000000 ) ) ;
#148 = DIRECTION ( 'NONE',  ( 1.000000000000000000, 0.0000000000000000000, 0.0000000000000000000 ) ) ;
#149 = SURFACE_SIDE_STYLE ('',( #64 ) ) ;
#150 = CARTESIAN_POINT ( 'NONE',  ( 1.226383128429217454E-16, 0.0000000000000000000, 1.001417820454904017 ) ) ;
#151 = ADVANCED_FACE ( 'NONE', ( #55 ), #280, .T. ) ;
#152 = CARTESIAN_POINT ( 'NONE',  ( 0.2350000000000011524, 2.877919977996294002E-17, 3.000000000000000444 ) ) ;
#153 = CIRCLE ( 'NONE', #191, 0.2500000000000000000 ) ;
#154 = AXIS2_PLACEMENT_3D ( 'NONE', #198, #43, #110 ) ;
#155 = EDGE_LOOP ( 'NONE', ( #51, #257, #234, #162 ) ) ;
#156 = ORIENTED_EDGE ( 'NONE', *, *, #123, .T. ) ;
#157 = CARTESIAN_POINT ( 'NONE',  ( 0.0000000000000000000, 0.0000000000000000000, 3.000000000000000444 ) ) ;
#158 = AXIS2_PLACEMENT_3D ( 'NONE', #166, #261, #103 ) ;
#159 = LENGTH_MEASURE_WITH_UNIT ( LENGTH_MEASURE( 0.02539999999999999897 ), #204 );
#160 =( GEOMETRIC_REPRESENTATION_CONTEXT ( 3 ) GLOBAL_UNCERTAINTY_ASSIGNED_CONTEXT ( ( #101 ) ) GLOBAL_UNIT_ASSIGNED_CONTEXT ( ( #14, #295, #274 ) ) REPRESENTATION_CONTEXT ( 'NONE', 'WORKASPACE' ) );
#161 = ORIENTED_EDGE ( 'NONE', *, *, #70, .F. ) ;
#162 = ORIENTED_EDGE ( 'NONE', *, *, #196, .F. ) ;
#163 = ORIENTED_EDGE ( 'NONE', *, *, #142, .F. ) ;
#164 = DIRECTION ( 'NONE',  ( 1.224646799147353454E-16, 0.0000000000000000000, 1.000000000000000000 ) ) ;
#165 = ADVANCED_FACE ( 'NONE', ( #241 ), #190, .T. ) ;
#166 = CARTESIAN_POINT ( 'NONE',  ( 0.0000000000000000000, 0.0000000000000000000, 3.000000000000000444 ) ) ;
#167 = ORIENTED_EDGE ( 'NONE', *, *, #254, .F. ) ;
#168 = PRODUCT_DEFINITION_CONTEXT ( 'detailed design', #211, 'design' ) ;
#169 = CARTESIAN_POINT ( 'NONE',  ( 0.2497500000000000553, 3.058555380870515566E-17, -3.058555380870515566E-17 ) ) ;
#170 = AXIS2_PLACEMENT_3D ( 'NONE', #171, #30, #175 ) ;
#171 = CARTESIAN_POINT ( 'NONE',  ( 0.0000000000000000000, 0.0000000000000000000, 0.0000000000000000000 ) ) ;
#172 = DIRECTION ( 'NONE',  ( -0.1736481776669312194, 2.126576849575783625E-17, 0.9848077530122077983 ) ) ;
#173 = CARTESIAN_POINT ( 'NONE',  ( 0.0000000000000000000, 0.0000000000000000000, 2.985000000000001208 ) ) ;
#174 = VECTOR ( 'NONE', #127, 39.37007874015748143 ) ;
#175 = DIRECTION ( 'NONE',  ( -1.000000000000000000, 0.0000000000000000000, 1.224646799147353207E-16 ) ) ;
#176 =( NAMED_UNIT ( * ) SI_UNIT ( $, .STERADIAN. ) SOLID_ANGLE_UNIT ( ) );
#177 = LINE ( 'NONE', #33, #85 ) ;
#178 = EDGE_LOOP ( 'NONE', ( #69, #283, #229, #167 ) ) ;
#179 = SURFACE_STYLE_USAGE ( .BOTH. , #95 ) ;
#180 = DIRECTION ( 'NONE',  ( 1.000000000000000000, 0.0000000000000000000, 0.0000000000000000000 ) ) ;
#181 = DIMENSIONAL_EXPONENTS ( 1.000000000000000000, 0.0000000000000000000, 0.0000000000000000000, 0.0000000000000000000, 0.0000000000000000000, 0.0000000000000000000, 0.0000000000000000000 ) ;
#182 = AXIS2_PLACEMENT_3D ( 'NONE', #77, #141, #288 ) ;
#183 = CARTESIAN_POINT ( 'NONE',  ( 1.226383128429217454E-16, 0.0000000000000000000, 1.001417820454904017 ) ) ;
#184 = MECHANICAL_DESIGN_GEOMETRIC_PRESENTATION_REPRESENTATION (  '', ( #145 ), #160 ) ;
#185 = ORIENTED_EDGE ( 'NONE', *, *, #143, .F. ) ;
#186 = DIRECTION ( 'NONE',  ( -1.000000000000000000, 0.0000000000000000000, 0.0000000000000000000 ) ) ;
#187 = VERTEX_POINT ( 'NONE', #130 ) ;
#188 = CARTESIAN_POINT ( 'NONE',  ( -0.2497499999999999998, 0.0000000000000000000, 6.117110761741031132E-17 ) ) ;
#189 = ORIENTED_EDGE ( 'NONE', *, *, #142, .T. ) ;
#190 = CYLINDRICAL_SURFACE ( 'NONE', #285, 0.2497500000000000553 ) ;
#191 = AXIS2_PLACEMENT_3D ( 'NONE', #173, #108, #148 ) ;
#192 = MECHANICAL_DESIGN_GEOMETRIC_PRESENTATION_REPRESENTATION (  '', ( #218 ), #267 ) ;
#193 = CARTESIAN_POINT ( 'NONE',  ( 1.224646799147353454E-16, 0.0000000000000000000, 1.000000000000000000 ) ) ;
#194 = DIRECTION ( 'NONE',  ( 1.000000000000000000, 0.0000000000000000000, 0.0000000000000000000 ) ) ;
#195 = EDGE_CURVE ( 'NONE', #258, #253, #60, .T. ) ;
#196 = EDGE_CURVE ( 'NONE', #253, #22, #293, .T. ) ;
#197 = DIRECTION ( 'NONE',  ( -1.224646799147353454E-16, -0.0000000000000000000, -1.000000000000000000 ) ) ;
#198 = CARTESIAN_POINT ( 'NONE',  ( 0.0000000000000000000, 0.0000000000000000000, 3.000000000000000444 ) ) ;
#199 = DIMENSIONAL_EXPONENTS ( 1.000000000000000000, 0.0000000000000000000, 0.0000000000000000000, 0.0000000000000000000, 0.0000000000000000000, 0.0000000000000000000, 0.0000000000000000000 ) ;
#200 = CARTESIAN_POINT ( 'NONE',  ( 0.2497500000000001941, 0.0000000000000000000, 1.000000000000000000 ) ) ;
#201 = ADVANCED_BREP_SHAPE_REPRESENTATION ( 'Micro_SFA-500-88', ( #248, #131 ), #222 ) ;
#202 = SURFACE_STYLE_FILL_AREA ( #39 ) ;
#203 = CARTESIAN_POINT ( 'NONE',  ( 0.0000000000000000000, 0.0000000000000000000, 0.0000000000000000000 ) ) ;
#204 =( LENGTH_UNIT ( ) NAMED_UNIT ( * ) SI_UNIT ( $, .METRE. ) );
#205 = ORIENTED_EDGE ( 'NONE', *, *, #232, .T. ) ;
#206 = DIMENSIONAL_EXPONENTS ( 1.000000000000000000, 0.0000000000000000000, 0.0000000000000000000, 0.0000000000000000000, 0.0000000000000000000, 0.0000000000000000000, 0.0000000000000000000 ) ;
#207 = AXIS2_PLACEMENT_3D ( 'NONE', #107, #62, #194 ) ;
#208 = COLOUR_RGB ( '',0.7921568627450980005, 0.8196078431372548767, 0.9333333333333333481 ) ;
#209 = DIRECTION ( 'NONE',  ( -1.224646799147353454E-16, -0.0000000000000000000, -1.000000000000000000 ) ) ;
#210 = EDGE_LOOP ( 'NONE', ( #44, #140, #120, #163 ) ) ;
#211 = APPLICATION_CONTEXT ( 'automotive_design' ) ;
#212 = DIRECTION ( 'NONE',  ( -1.224646799147353454E-16, -0.0000000000000000000, -1.000000000000000000 ) ) ;
#213 = PLANE ( 'NONE',  #47 ) ;
#214 = AXIS2_PLACEMENT_3D ( 'NONE', #193, #273, #268 ) ;
#215 = LINE ( 'NONE', #287, #224 ) ;
#216 = DIRECTION ( 'NONE',  ( -1.000000000000000000, 0.0000000000000000000, 0.0000000000000000000 ) ) ;
#217 = CARTESIAN_POINT ( 'NONE',  ( -0.2500000000000000000, 0.0000000000000000000, 2.985000000000001208 ) ) ;
#218 = STYLED_ITEM ( 'NONE', ( #23 ), #201 ) ;
#219 = CYLINDRICAL_SURFACE ( 'NONE', #170, 0.2497500000000000553 ) ;
#220 = FACE_OUTER_BOUND ( 'NONE', #178, .T. ) ;
#221 = VECTOR ( 'NONE', #209, 39.37007874015748143 ) ;
#222 =( GEOMETRIC_REPRESENTATION_CONTEXT ( 3 ) GLOBAL_UNCERTAINTY_ASSIGNED_CONTEXT ( ( #2 ) ) GLOBAL_UNIT_ASSIGNED_CONTEXT ( ( #67, #37, #176 ) ) REPRESENTATION_CONTEXT ( 'NONE', 'WORKASPACE' ) );
#223 = FACE_OUTER_BOUND ( 'NONE', #239, .T. ) ;
#224 = VECTOR ( 'NONE', #266, 39.37007874015748143 ) ;
#225 = DIRECTION ( 'NONE',  ( -1.224646799147353454E-16, -0.0000000000000000000, -1.000000000000000000 ) ) ;
#226 = ORIENTED_EDGE ( 'NONE', *, *, #65, .F. ) ;
#227 = EDGE_CURVE ( 'NONE', #5, #116, #291, .T. ) ;
#228 = VERTEX_POINT ( 'NONE', #32 ) ;
#229 = ORIENTED_EDGE ( 'NONE', *, *, #123, .F. ) ;
#230 = AXIS2_PLACEMENT_3D ( 'NONE', #29, #100, #124 ) ;
#231 = PRESENTATION_LAYER_ASSIGNMENT (  '', '', ( #218 ) ) ;
#232 = EDGE_CURVE ( 'NONE', #253, #187, #31, .T. ) ;
#233 = ORIENTED_EDGE ( 'NONE', *, *, #252, .F. ) ;
#234 = ORIENTED_EDGE ( 'NONE', *, *, #102, .F. ) ;
#235 = EDGE_LOOP ( 'NONE', ( #156, #93, #276, #24 ) ) ;
#236 = CIRCLE ( 'NONE', #230, 0.2497499999999999998 ) ;
#237 = AXIS2_PLACEMENT_3D ( 'NONE', #263, #4, #122 ) ;
#238 = DIRECTION ( 'NONE',  ( 1.000000000000000000, 0.0000000000000000000, 0.0000000000000000000 ) ) ;
#239 = EDGE_LOOP ( 'NONE', ( #114, #138 ) ) ;
#240 = DIRECTION ( 'NONE',  ( 1.000000000000000000, 0.0000000000000000000, 0.0000000000000000000 ) ) ;
#241 = FACE_OUTER_BOUND ( 'NONE', #298, .T. ) ;
#242 = SURFACE_STYLE_USAGE ( .BOTH. , #149 ) ;
#243 = DIRECTION ( 'NONE',  ( -1.224646799147353454E-16, -0.0000000000000000000, -1.000000000000000000 ) ) ;
#244 = CARTESIAN_POINT ( 'NONE',  ( -0.2497500000000000553, 0.0000000000000000000, 3.058555380870515566E-17 ) ) ;
#245 = AXIS2_PLACEMENT_3D ( 'NONE', #129, #111, #18 ) ;
#246 = FACE_OUTER_BOUND ( 'NONE', #235, .T. ) ;
#247 = ADVANCED_FACE ( 'NONE', ( #220 ), #79, .T. ) ;
#248 = MANIFOLD_SOLID_BREP ( 'Cut-Revolve1', #83 ) ;
#249 = ORIENTED_EDGE ( 'NONE', *, *, #196, .T. ) ;
#250 = DIRECTION ( 'NONE',  ( 0.0000000000000000000, 0.0000000000000000000, 1.000000000000000000 ) ) ;
#251 = DIRECTION ( 'NONE',  ( -0.0000000000000000000, -0.0000000000000000000, -1.000000000000000000 ) ) ;
#252 = EDGE_CURVE ( 'NONE', #98, #5, #17, .T. ) ;
#253 = VERTEX_POINT ( 'NONE', #117 ) ;
#254 = EDGE_CURVE ( 'NONE', #98, #134, #177, .T. ) ;
#255 = CIRCLE ( 'NONE', #154, 0.2350000000000011524 ) ;
#256 =( CONVERSION_BASED_UNIT ( 'INCH', #159 ) LENGTH_UNIT ( ) NAMED_UNIT ( #181 ) );
#257 = ORIENTED_EDGE ( 'NONE', *, *, #61, .T. ) ;
#258 = VERTEX_POINT ( 'NONE', #200 ) ;
#259 = ORIENTED_EDGE ( 'NONE', *, *, #6, .T. ) ;
#260 =( NAMED_UNIT ( * ) PLANE_ANGLE_UNIT ( ) SI_UNIT ( $, .RADIAN. ) );
#261 = DIRECTION ( 'NONE',  ( -0.0000000000000000000, -0.0000000000000000000, -1.000000000000000000 ) ) ;
#262 = CARTESIAN_POINT ( 'NONE',  ( -0.2350000000000011524, 0.0000000000000000000, 3.000000000000000444 ) ) ;
#263 = CARTESIAN_POINT ( 'NONE',  ( 0.0000000000000000000, 0.0000000000000000000, 3.000000000000000444 ) ) ;
#264 = ADVANCED_FACE ( 'NONE', ( #223 ), #275, .T. ) ;
#265 = VECTOR ( 'NONE', #27, 39.37007874015748143 ) ;
#266 = DIRECTION ( 'NONE',  ( 0.1736481776669314414, 0.0000000000000000000, 0.9848077530122077983 ) ) ;
#267 =( GEOMETRIC_REPRESENTATION_CONTEXT ( 3 ) GLOBAL_UNCERTAINTY_ASSIGNED_CONTEXT ( ( #42 ) ) GLOBAL_UNIT_ASSIGNED_CONTEXT ( ( #256, #260, #50 ) ) REPRESENTATION_CONTEXT ( 'NONE', 'WORKASPACE' ) );
#268 = DIRECTION ( 'NONE',  ( -1.000000000000000000, 0.0000000000000000000, 0.0000000000000000000 ) ) ;
#269 = EDGE_CURVE ( 'NONE', #5, #98, #255, .T. ) ;
#270 = DIRECTION ( 'NONE',  ( 1.000000000000000000, 0.0000000000000000000, 0.0000000000000000000 ) ) ;
#271 = FILL_AREA_STYLE_COLOUR ( '', #208 ) ;
#272 = AXIS2_PLACEMENT_3D ( 'NONE', #183, #225, #180 ) ;
#273 = DIRECTION ( 'NONE',  ( -1.224646799147353454E-16, -0.0000000000000000000, -1.000000000000000000 ) ) ;
#274 =( NAMED_UNIT ( * ) SI_UNIT ( $, .STERADIAN. ) SOLID_ANGLE_UNIT ( ) );
#275 = PLANE ( 'NONE',  #119 ) ;
#276 = ORIENTED_EDGE ( 'NONE', *, *, #299, .F. ) ;
#277 =( LENGTH_UNIT ( ) NAMED_UNIT ( * ) SI_UNIT ( $, .METRE. ) );
#278 = ORIENTED_EDGE ( 'NONE', *, *, #232, .F. ) ;
#279 = VECTOR ( 'NONE', #13, 39.37007874015748143 ) ;
#280 = CONICAL_SURFACE ( 'NONE', #41, 0.2497500000000000553, 0.1745329251994339470 ) ;
#281 = ADVANCED_FACE ( 'NONE', ( #246 ), #91, .T. ) ;
#282 = LINE ( 'NONE', #169, #221 ) ;
#283 = ORIENTED_EDGE ( 'NONE', *, *, #227, .T. ) ;
#284 = CIRCLE ( 'NONE', #92, 0.2497500000000000553 ) ;
#285 = AXIS2_PLACEMENT_3D ( 'NONE', #15, #243, #106 ) ;
#286 = FACE_OUTER_BOUND ( 'NONE', #210, .T. ) ;
#287 = CARTESIAN_POINT ( 'NONE',  ( 0.2497500000000001941, 0.0000000000000000000, 1.000000000000000000 ) ) ;
#288 = DIRECTION ( 'NONE',  ( -1.000000000000000000, 0.0000000000000000000, 1.224646799147353700E-16 ) ) ;
#289 = AXIS2_PLACEMENT_3D ( 'NONE', #150, #197, #270 ) ;
#290 = PRESENTATION_LAYER_ASSIGNMENT (  '', '', ( #145 ) ) ;
#291 = LINE ( 'NONE', #152, #3 ) ;
#292 = PRODUCT_DEFINITION ( 'UNKNOWN', '', #48, #168 ) ;
#293 = LINE ( 'NONE', #244, #174 ) ;
#294 = PRESENTATION_STYLE_ASSIGNMENT (( #242 ) ) ;
#295 =( NAMED_UNIT ( * ) PLANE_ANGLE_UNIT ( ) SI_UNIT ( $, .RADIAN. ) );
#296 = ORIENTED_EDGE ( 'NONE', *, *, #195, .F. ) ;
#297 = DIRECTION ( 'NONE',  ( 0.0000000000000000000, 0.0000000000000000000, 1.000000000000000000 ) ) ;
#298 = EDGE_LOOP ( 'NONE', ( #72, #26, #249, #90 ) ) ;
#299 = EDGE_CURVE ( 'NONE', #187, #68, #53, .T. ) ;
ENDSEC;
END-ISO-10303-21;
