ISO-10303-21;
HEADER;
FILE_DESCRIPTION (( 'STEP AP214' ),
    '1' );
FILE_NAME ('Micro_SFPM-040-20.STEP',
    '2021-09-02T06:56:42',
    ( '' ),
    ( '' ),
    'SwSTEP 2.0',
    'SolidWorks 2020',
    '' );
FILE_SCHEMA (( 'AUTOMOTIVE_DESIGN' ));
ENDSEC;

DATA;
#1 = ORIENTED_EDGE ( 'NONE', *, *, #184, .T. ) ;
#2 = ORIENTED_EDGE ( 'NONE', *, *, #70, .T. ) ;
#3 = PLANE ( 'NONE',  #110 ) ;
#4 = AXIS2_PLACEMENT_3D ( 'NONE', #241, #108, #192 ) ;
#5 = ORIENTED_EDGE ( 'NONE', *, *, #181, .F. ) ;
#6 = DIMENSIONAL_EXPONENTS ( 1.000000000000000000, 0.0000000000000000000, 0.0000000000000000000, 0.0000000000000000000, 0.0000000000000000000, 0.0000000000000000000, 0.0000000000000000000 ) ;
#7 = SURFACE_STYLE_FILL_AREA ( #212 ) ;
#8 = DIRECTION ( 'NONE',  ( 0.0000000000000000000, 0.0000000000000000000, 1.000000000000000000 ) ) ;
#9 = CIRCLE ( 'NONE', #140, 0.06374000000000125399 ) ;
#10 = ADVANCED_FACE ( 'NONE', ( #160 ), #116, .T. ) ;
#11 = ORIENTED_EDGE ( 'NONE', *, *, #198, .T. ) ;
#12 =( NAMED_UNIT ( * ) SI_UNIT ( $, .STERADIAN. ) SOLID_ANGLE_UNIT ( ) );
#13 = CIRCLE ( 'NONE', #174, 0.07874000000000000443 ) ;
#14 = EDGE_CURVE ( 'NONE', #137, #173, #105, .T. ) ;
#15 = DIRECTION ( 'NONE',  ( 1.000000000000000000, 0.0000000000000000000, 0.0000000000000000000 ) ) ;
#16 = DIRECTION ( 'NONE',  ( -1.224646799147353454E-16, -0.0000000000000000000, -1.000000000000000000 ) ) ;
#17 = DIRECTION ( 'NONE',  ( -1.000000000000000000, 0.0000000000000000000, 0.0000000000000000000 ) ) ;
#18 = DIRECTION ( 'NONE',  ( -1.224646799147353454E-16, -0.0000000000000000000, -1.000000000000000000 ) ) ;
#19 = COLOUR_RGB ( '',0.7921568627450980005, 0.8196078431372548767, 0.9333333333333333481 ) ;
#20 = APPLICATION_CONTEXT ( 'automotive_design' ) ;
#21 = DIRECTION ( 'NONE',  ( -0.0000000000000000000, -0.0000000000000000000, -1.000000000000000000 ) ) ;
#22 = SURFACE_STYLE_USAGE ( .BOTH. , #217 ) ;
#23 = ORIENTED_EDGE ( 'NONE', *, *, #93, .F. ) ;
#24 = DIRECTION ( 'NONE',  ( 0.0000000000000000000, 0.0000000000000000000, 1.000000000000000000 ) ) ;
#25 = ADVANCED_FACE ( 'NONE', ( #175 ), #153, .T. ) ;
#26 = AXIS2_PLACEMENT_3D ( 'NONE', #196, #162, #291 ) ;
#27 = FACE_OUTER_BOUND ( 'NONE', #98, .T. ) ;
#28 = MANIFOLD_SOLID_BREP ( 'Cut-Revolve1', #191 ) ;
#29 = PRESENTATION_STYLE_ASSIGNMENT (( #22 ) ) ;
#30 = ORIENTED_EDGE ( 'NONE', *, *, #161, .F. ) ;
#31 = CARTESIAN_POINT ( 'NONE',  ( -0.07866125999999996898, 0.0000000000000000000, 9.633226027589770864E-18 ) ) ;
#32 = ORIENTED_EDGE ( 'NONE', *, *, #198, .F. ) ;
#33 = CARTESIAN_POINT ( 'NONE',  ( -0.07866125999999989959, 9.638047462038014686E-18, 0.5905510000000000481 ) ) ;
#34 = PRODUCT_RELATED_PRODUCT_CATEGORY ( 'part', '', ( #114 ) ) ;
#35 =( LENGTH_UNIT ( ) NAMED_UNIT ( * ) SI_UNIT ( $, .METRE. ) );
#36 = AXIS2_PLACEMENT_3D ( 'NONE', #199, #18, #194 ) ;
#37 = FACE_OUTER_BOUND ( 'NONE', #75, .T. ) ;
#38 = VERTEX_POINT ( 'NONE', #119 ) ;
#39 = DIMENSIONAL_EXPONENTS ( 1.000000000000000000, 0.0000000000000000000, 0.0000000000000000000, 0.0000000000000000000, 0.0000000000000000000, 0.0000000000000000000, 0.0000000000000000000 ) ;
#40 = FILL_AREA_STYLE_COLOUR ( '', #19 ) ;
#41 = FACE_OUTER_BOUND ( 'NONE', #231, .T. ) ;
#42 = PRODUCT_CONTEXT ( 'NONE', #20, 'mechanical' ) ;
#43 = DIRECTION ( 'NONE',  ( -1.000000000000000000, 0.0000000000000000000, 1.224646799147353454E-16 ) ) ;
#44 = DIRECTION ( 'NONE',  ( 1.000000000000000000, 0.0000000000000000000, 0.0000000000000000000 ) ) ;
#45 = CARTESIAN_POINT ( 'NONE',  ( 0.0000000000000000000, 0.0000000000000000000, 1.574802999999999953 ) ) ;
#46 = SURFACE_STYLE_FILL_AREA ( #220 ) ;
#47 = CARTESIAN_POINT ( 'NONE',  ( 0.0000000000000000000, 0.0000000000000000000, 1.559803000000001383 ) ) ;
#48 = CIRCLE ( 'NONE', #152, 0.07866125999999999674 ) ;
#49 =( LENGTH_UNIT ( ) NAMED_UNIT ( * ) SI_UNIT ( $, .METRE. ) );
#50 = CARTESIAN_POINT ( 'NONE',  ( 0.07874000000000000443, 9.642868896486256968E-18, 1.574802999999999953 ) ) ;
#51 = FACE_OUTER_BOUND ( 'NONE', #201, .T. ) ;
#52 = EDGE_CURVE ( 'NONE', #82, #298, #9, .T. ) ;
#53 = AXIS2_PLACEMENT_3D ( 'NONE', #235, #8, #237 ) ;
#54 = ORIENTED_EDGE ( 'NONE', *, *, #261, .T. ) ;
#55 = ADVANCED_FACE ( 'NONE', ( #66 ), #156, .T. ) ;
#56 = ORIENTED_EDGE ( 'NONE', *, *, #52, .T. ) ;
#57 = CARTESIAN_POINT ( 'NONE',  ( -0.07874000000000000443, 0.0000000000000000000, 1.574802999999999953 ) ) ;
#58 = EDGE_LOOP ( 'NONE', ( #259, #2, #168, #95 ) ) ;
#59 = ORIENTED_EDGE ( 'NONE', *, *, #216, .F. ) ;
#60 = CARTESIAN_POINT ( 'NONE',  ( -0.06374000000000125399, 0.0000000000000000000, 1.574802999999999953 ) ) ;
#61 = ORIENTED_EDGE ( 'NONE', *, *, #113, .T. ) ;
#62 = DIMENSIONAL_EXPONENTS ( 1.000000000000000000, 0.0000000000000000000, 0.0000000000000000000, 0.0000000000000000000, 0.0000000000000000000, 0.0000000000000000000, 0.0000000000000000000 ) ;
#63 = UNCERTAINTY_MEASURE_WITH_UNIT (LENGTH_MEASURE( 1.000000000000000082E-05 ), #102, 'distance_accuracy_value', 'NONE');
#64 = DIRECTION ( 'NONE',  ( 1.000000000000000000, 0.0000000000000000000, -0.0000000000000000000 ) ) ;
#65 = AXIS2_PLACEMENT_3D ( 'NONE', #118, #289, #247 ) ;
#66 = FACE_OUTER_BOUND ( 'NONE', #78, .T. ) ;
#67 = APPLICATION_PROTOCOL_DEFINITION ( 'draft international standard', 'automotive_design', 1998, #227 ) ;
#68 = CARTESIAN_POINT ( 'NONE',  ( 1.179729942015079091E-33, 0.0000000000000000000, 9.633226027589773945E-18 ) ) ;
#69 = PRODUCT_DEFINITION_SHAPE ( 'NONE', 'NONE',  #84 ) ;
#70 = EDGE_CURVE ( 'NONE', #173, #38, #159, .T. ) ;
#71 = CIRCLE ( 'NONE', #288, 0.07866125999999996898 ) ;
#72 = EDGE_CURVE ( 'NONE', #167, #127, #143, .T. ) ;
#73 = ORIENTED_EDGE ( 'NONE', *, *, #72, .T. ) ;
#74 = PRODUCT_DEFINITION_CONTEXT ( 'detailed design', #227, 'design' ) ;
#75 = EDGE_LOOP ( 'NONE', ( #232, #11, #182, #59 ) ) ;
#76 = EDGE_CURVE ( 'NONE', #173, #137, #236, .T. ) ;
#77 = DIRECTION ( 'NONE',  ( 1.000000000000000000, 0.0000000000000000000, 0.0000000000000000000 ) ) ;
#78 = EDGE_LOOP ( 'NONE', ( #32, #149, #275, #164 ) ) ;
#79 = CARTESIAN_POINT ( 'NONE',  ( -0.06374000000000125399, 0.0000000000000000000, 1.574802999999999953 ) ) ;
#80 = VECTOR ( 'NONE', #267, 39.37007874015748143 ) ;
#81 = DIRECTION ( 'NONE',  ( 1.000000000000000000, 0.0000000000000000000, 0.0000000000000000000 ) ) ;
#82 = VERTEX_POINT ( 'NONE', #178 ) ;
#83 =( NAMED_UNIT ( * ) PLANE_ANGLE_UNIT ( ) SI_UNIT ( $, .RADIAN. ) );
#84 = PRODUCT_DEFINITION ( 'UNKNOWN', '', #123, #74 ) ;
#85 = DIRECTION ( 'NONE',  ( -1.000000000000000000, 0.0000000000000000000, 0.0000000000000000000 ) ) ;
#86 = MECHANICAL_DESIGN_GEOMETRIC_PRESENTATION_REPRESENTATION (  '', ( #279 ), #89 ) ;
#87 = CARTESIAN_POINT ( 'NONE',  ( -0.07873999999999993504, 0.0000000000000000000, 0.5909975567304769362 ) ) ;
#88 = DIRECTION ( 'NONE',  ( -1.224646799147353454E-16, -0.0000000000000000000, -1.000000000000000000 ) ) ;
#89 =( GEOMETRIC_REPRESENTATION_CONTEXT ( 3 ) GLOBAL_UNCERTAINTY_ASSIGNED_CONTEXT ( ( #233 ) ) GLOBAL_UNIT_ASSIGNED_CONTEXT ( ( #139, #197, #295 ) ) REPRESENTATION_CONTEXT ( 'NONE', 'WORKASPACE' ) );
#90 = DIRECTION ( 'NONE',  ( 0.1736481776669312749, 0.0000000000000000000, 0.9848077530122077983 ) ) ;
#91 = CYLINDRICAL_SURFACE ( 'NONE', #122, 0.07874000000000000443 ) ;
#92 = CARTESIAN_POINT ( 'NONE',  ( 0.0000000000000000000, 0.0000000000000000000, 1.574802999999999953 ) ) ;
#93 = EDGE_CURVE ( 'NONE', #150, #38, #115, .T. ) ;
#94 = DIRECTION ( 'NONE',  ( 0.0000000000000000000, 0.0000000000000000000, 1.000000000000000000 ) ) ;
#95 = ORIENTED_EDGE ( 'NONE', *, *, #184, .F. ) ;
#96 = COLOUR_RGB ( '',0.7921568627450980005, 0.8196078431372548767, 0.9333333333333333481 ) ;
#97 = ORIENTED_EDGE ( 'NONE', *, *, #72, .F. ) ;
#98 = EDGE_LOOP ( 'NONE', ( #205, #56 ) ) ;
#99 = CARTESIAN_POINT ( 'NONE',  ( 0.0000000000000000000, 0.0000000000000000000, 1.574802999999999953 ) ) ;
#100 = VERTEX_POINT ( 'NONE', #109 ) ;
#101 = ORIENTED_EDGE ( 'NONE', *, *, #141, .T. ) ;
#102 =( CONVERSION_BASED_UNIT ( 'INCH', #264 ) LENGTH_UNIT ( ) NAMED_UNIT ( #39 ) );
#103 = EDGE_CURVE ( 'NONE', #127, #38, #13, .T. ) ;
#104 = DIRECTION ( 'NONE',  ( -1.000000000000000000, 0.0000000000000000000, 1.224646799147353454E-16 ) ) ;
#105 = CIRCLE ( 'NONE', #183, 0.07874000000000000443 ) ;
#106 = SURFACE_SIDE_STYLE ('',( #7 ) ) ;
#107 = SHAPE_DEFINITION_REPRESENTATION ( #69, #269 ) ;
#108 = DIRECTION ( 'NONE',  ( 1.224646799147353454E-16, 0.0000000000000000000, 1.000000000000000000 ) ) ;
#109 = CARTESIAN_POINT ( 'NONE',  ( 0.07866125999999999674, 9.633226027589770864E-18, -1.895600338963814870E-33 ) ) ;
#110 = AXIS2_PLACEMENT_3D ( 'NONE', #223, #24, #121 ) ;
#111 = LENGTH_MEASURE_WITH_UNIT ( LENGTH_MEASURE( 0.02539999999999999897 ), #177 );
#112 = CARTESIAN_POINT ( 'NONE',  ( -0.07874000000000000443, 0.0000000000000000000, 1.559803000000001383 ) ) ;
#113 = EDGE_CURVE ( 'NONE', #38, #127, #252, .T. ) ;
#114 = PRODUCT ( 'Micro_SFPM-040-20', 'Micro_SFPM-040-20', '', ( #42 ) ) ;
#115 = LINE ( 'NONE', #138, #222 ) ;
#116 = CONICAL_SURFACE ( 'NONE', #4, 0.07866125999999996898, 0.1745329251994337805 ) ;
#117 = AXIS2_PLACEMENT_3D ( 'NONE', #187, #281, #77 ) ;
#118 = CARTESIAN_POINT ( 'NONE',  ( 0.0000000000000000000, 0.0000000000000000000, 1.574802999999999953 ) ) ;
#119 = CARTESIAN_POINT ( 'NONE',  ( 0.07874000000000007382, 9.642868896486266213E-18, 0.5909975567304769362 ) ) ;
#120 = CARTESIAN_POINT ( 'NONE',  ( 7.232163918832687459E-17, 0.0000000000000000000, 0.5905510000000000481 ) ) ;
#121 = DIRECTION ( 'NONE',  ( 1.000000000000000000, 0.0000000000000000000, -0.0000000000000000000 ) ) ;
#122 = AXIS2_PLACEMENT_3D ( 'NONE', #92, #21, #17 ) ;
#123 = PRODUCT_DEFINITION_FORMATION_WITH_SPECIFIED_SOURCE ( 'ANY', '', #114, .NOT_KNOWN. ) ;
#124 = ORIENTED_EDGE ( 'NONE', *, *, #113, .F. ) ;
#125 =( NAMED_UNIT ( * ) SI_UNIT ( $, .STERADIAN. ) SOLID_ANGLE_UNIT ( ) );
#126 = EDGE_CURVE ( 'NONE', #167, #150, #170, .T. ) ;
#127 = VERTEX_POINT ( 'NONE', #87 ) ;
#128 = DIRECTION ( 'NONE',  ( -1.224646799147353454E-16, -0.0000000000000000000, -1.000000000000000000 ) ) ;
#129 = ORIENTED_EDGE ( 'NONE', *, *, #126, .T. ) ;
#130 = DIRECTION ( 'NONE',  ( 0.0000000000000000000, 0.0000000000000000000, 1.000000000000000000 ) ) ;
#131 = EDGE_CURVE ( 'NONE', #150, #100, #142, .T. ) ;
#132 = ORIENTED_EDGE ( 'NONE', *, *, #141, .F. ) ;
#133 = DIRECTION ( 'NONE',  ( -1.224646799147353454E-16, -0.0000000000000000000, -1.000000000000000000 ) ) ;
#134 = CYLINDRICAL_SURFACE ( 'NONE', #218, 0.07866125999999996898 ) ;
#135 = AXIS2_PLACEMENT_3D ( 'NONE', #283, #158, #260 ) ;
#136 = DIRECTION ( 'NONE',  ( -0.7071067811865507924, 0.0000000000000000000, -0.7071067811865443531 ) ) ;
#137 = VERTEX_POINT ( 'NONE', #112 ) ;
#138 = CARTESIAN_POINT ( 'NONE',  ( 0.07866126000000003837, 0.0000000000000000000, 0.5905510000000000481 ) ) ;
#139 =( CONVERSION_BASED_UNIT ( 'INCH', #144 ) LENGTH_UNIT ( ) NAMED_UNIT ( #6 ) );
#140 = AXIS2_PLACEMENT_3D ( 'NONE', #45, #94, #221 ) ;
#141 = EDGE_CURVE ( 'NONE', #100, #296, #48, .T. ) ;
#142 = LINE ( 'NONE', #219, #248 ) ;
#143 = LINE ( 'NONE', #293, #203 ) ;
#144 = LENGTH_MEASURE_WITH_UNIT ( LENGTH_MEASURE( 0.02539999999999999897 ), #49 );
#145 = ORIENTED_EDGE ( 'NONE', *, *, #103, .T. ) ;
#146 = LINE ( 'NONE', #31, #179 ) ;
#147 = AXIS2_PLACEMENT_3D ( 'NONE', #242, #171, #85 ) ;
#148 = ORIENTED_EDGE ( 'NONE', *, *, #126, .F. ) ;
#149 = ORIENTED_EDGE ( 'NONE', *, *, #290, .F. ) ;
#150 = VERTEX_POINT ( 'NONE', #271 ) ;
#151 = FACE_OUTER_BOUND ( 'NONE', #58, .T. ) ;
#152 = AXIS2_PLACEMENT_3D ( 'NONE', #68, #292, #225 ) ;
#153 = CYLINDRICAL_SURFACE ( 'NONE', #297, 0.07866125999999996898 ) ;
#154 =( NAMED_UNIT ( * ) PLANE_ANGLE_UNIT ( ) SI_UNIT ( $, .RADIAN. ) );
#155 = ADVANCED_FACE ( 'NONE', ( #51 ), #91, .T. ) ;
#156 = CONICAL_SURFACE ( 'NONE', #65, 0.06374000000000125399, 0.7853981633974528309 ) ;
#157 = ORIENTED_EDGE ( 'NONE', *, *, #93, .T. ) ;
#158 = DIRECTION ( 'NONE',  ( 1.224646799147353454E-16, 0.0000000000000000000, 1.000000000000000000 ) ) ;
#159 = LINE ( 'NONE', #50, #80 ) ;
#160 = FACE_OUTER_BOUND ( 'NONE', #277, .T. ) ;
#161 = EDGE_CURVE ( 'NONE', #150, #167, #71, .T. ) ;
#162 = DIRECTION ( 'NONE',  ( -1.224646799147353454E-16, -0.0000000000000000000, -1.000000000000000000 ) ) ;
#163 = CONICAL_SURFACE ( 'NONE', #195, 0.06374000000000125399, 0.7853981633974528309 ) ;
#164 = ORIENTED_EDGE ( 'NONE', *, *, #76, .F. ) ;
#165 = DIRECTION ( 'NONE',  ( 0.0000000000000000000, 0.0000000000000000000, -1.000000000000000000 ) ) ;
#166 = ADVANCED_FACE ( 'NONE', ( #37 ), #163, .T. ) ;
#167 = VERTEX_POINT ( 'NONE', #33 ) ;
#168 = ORIENTED_EDGE ( 'NONE', *, *, #103, .F. ) ;
#169 = ORIENTED_EDGE ( 'NONE', *, *, #131, .F. ) ;
#170 = CIRCLE ( 'NONE', #26, 0.07866125999999996898 ) ;
#171 = DIRECTION ( 'NONE',  ( -0.0000000000000000000, -0.0000000000000000000, -1.000000000000000000 ) ) ;
#172 = PRESENTATION_STYLE_ASSIGNMENT (( #189 ) ) ;
#173 = VERTEX_POINT ( 'NONE', #256 ) ;
#174 = AXIS2_PLACEMENT_3D ( 'NONE', #180, #88, #15 ) ;
#175 = FACE_OUTER_BOUND ( 'NONE', #226, .T. ) ;
#176 = UNCERTAINTY_MEASURE_WITH_UNIT (LENGTH_MEASURE( 1.000000000000000082E-05 ), #211, 'distance_accuracy_value', 'NONE');
#177 =( LENGTH_UNIT ( ) NAMED_UNIT ( * ) SI_UNIT ( $, .METRE. ) );
#178 = CARTESIAN_POINT ( 'NONE',  ( 0.06374000000000125399, 8.724383797125819593E-18, 1.574802999999999953 ) ) ;
#179 = VECTOR ( 'NONE', #128, 39.37007874015748143 ) ;
#180 = CARTESIAN_POINT ( 'NONE',  ( 7.237632661538848958E-17, 0.0000000000000000000, 0.5909975567304769362 ) ) ;
#181 = EDGE_CURVE ( 'NONE', #167, #296, #146, .T. ) ;
#182 = ORIENTED_EDGE ( 'NONE', *, *, #14, .F. ) ;
#183 = AXIS2_PLACEMENT_3D ( 'NONE', #287, #209, #81 ) ;
#184 = EDGE_CURVE ( 'NONE', #137, #127, #207, .T. ) ;
#185 = DIRECTION ( 'NONE',  ( 0.7071067811865507924, 8.659560562354973534E-17, -0.7071067811865443531 ) ) ;
#186 = ORIENTED_EDGE ( 'NONE', *, *, #131, .T. ) ;
#187 = CARTESIAN_POINT ( 'NONE',  ( 0.0000000000000000000, 0.0000000000000000000, 0.0000000000000000000 ) ) ;
#188 = AXIS2_PLACEMENT_3D ( 'NONE', #99, #130, #64 ) ;
#189 = SURFACE_STYLE_USAGE ( .BOTH. , #106 ) ;
#190 = CYLINDRICAL_SURFACE ( 'NONE', #147, 0.07874000000000000443 ) ;
#191 = CLOSED_SHELL ( 'NONE', ( #286, #238, #166, #224, #155, #210, #55, #10, #25, #193 ) ) ;
#192 = DIRECTION ( 'NONE',  ( 1.000000000000000000, 0.0000000000000000000, 0.0000000000000000000 ) ) ;
#193 = ADVANCED_FACE ( 'NONE', ( #206 ), #3, .F. ) ;
#194 = DIRECTION ( 'NONE',  ( 1.000000000000000000, 0.0000000000000000000, 0.0000000000000000000 ) ) ;
#195 = AXIS2_PLACEMENT_3D ( 'NONE', #228, #165, #200 ) ;
#196 = CARTESIAN_POINT ( 'NONE',  ( 7.232163918832687459E-17, 0.0000000000000000000, 0.5905510000000000481 ) ) ;
#197 =( NAMED_UNIT ( * ) PLANE_ANGLE_UNIT ( ) SI_UNIT ( $, .RADIAN. ) );
#198 = EDGE_CURVE ( 'NONE', #82, #173, #202, .T. ) ;
#199 = CARTESIAN_POINT ( 'NONE',  ( 7.237632661538848958E-17, 0.0000000000000000000, 0.5909975567304769362 ) ) ;
#200 = DIRECTION ( 'NONE',  ( -1.000000000000000000, 0.0000000000000000000, 0.0000000000000000000 ) ) ;
#201 = EDGE_LOOP ( 'NONE', ( #282, #234, #1, #124 ) ) ;
#202 = LINE ( 'NONE', #299, #273 ) ;
#203 = VECTOR ( 'NONE', #268, 39.37007874015748854 ) ;
#204 = PLANE ( 'NONE',  #188 ) ;
#205 = ORIENTED_EDGE ( 'NONE', *, *, #290, .T. ) ;
#206 = FACE_OUTER_BOUND ( 'NONE', #253, .T. ) ;
#207 = LINE ( 'NONE', #57, #274 ) ;
#208 =( GEOMETRIC_REPRESENTATION_CONTEXT ( 3 ) GLOBAL_UNCERTAINTY_ASSIGNED_CONTEXT ( ( #176 ) ) GLOBAL_UNIT_ASSIGNED_CONTEXT ( ( #211, #154, #125 ) ) REPRESENTATION_CONTEXT ( 'NONE', 'WORKASPACE' ) );
#209 = DIRECTION ( 'NONE',  ( 0.0000000000000000000, 0.0000000000000000000, -1.000000000000000000 ) ) ;
#210 = ADVANCED_FACE ( 'NONE', ( #27 ), #204, .T. ) ;
#211 =( CONVERSION_BASED_UNIT ( 'INCH', #111 ) LENGTH_UNIT ( ) NAMED_UNIT ( #62 ) );
#212 = FILL_AREA_STYLE ('',( #40 ) ) ;
#213 = CARTESIAN_POINT ( 'NONE',  ( 0.0000000000000000000, 0.0000000000000000000, 0.0000000000000000000 ) ) ;
#214 = CIRCLE ( 'NONE', #294, 0.07866125999999999674 ) ;
#215 = DIRECTION ( 'NONE',  ( -1.224646799147353454E-16, -0.0000000000000000000, -1.000000000000000000 ) ) ;
#216 = EDGE_CURVE ( 'NONE', #298, #137, #244, .T. ) ;
#217 = SURFACE_SIDE_STYLE ('',( #46 ) ) ;
#218 = AXIS2_PLACEMENT_3D ( 'NONE', #213, #133, #43 ) ;
#219 = CARTESIAN_POINT ( 'NONE',  ( 0.07866125999999996898, 9.633226027589769323E-18, -9.633226027589770864E-18 ) ) ;
#220 = FILL_AREA_STYLE ('',( #272 ) ) ;
#221 = DIRECTION ( 'NONE',  ( 1.000000000000000000, 0.0000000000000000000, 0.0000000000000000000 ) ) ;
#222 = VECTOR ( 'NONE', #90, 39.37007874015748143 ) ;
#223 = CARTESIAN_POINT ( 'NONE',  ( 0.0000000000000000000, 0.0000000000000000000, 0.0000000000000000000 ) ) ;
#224 = ADVANCED_FACE ( 'NONE', ( #151 ), #190, .T. ) ;
#225 = DIRECTION ( 'NONE',  ( -1.000000000000000000, 0.0000000000000000000, 1.224646799147353454E-16 ) ) ;
#226 = EDGE_LOOP ( 'NONE', ( #169, #255, #257, #132 ) ) ;
#227 = APPLICATION_CONTEXT ( 'automotive_design' ) ;
#228 = CARTESIAN_POINT ( 'NONE',  ( 0.0000000000000000000, 0.0000000000000000000, 1.574802999999999953 ) ) ;
#229 = VECTOR ( 'NONE', #136, 39.37007874015748143 ) ;
#230 = STYLED_ITEM ( 'NONE', ( #29 ), #269 ) ;
#231 = EDGE_LOOP ( 'NONE', ( #129, #186, #284, #5 ) ) ;
#232 = ORIENTED_EDGE ( 'NONE', *, *, #52, .F. ) ;
#233 = UNCERTAINTY_MEASURE_WITH_UNIT (LENGTH_MEASURE( 1.000000000000000082E-05 ), #139, 'distance_accuracy_value', 'NONE');
#234 = ORIENTED_EDGE ( 'NONE', *, *, #76, .T. ) ;
#235 = CARTESIAN_POINT ( 'NONE',  ( 0.0000000000000000000, 0.0000000000000000000, 1.574802999999999953 ) ) ;
#236 = CIRCLE ( 'NONE', #243, 0.07874000000000000443 ) ;
#237 = DIRECTION ( 'NONE',  ( 1.000000000000000000, 0.0000000000000000000, 0.0000000000000000000 ) ) ;
#238 = ADVANCED_FACE ( 'NONE', ( #285 ), #258, .T. ) ;
#239 = DIRECTION ( 'NONE',  ( -1.000000000000000000, 0.0000000000000000000, 1.224646799147353454E-16 ) ) ;
#240 = CARTESIAN_POINT ( 'NONE',  ( 1.179729942015079091E-33, 0.0000000000000000000, 9.633226027589773945E-18 ) ) ;
#241 = CARTESIAN_POINT ( 'NONE',  ( 7.232163918832687459E-17, 0.0000000000000000000, 0.5905510000000000481 ) ) ;
#242 = CARTESIAN_POINT ( 'NONE',  ( 0.0000000000000000000, 0.0000000000000000000, 1.574802999999999953 ) ) ;
#243 = AXIS2_PLACEMENT_3D ( 'NONE', #47, #245, #44 ) ;
#244 = LINE ( 'NONE', #60, #229 ) ;
#245 = DIRECTION ( 'NONE',  ( 0.0000000000000000000, 0.0000000000000000000, -1.000000000000000000 ) ) ;
#246 = CARTESIAN_POINT ( 'NONE',  ( 0.0000000000000000000, 0.0000000000000000000, 0.0000000000000000000 ) ) ;
#247 = DIRECTION ( 'NONE',  ( -1.000000000000000000, 0.0000000000000000000, 0.0000000000000000000 ) ) ;
#248 = VECTOR ( 'NONE', #16, 39.37007874015748143 ) ;
#249 = CIRCLE ( 'NONE', #53, 0.06374000000000125399 ) ;
#250 = APPLICATION_PROTOCOL_DEFINITION ( 'draft international standard', 'automotive_design', 1998, #20 ) ;
#251 = DIRECTION ( 'NONE',  ( -1.224646799147353454E-16, -0.0000000000000000000, -1.000000000000000000 ) ) ;
#252 = CIRCLE ( 'NONE', #36, 0.07874000000000000443 ) ;
#253 = EDGE_LOOP ( 'NONE', ( #54, #101 ) ) ;
#254 = DIRECTION ( 'NONE',  ( -0.0000000000000000000, -0.0000000000000000000, -1.000000000000000000 ) ) ;
#255 = ORIENTED_EDGE ( 'NONE', *, *, #161, .T. ) ;
#256 = CARTESIAN_POINT ( 'NONE',  ( 0.07874000000000000443, 9.642868896486256968E-18, 1.559803000000001383 ) ) ;
#257 = ORIENTED_EDGE ( 'NONE', *, *, #181, .T. ) ;
#258 = CONICAL_SURFACE ( 'NONE', #135, 0.07866125999999996898, 0.1745329251994337805 ) ;
#259 = ORIENTED_EDGE ( 'NONE', *, *, #14, .T. ) ;
#260 = DIRECTION ( 'NONE',  ( 1.000000000000000000, 0.0000000000000000000, 0.0000000000000000000 ) ) ;
#261 = EDGE_CURVE ( 'NONE', #296, #100, #214, .T. ) ;
#262 = PRESENTATION_LAYER_ASSIGNMENT (  '', '', ( #279 ) ) ;
#263 = CARTESIAN_POINT ( 'NONE',  ( -0.07866125999999999674, 0.0000000000000000000, 1.926645205517954789E-17 ) ) ;
#264 = LENGTH_MEASURE_WITH_UNIT ( LENGTH_MEASURE( 0.02539999999999999897 ), #35 );
#265 =( GEOMETRIC_REPRESENTATION_CONTEXT ( 3 ) GLOBAL_UNCERTAINTY_ASSIGNED_CONTEXT ( ( #63 ) ) GLOBAL_UNIT_ASSIGNED_CONTEXT ( ( #102, #83, #12 ) ) REPRESENTATION_CONTEXT ( 'NONE', 'WORKASPACE' ) );
#266 = DIRECTION ( 'NONE',  ( -1.224646799147353454E-16, -0.0000000000000000000, -1.000000000000000000 ) ) ;
#267 = DIRECTION ( 'NONE',  ( -0.0000000000000000000, -0.0000000000000000000, -1.000000000000000000 ) ) ;
#268 = DIRECTION ( 'NONE',  ( -0.1736481776669310528, 2.126576849575781776E-17, 0.9848077530122080203 ) ) ;
#269 = ADVANCED_BREP_SHAPE_REPRESENTATION ( 'Micro_SFPM-040-20', ( #28, #117 ), #265 ) ;
#270 = MECHANICAL_DESIGN_GEOMETRIC_PRESENTATION_REPRESENTATION (  '', ( #230 ), #208 ) ;
#271 = CARTESIAN_POINT ( 'NONE',  ( 0.07866126000000003837, 0.0000000000000000000, 0.5905510000000000481 ) ) ;
#272 = FILL_AREA_STYLE_COLOUR ( '', #96 ) ;
#273 = VECTOR ( 'NONE', #185, 39.37007874015748143 ) ;
#274 = VECTOR ( 'NONE', #254, 39.37007874015748143 ) ;
#275 = ORIENTED_EDGE ( 'NONE', *, *, #216, .T. ) ;
#276 = DIRECTION ( 'NONE',  ( -1.000000000000000000, 0.0000000000000000000, 0.0000000000000000000 ) ) ;
#277 = EDGE_LOOP ( 'NONE', ( #97, #30, #157, #61 ) ) ;
#278 = EDGE_LOOP ( 'NONE', ( #148, #73, #145, #23 ) ) ;
#279 = STYLED_ITEM ( 'NONE', ( #172 ), #28 ) ;
#280 = PRESENTATION_LAYER_ASSIGNMENT (  '', '', ( #230 ) ) ;
#281 = DIRECTION ( 'NONE',  ( 0.0000000000000000000, 0.0000000000000000000, 1.000000000000000000 ) ) ;
#282 = ORIENTED_EDGE ( 'NONE', *, *, #70, .F. ) ;
#283 = CARTESIAN_POINT ( 'NONE',  ( 7.232163918832687459E-17, 0.0000000000000000000, 0.5905510000000000481 ) ) ;
#284 = ORIENTED_EDGE ( 'NONE', *, *, #261, .F. ) ;
#285 = FACE_OUTER_BOUND ( 'NONE', #278, .T. ) ;
#286 = ADVANCED_FACE ( 'NONE', ( #41 ), #134, .T. ) ;
#287 = CARTESIAN_POINT ( 'NONE',  ( 0.0000000000000000000, 0.0000000000000000000, 1.559803000000001383 ) ) ;
#288 = AXIS2_PLACEMENT_3D ( 'NONE', #120, #251, #276 ) ;
#289 = DIRECTION ( 'NONE',  ( 0.0000000000000000000, 0.0000000000000000000, -1.000000000000000000 ) ) ;
#290 = EDGE_CURVE ( 'NONE', #298, #82, #249, .T. ) ;
#291 = DIRECTION ( 'NONE',  ( -1.000000000000000000, 0.0000000000000000000, 0.0000000000000000000 ) ) ;
#292 = DIRECTION ( 'NONE',  ( -1.224646799147353454E-16, -0.0000000000000000000, -1.000000000000000000 ) ) ;
#293 = CARTESIAN_POINT ( 'NONE',  ( -0.07866125999999989959, 9.633226027589769323E-18, 0.5905510000000000481 ) ) ;
#294 = AXIS2_PLACEMENT_3D ( 'NONE', #240, #215, #104 ) ;
#295 =( NAMED_UNIT ( * ) SI_UNIT ( $, .STERADIAN. ) SOLID_ANGLE_UNIT ( ) );
#296 = VERTEX_POINT ( 'NONE', #263 ) ;
#297 = AXIS2_PLACEMENT_3D ( 'NONE', #246, #266, #239 ) ;
#298 = VERTEX_POINT ( 'NONE', #79 ) ;
#299 = CARTESIAN_POINT ( 'NONE',  ( 0.06374000000000125399, 7.805898697765382218E-18, 1.574802999999999953 ) ) ;
ENDSEC;
END-ISO-10303-21;
