ISO-10303-21;
HEADER;
FILE_DESCRIPTION (( 'STEP AP214' ),
    '1' );
FILE_NAME ('82945.STEP',
    '2023-06-23T07:17:58',
    ( '' ),
    ( '' ),
    'SwSTEP 2.0',
    'SolidWorks 2023',
    '' );
FILE_SCHEMA (( 'AUTOMOTIVE_DESIGN' ));
ENDSEC;

DATA;
#1 = CYLINDRICAL_SURFACE ( 'NONE', #271, 0.2499999999999998612 ) ;
#2 = STYLED_ITEM ( 'NONE', ( #240 ), #102 ) ;
#3 = PRESENTATION_LAYER_ASSIGNMENT (  '', '', ( #105 ) ) ;
#4 =( LENGTH_UNIT ( ) NAMED_UNIT ( * ) SI_UNIT ( $, .METRE. ) );
#5 = FILL_AREA_STYLE_COLOUR ( '', #149 ) ;
#6 = EDGE_CURVE ( 'NONE', #256, #301, #229, .T. ) ;
#7 = DIRECTION ( 'NONE',  ( 7.257166217169504641E-17, 1.000000000000000000, -0.000000000000000000 ) ) ;
#8 = PRODUCT_DEFINITION_SHAPE ( 'NONE', 'NONE',  #233 ) ;
#9 = SHAPE_DEFINITION_REPRESENTATION ( #8, #276 ) ;
#10 = PRODUCT_RELATED_PRODUCT_CATEGORY ( 'part', '', ( #40 ) ) ;
#11 = ORIENTED_EDGE ( 'NONE', *, *, #253, .T. ) ;
#12 = DIRECTION ( 'NONE',  ( 0.000000000000000000, 0.000000000000000000, 1.000000000000000000 ) ) ;
#13 = ORIENTED_EDGE ( 'NONE', *, *, #188, .F. ) ;
#14 = ORIENTED_EDGE ( 'NONE', *, *, #6, .F. ) ;
#15 = LENGTH_MEASURE_WITH_UNIT ( LENGTH_MEASURE( 0.02539999999999999897 ), #302 );
#16 = VERTEX_POINT ( 'NONE', #47 ) ;
#17 = FILL_AREA_STYLE ('',( #125 ) ) ;
#18 = ORIENTED_EDGE ( 'NONE', *, *, #152, .T. ) ;
#19 = UNCERTAINTY_MEASURE_WITH_UNIT (LENGTH_MEASURE( 1.000000000000000082E-05 ), #180, 'distance_accuracy_value', 'NONE');
#20 = CARTESIAN_POINT ( 'NONE',  ( -0.2499999999999995282, 4.000000000000000000, 0.000000000000000000 ) ) ;
#21 = CARTESIAN_POINT ( 'NONE',  ( 0.000000000000000000, 0.6250000000000000000, -0.2500000000000000000 ) ) ;
#22 = STYLED_ITEM ( 'NONE', ( #108 ), #214 ) ;
#23 = SURFACE_STYLE_FILL_AREA ( #167 ) ;
#24 = DIMENSIONAL_EXPONENTS ( 1.000000000000000000, 0.000000000000000000, 0.000000000000000000, 0.000000000000000000, 0.000000000000000000, 0.000000000000000000, 0.000000000000000000 ) ;
#25 = SURFACE_STYLE_FILL_AREA ( #17 ) ;
#26 = CARTESIAN_POINT ( 'NONE',  ( 0.2500000000000000000, 0.6250000000000000000, 3.061616997868382402E-17 ) ) ;
#27 = UNCERTAINTY_MEASURE_WITH_UNIT (LENGTH_MEASURE( 1.000000000000000082E-05 ), #146, 'distance_accuracy_value', 'NONE');
#28 = LENGTH_MEASURE_WITH_UNIT ( LENGTH_MEASURE( 0.02539999999999999897 ), #4 );
#29 = SURFACE_STYLE_USAGE ( .BOTH. , #135 ) ;
#30 = PRODUCT_DEFINITION_FORMATION_WITH_SPECIFIED_SOURCE ( 'ANY', '', #40, .NOT_KNOWN. ) ;
#31 = APPLICATION_PROTOCOL_DEFINITION ( 'draft international standard', 'automotive_design', 1998, #157 ) ;
#32 = SURFACE_STYLE_USAGE ( .BOTH. , #221 ) ;
#33 = CARTESIAN_POINT ( 'NONE',  ( 0.2500000000000000000, 4.000000000000000000, 3.061616997868382402E-17 ) ) ;
#34 = PRESENTATION_STYLE_ASSIGNMENT (( #29 ) ) ;
#35 = DIMENSIONAL_EXPONENTS ( 1.000000000000000000, 0.000000000000000000, 0.000000000000000000, 0.000000000000000000, 0.000000000000000000, 0.000000000000000000, 0.000000000000000000 ) ;
#36 = COLOUR_RGB ( '',1.000000000000000000, 0.000000000000000000, 0.000000000000000000 ) ;
#37 = EDGE_CURVE ( 'NONE', #93, #277, #101, .T. ) ;
#38 = AXIS2_PLACEMENT_3D ( 'NONE', #278, #147, #77 ) ;
#39 = ORIENTED_EDGE ( 'NONE', *, *, #188, .T. ) ;
#40 = PRODUCT ( '82945', '82945', '', ( #177 ) ) ;
#41 = CARTESIAN_POINT ( 'NONE',  ( 0.000000000000000000, 0.000000000000000000, 0.000000000000000000 ) ) ;
#42 =( GEOMETRIC_REPRESENTATION_CONTEXT ( 3 ) GLOBAL_UNCERTAINTY_ASSIGNED_CONTEXT ( ( #27 ) ) GLOBAL_UNIT_ASSIGNED_CONTEXT ( ( #146, #238, #104 ) ) REPRESENTATION_CONTEXT ( 'NONE', 'WORKASPACE' ) );
#43 = AXIS2_PLACEMENT_3D ( 'NONE', #73, #237, #144 ) ;
#44 =( NAMED_UNIT ( * ) PLANE_ANGLE_UNIT ( ) SI_UNIT ( $, .RADIAN. ) );
#45 = ORIENTED_EDGE ( 'NONE', *, *, #253, .F. ) ;
#46 = FACE_OUTER_BOUND ( 'NONE', #227, .T. ) ;
#47 = CARTESIAN_POINT ( 'NONE',  ( 3.061616997868383018E-17, 0.000000000000000000, 0.2500000000000000000 ) ) ;
#48 = DIRECTION ( 'NONE',  ( -0.000000000000000000, -1.000000000000000000, -0.000000000000000000 ) ) ;
#49 =( LENGTH_UNIT ( ) NAMED_UNIT ( * ) SI_UNIT ( $, .METRE. ) );
#50 =( GEOMETRIC_REPRESENTATION_CONTEXT ( 3 ) GLOBAL_UNCERTAINTY_ASSIGNED_CONTEXT ( ( #19 ) ) GLOBAL_UNIT_ASSIGNED_CONTEXT ( ( #180, #44, #224 ) ) REPRESENTATION_CONTEXT ( 'NONE', 'WORKASPACE' ) );
#51 = CYLINDRICAL_SURFACE ( 'NONE', #110, 0.2499999999999998612 ) ;
#52 =( LENGTH_UNIT ( ) NAMED_UNIT ( * ) SI_UNIT ( $, .METRE. ) );
#53 = UNCERTAINTY_MEASURE_WITH_UNIT (LENGTH_MEASURE( 1.000000000000000082E-05 ), #187, 'distance_accuracy_value', 'NONE');
#54 = SURFACE_SIDE_STYLE ('',( #23 ) ) ;
#55 = PRESENTATION_LAYER_ASSIGNMENT (  '', '', ( #22 ) ) ;
#56 = DIRECTION ( 'NONE',  ( -1.000000000000000000, 0.000000000000000000, 0.000000000000000000 ) ) ;
#57 = DIRECTION ( 'NONE',  ( -1.000000000000000000, 0.000000000000000000, 0.000000000000000000 ) ) ;
#58 = SURFACE_STYLE_FILL_AREA ( #107 ) ;
#59 = CIRCLE ( 'NONE', #38, 0.2500000000000000000 ) ;
#60 = FACE_OUTER_BOUND ( 'NONE', #273, .T. ) ;
#61 =( NAMED_UNIT ( * ) SI_UNIT ( $, .STERADIAN. ) SOLID_ANGLE_UNIT ( ) );
#62 = ADVANCED_FACE ( 'NONE', ( #241 ), #283, .F. ) ;
#63 = ORIENTED_EDGE ( 'NONE', *, *, #37, .F. ) ;
#64 =( NAMED_UNIT ( * ) SI_UNIT ( $, .STERADIAN. ) SOLID_ANGLE_UNIT ( ) );
#65 = AXIS2_PLACEMENT_3D ( 'NONE', #81, #103, #258 ) ;
#66 = AXIS2_PLACEMENT_3D ( 'NONE', #291, #172, #197 ) ;
#67 = ORIENTED_EDGE ( 'NONE', *, *, #208, .T. ) ;
#68 = VERTEX_POINT ( 'NONE', #26 ) ;
#69 = EDGE_LOOP ( 'NONE', ( #67, #11, #72, #14 ) ) ;
#70 = CIRCLE ( 'NONE', #203, 0.2499999999999997502 ) ;
#71 = SURFACE_STYLE_FILL_AREA ( #304 ) ;
#72 = ORIENTED_EDGE ( 'NONE', *, *, #174, .F. ) ;
#73 = CARTESIAN_POINT ( 'NONE',  ( 0.000000000000000000, 0.000000000000000000, 0.000000000000000000 ) ) ;
#74 = EDGE_CURVE ( 'NONE', #16, #277, #245, .T. ) ;
#75 =( NAMED_UNIT ( * ) SI_UNIT ( $, .STERADIAN. ) SOLID_ANGLE_UNIT ( ) );
#76 = DIRECTION ( 'NONE',  ( -0.000000000000000000, -1.000000000000000000, -0.000000000000000000 ) ) ;
#77 = DIRECTION ( 'NONE',  ( 0.000000000000000000, 0.000000000000000000, -1.000000000000000000 ) ) ;
#78 = AXIS2_PLACEMENT_3D ( 'NONE', #248, #83, #56 ) ;
#79 = CARTESIAN_POINT ( 'NONE',  ( 0.000000000000000000, 0.6250000000000000000, 0.000000000000000000 ) ) ;
#80 = PLANE ( 'NONE',  #160 ) ;
#81 = CARTESIAN_POINT ( 'NONE',  ( 6.583307687953293086E-34, 0.6250000000000000000, 0.000000000000000000 ) ) ;
#82 = DIRECTION ( 'NONE',  ( 0.000000000000000000, 1.000000000000000000, 0.000000000000000000 ) ) ;
#83 = DIRECTION ( 'NONE',  ( 7.257166217169504641E-17, 1.000000000000000000, -0.000000000000000000 ) ) ;
#84 = MECHANICAL_DESIGN_GEOMETRIC_PRESENTATION_REPRESENTATION (  '', ( #2 ), #168 ) ;
#85 = STYLED_ITEM ( 'NONE', ( #186 ), #243 ) ;
#86 = CARTESIAN_POINT ( 'NONE',  ( 3.061616997868383018E-17, 0.6250000000000000000, 0.2500000000000000000 ) ) ;
#87 = UNCERTAINTY_MEASURE_WITH_UNIT (LENGTH_MEASURE( 1.000000000000000082E-05 ), #179, 'distance_accuracy_value', 'NONE');
#88 =( NAMED_UNIT ( * ) PLANE_ANGLE_UNIT ( ) SI_UNIT ( $, .RADIAN. ) );
#89 = FACE_OUTER_BOUND ( 'NONE', #254, .T. ) ;
#90 = DIRECTION ( 'NONE',  ( 1.000000000000000000, 0.000000000000000000, 0.000000000000000000 ) ) ;
#91 = PRESENTATION_STYLE_ASSIGNMENT (( #165 ) ) ;
#92 =( GEOMETRIC_REPRESENTATION_CONTEXT ( 3 ) GLOBAL_UNCERTAINTY_ASSIGNED_CONTEXT ( ( #155 ) ) GLOBAL_UNIT_ASSIGNED_CONTEXT ( ( #95, #269, #75 ) ) REPRESENTATION_CONTEXT ( 'NONE', 'WORKASPACE' ) );
#93 = VERTEX_POINT ( 'NONE', #21 ) ;
#94 = CIRCLE ( 'NONE', #219, 0.2500000000000000000 ) ;
#95 =( CONVERSION_BASED_UNIT ( 'INCH', #121 ) LENGTH_UNIT ( ) NAMED_UNIT ( #295 ) );
#96 = EDGE_CURVE ( 'NONE', #182, #16, #128, .T. ) ;
#97 =( NAMED_UNIT ( * ) SI_UNIT ( $, .STERADIAN. ) SOLID_ANGLE_UNIT ( ) );
#98 = UNCERTAINTY_MEASURE_WITH_UNIT (LENGTH_MEASURE( 1.000000000000000082E-05 ), #211, 'distance_accuracy_value', 'NONE');
#99 = SURFACE_SIDE_STYLE ('',( #25 ) ) ;
#100 = CARTESIAN_POINT ( 'NONE',  ( 0.000000000000000000, 0.000000000000000000, 0.000000000000000000 ) ) ;
#101 = LINE ( 'NONE', #242, #307 ) ;
#102 = ADVANCED_FACE ( 'NONE', ( #212 ), #235, .T. ) ;
#103 = DIRECTION ( 'NONE',  ( 7.257166217169504641E-17, 1.000000000000000000, -0.000000000000000000 ) ) ;
#104 =( NAMED_UNIT ( * ) SI_UNIT ( $, .STERADIAN. ) SOLID_ANGLE_UNIT ( ) );
#105 = STYLED_ITEM ( 'NONE', ( #34 ), #162 ) ;
#106 = APPLICATION_CONTEXT ( 'automotive_design' ) ;
#107 = FILL_AREA_STYLE ('',( #5 ) ) ;
#108 = PRESENTATION_STYLE_ASSIGNMENT (( #32 ) ) ;
#109 = APPLICATION_PROTOCOL_DEFINITION ( 'draft international standard', 'automotive_design', 1998, #106 ) ;
#110 = AXIS2_PLACEMENT_3D ( 'NONE', #267, #198, #244 ) ;
#111 = AXIS2_PLACEMENT_3D ( 'NONE', #131, #218, #175 ) ;
#112 = DIRECTION ( 'NONE',  ( 0.000000000000000000, 0.000000000000000000, -1.000000000000000000 ) ) ;
#113 = VECTOR ( 'NONE', #76, 39.37007874015748143 ) ;
#114 = CIRCLE ( 'NONE', #78, 0.2500000000000000000 ) ;
#115 = CARTESIAN_POINT ( 'NONE',  ( -0.2499999999999996114, 4.000000000000000000, 0.000000000000000000 ) ) ;
#116 = MANIFOLD_SOLID_BREP ( 'Revolve - Tool Body (Straight Shanked)', #260 ) ;
#117 = ADVANCED_FACE ( 'NONE', ( #89 ), #51, .T. ) ;
#118 =( LENGTH_UNIT ( ) NAMED_UNIT ( * ) SI_UNIT ( $, .METRE. ) );
#119 = EDGE_LOOP ( 'NONE', ( #202, #204, #163, #63 ) ) ;
#120 = MECHANICAL_DESIGN_GEOMETRIC_PRESENTATION_REPRESENTATION (  '', ( #213 ), #42 ) ;
#121 = LENGTH_MEASURE_WITH_UNIT ( LENGTH_MEASURE( 0.02539999999999999897 ), #251 );
#122 =( NAMED_UNIT ( * ) PLANE_ANGLE_UNIT ( ) SI_UNIT ( $, .RADIAN. ) );
#123 = LINE ( 'NONE', #239, #132 ) ;
#124 = DIRECTION ( 'NONE',  ( -0.000000000000000000, -1.000000000000000000, -0.000000000000000000 ) ) ;
#125 = FILL_AREA_STYLE_COLOUR ( '', #207 ) ;
#126 = SURFACE_STYLE_USAGE ( .BOTH. , #265 ) ;
#127 = MECHANICAL_DESIGN_GEOMETRIC_PRESENTATION_REPRESENTATION (  '', ( #85 ), #294 ) ;
#128 = LINE ( 'NONE', #148, #113 ) ;
#129 = DIRECTION ( 'NONE',  ( -0.000000000000000000, -1.000000000000000000, -0.000000000000000000 ) ) ;
#130 = VECTOR ( 'NONE', #285, 39.37007874015748143 ) ;
#131 = CARTESIAN_POINT ( 'NONE',  ( 0.000000000000000000, 0.000000000000000000, 0.000000000000000000 ) ) ;
#132 = VECTOR ( 'NONE', #287, 39.37007874015748143 ) ;
#133 = FILL_AREA_STYLE ('',( #134 ) ) ;
#134 = FILL_AREA_STYLE_COLOUR ( '', #281 ) ;
#135 = SURFACE_SIDE_STYLE ('',( #250 ) ) ;
#136 = CLOSED_SHELL ( 'NONE', ( #214, #102, #243, #162 ) ) ;
#137 =( GEOMETRIC_REPRESENTATION_CONTEXT ( 3 ) GLOBAL_UNCERTAINTY_ASSIGNED_CONTEXT ( ( #178 ) ) GLOBAL_UNIT_ASSIGNED_CONTEXT ( ( #299, #88, #61 ) ) REPRESENTATION_CONTEXT ( 'NONE', 'WORKASPACE' ) );
#138 = LENGTH_MEASURE_WITH_UNIT ( LENGTH_MEASURE( 0.02539999999999999897 ), #52 );
#139 = ORIENTED_EDGE ( 'NONE', *, *, #74, .T. ) ;
#140 = SURFACE_SIDE_STYLE ('',( #71 ) ) ;
#141 = PRESENTATION_LAYER_ASSIGNMENT (  '', '', ( #213 ) ) ;
#142 =( GEOMETRIC_REPRESENTATION_CONTEXT ( 3 ) GLOBAL_UNCERTAINTY_ASSIGNED_CONTEXT ( ( #87 ) ) GLOBAL_UNIT_ASSIGNED_CONTEXT ( ( #179, #158, #64 ) ) REPRESENTATION_CONTEXT ( 'NONE', 'WORKASPACE' ) );
#143 = ORIENTED_EDGE ( 'NONE', *, *, #200, .F. ) ;
#144 = DIRECTION ( 'NONE',  ( 0.000000000000000000, 0.000000000000000000, -1.000000000000000000 ) ) ;
#145 = SURFACE_STYLE_USAGE ( .BOTH. , #99 ) ;
#146 =( CONVERSION_BASED_UNIT ( 'INCH', #216 ) LENGTH_UNIT ( ) NAMED_UNIT ( #222 ) );
#147 = DIRECTION ( 'NONE',  ( -0.000000000000000000, -1.000000000000000000, -0.000000000000000000 ) ) ;
#148 = CARTESIAN_POINT ( 'NONE',  ( 3.061616997868383018E-17, 0.000000000000000000, 0.2500000000000000000 ) ) ;
#149 = COLOUR_RGB ( '',1.000000000000000000, 0.000000000000000000, 0.000000000000000000 ) ;
#150 = DIRECTION ( 'NONE',  ( 0.000000000000000000, -0.000000000000000000, 1.000000000000000000 ) ) ;
#151 = FACE_OUTER_BOUND ( 'NONE', #119, .T. ) ;
#152 = EDGE_CURVE ( 'NONE', #161, #301, #70, .T. ) ;
#153 = CARTESIAN_POINT ( 'NONE',  ( 0.000000000000000000, 0.6250000000000000000, 0.000000000000000000 ) ) ;
#154 = PRESENTATION_LAYER_ASSIGNMENT (  '', '', ( #225 ) ) ;
#155 = UNCERTAINTY_MEASURE_WITH_UNIT (LENGTH_MEASURE( 1.000000000000000082E-05 ), #95, 'distance_accuracy_value', 'NONE');
#156 = PLANE ( 'NONE',  #111 ) ;
#157 = APPLICATION_CONTEXT ( 'automotive_design' ) ;
#158 =( NAMED_UNIT ( * ) PLANE_ANGLE_UNIT ( ) SI_UNIT ( $, .RADIAN. ) );
#159 = EDGE_LOOP ( 'NONE', ( #143, #184 ) ) ;
#160 = AXIS2_PLACEMENT_3D ( 'NONE', #234, #284, #259 ) ;
#161 = VERTEX_POINT ( 'NONE', #33 ) ;
#162 = ADVANCED_FACE ( 'NONE', ( #60 ), #156, .T. ) ;
#163 = ORIENTED_EDGE ( 'NONE', *, *, #223, .F. ) ;
#164 = PRESENTATION_LAYER_ASSIGNMENT (  '', '', ( #2 ) ) ;
#165 = SURFACE_STYLE_USAGE ( .BOTH. , #140 ) ;
#166 =( NAMED_UNIT ( * ) SI_UNIT ( $, .STERADIAN. ) SOLID_ANGLE_UNIT ( ) );
#167 = FILL_AREA_STYLE ('',( #194 ) ) ;
#168 =( GEOMETRIC_REPRESENTATION_CONTEXT ( 3 ) GLOBAL_UNCERTAINTY_ASSIGNED_CONTEXT ( ( #53 ) ) GLOBAL_UNIT_ASSIGNED_CONTEXT ( ( #187, #122, #97 ) ) REPRESENTATION_CONTEXT ( 'NONE', 'WORKASPACE' ) );
#169 = FILL_AREA_STYLE_COLOUR ( '', #286 ) ;
#170 = AXIS2_PLACEMENT_3D ( 'NONE', #100, #124, #190 ) ;
#171 = CIRCLE ( 'NONE', #246, 0.2500000000000000000 ) ;
#172 = DIRECTION ( 'NONE',  ( 7.257166217169504641E-17, 1.000000000000000000, -0.000000000000000000 ) ) ;
#173 = DIRECTION ( 'NONE',  ( -0.000000000000000000, -1.000000000000000000, -0.000000000000000000 ) ) ;
#174 = EDGE_CURVE ( 'NONE', #301, #161, #308, .T. ) ;
#175 = DIRECTION ( 'NONE',  ( 0.000000000000000000, 0.000000000000000000, -1.000000000000000000 ) ) ;
#176 = DIRECTION ( 'NONE',  ( -1.000000000000000000, 0.000000000000000000, 0.000000000000000000 ) ) ;
#177 = PRODUCT_CONTEXT ( 'NONE', #106, 'mechanical' ) ;
#178 = UNCERTAINTY_MEASURE_WITH_UNIT (LENGTH_MEASURE( 1.000000000000000082E-05 ), #299, 'distance_accuracy_value', 'NONE');
#179 =( CONVERSION_BASED_UNIT ( 'INCH', #138 ) LENGTH_UNIT ( ) NAMED_UNIT ( #262 ) );
#180 =( CONVERSION_BASED_UNIT ( 'INCH', #15 ) LENGTH_UNIT ( ) NAMED_UNIT ( #297 ) );
#181 = ORIENTED_EDGE ( 'NONE', *, *, #74, .F. ) ;
#182 = VERTEX_POINT ( 'NONE', #86 ) ;
#183 = FILL_AREA_STYLE_COLOUR ( '', #185 ) ;
#184 = ORIENTED_EDGE ( 'NONE', *, *, #292, .F. ) ;
#185 = COLOUR_RGB ( '',0.7921568627450980005, 0.8196078431372548767, 0.9333333333333333481 ) ;
#186 = PRESENTATION_STYLE_ASSIGNMENT (( #145 ) ) ;
#187 =( CONVERSION_BASED_UNIT ( 'INCH', #288 ) LENGTH_UNIT ( ) NAMED_UNIT ( #249 ) );
#188 = EDGE_CURVE ( 'NONE', #68, #256, #114, .T. ) ;
#189 = CARTESIAN_POINT ( 'NONE',  ( 2.449293598294707400E-16, 4.000000000000000000, 0.000000000000000000 ) ) ;
#190 = DIRECTION ( 'NONE',  ( 0.000000000000000000, 0.000000000000000000, -1.000000000000000000 ) ) ;
#191 = CYLINDRICAL_SURFACE ( 'NONE', #43, 0.2500000000000000000 ) ;
#192 =( LENGTH_UNIT ( ) NAMED_UNIT ( * ) SI_UNIT ( $, .METRE. ) );
#193 =( NAMED_UNIT ( * ) PLANE_ANGLE_UNIT ( ) SI_UNIT ( $, .RADIAN. ) );
#194 = FILL_AREA_STYLE_COLOUR ( '', #36 ) ;
#195 = CARTESIAN_POINT ( 'NONE',  ( 2.449293598294707400E-16, 4.000000000000000000, 0.000000000000000000 ) ) ;
#196 = CIRCLE ( 'NONE', #236, 0.2500000000000000000 ) ;
#197 = DIRECTION ( 'NONE',  ( -1.000000000000000000, 0.000000000000000000, 0.000000000000000000 ) ) ;
#198 = DIRECTION ( 'NONE',  ( 7.257166217169504641E-17, 1.000000000000000000, -0.000000000000000000 ) ) ;
#199 = MECHANICAL_DESIGN_GEOMETRIC_PRESENTATION_REPRESENTATION (  '', ( #22 ), #50 ) ;
#200 = EDGE_CURVE ( 'NONE', #93, #182, #171, .T. ) ;
#201 = ORIENTED_EDGE ( 'NONE', *, *, #208, .F. ) ;
#202 = ORIENTED_EDGE ( 'NONE', *, *, #200, .T. ) ;
#203 = AXIS2_PLACEMENT_3D ( 'NONE', #195, #7, #176 ) ;
#204 = ORIENTED_EDGE ( 'NONE', *, *, #96, .T. ) ;
#205 = DIRECTION ( 'NONE',  ( -1.000000000000000000, 0.000000000000000000, 0.000000000000000000 ) ) ;
#206 = ORIENTED_EDGE ( 'NONE', *, *, #96, .F. ) ;
#207 = COLOUR_RGB ( '',1.000000000000000000, 0.000000000000000000, 0.000000000000000000 ) ;
#208 = EDGE_CURVE ( 'NONE', #256, #68, #94, .T. ) ;
#209 = PRESENTATION_STYLE_ASSIGNMENT (( #126 ) ) ;
#210 = CARTESIAN_POINT ( 'NONE',  ( -0.2500000000000000000, 0.6250000000000000000, 0.000000000000000000 ) ) ;
#211 =( CONVERSION_BASED_UNIT ( 'INCH', #282 ) LENGTH_UNIT ( ) NAMED_UNIT ( #35 ) );
#212 = FACE_OUTER_BOUND ( 'NONE', #159, .T. ) ;
#213 = STYLED_ITEM ( 'NONE', ( #209 ), #116 ) ;
#214 = ADVANCED_FACE ( 'NONE', ( #151 ), #220, .T. ) ;
#215 = MANIFOLD_SOLID_BREP ( 'Revolve - Cutting Edge', #136 ) ;
#216 = LENGTH_MEASURE_WITH_UNIT ( LENGTH_MEASURE( 0.02539999999999999897 ), #49 );
#217 = SURFACE_STYLE_USAGE ( .BOTH. , #54 ) ;
#218 = DIRECTION ( 'NONE',  ( 0.000000000000000000, -1.000000000000000000, -0.000000000000000000 ) ) ;
#219 = AXIS2_PLACEMENT_3D ( 'NONE', #247, #296, #57 ) ;
#220 = CYLINDRICAL_SURFACE ( 'NONE', #230, 0.2500000000000000000 ) ;
#221 = SURFACE_SIDE_STYLE ('',( #58 ) ) ;
#222 = DIMENSIONAL_EXPONENTS ( 1.000000000000000000, 0.000000000000000000, 0.000000000000000000, 0.000000000000000000, 0.000000000000000000, 0.000000000000000000, 0.000000000000000000 ) ;
#223 = EDGE_CURVE ( 'NONE', #277, #16, #59, .T. ) ;
#224 =( NAMED_UNIT ( * ) SI_UNIT ( $, .STERADIAN. ) SOLID_ANGLE_UNIT ( ) );
#225 = STYLED_ITEM ( 'NONE', ( #91 ), #215 ) ;
#226 = DIRECTION ( 'NONE',  ( -0.000000000000000000, -1.000000000000000000, -0.000000000000000000 ) ) ;
#227 = EDGE_LOOP ( 'NONE', ( #303, #18 ) ) ;
#228 = ORIENTED_EDGE ( 'NONE', *, *, #292, .T. ) ;
#229 = LINE ( 'NONE', #115, #130 ) ;
#230 = AXIS2_PLACEMENT_3D ( 'NONE', #41, #226, #112 ) ;
#231 = FACE_OUTER_BOUND ( 'NONE', #255, .T. ) ;
#232 = ORIENTED_EDGE ( 'NONE', *, *, #37, .T. ) ;
#233 = PRODUCT_DEFINITION ( 'UNKNOWN', '', #30, #270 ) ;
#234 = CARTESIAN_POINT ( 'NONE',  ( 0.2500000000000000000, 4.000000000000000000, 0.000000000000000000 ) ) ;
#235 = PLANE ( 'NONE',  #293 ) ;
#236 = AXIS2_PLACEMENT_3D ( 'NONE', #309, #48, #263 ) ;
#237 = DIRECTION ( 'NONE',  ( -0.000000000000000000, -1.000000000000000000, -0.000000000000000000 ) ) ;
#238 =( NAMED_UNIT ( * ) PLANE_ANGLE_UNIT ( ) SI_UNIT ( $, .RADIAN. ) );
#239 = CARTESIAN_POINT ( 'NONE',  ( 0.2500000000000001110, 4.000000000000000000, 3.061616997868381785E-17 ) ) ;
#240 = PRESENTATION_STYLE_ASSIGNMENT (( #217 ) ) ;
#241 = FACE_OUTER_BOUND ( 'NONE', #252, .T. ) ;
#242 = CARTESIAN_POINT ( 'NONE',  ( 0.000000000000000000, 0.000000000000000000, -0.2500000000000000000 ) ) ;
#243 = ADVANCED_FACE ( 'NONE', ( #231 ), #191, .T. ) ;
#244 = DIRECTION ( 'NONE',  ( -1.000000000000000000, 0.000000000000000000, 0.000000000000000000 ) ) ;
#245 = CIRCLE ( 'NONE', #170, 0.2500000000000000000 ) ;
#246 = AXIS2_PLACEMENT_3D ( 'NONE', #153, #173, #268 ) ;
#247 = CARTESIAN_POINT ( 'NONE',  ( 0.000000000000000000, 0.6250000000000000000, 0.000000000000000000 ) ) ;
#248 = CARTESIAN_POINT ( 'NONE',  ( 0.000000000000000000, 0.6250000000000000000, 0.000000000000000000 ) ) ;
#249 = DIMENSIONAL_EXPONENTS ( 1.000000000000000000, 0.000000000000000000, 0.000000000000000000, 0.000000000000000000, 0.000000000000000000, 0.000000000000000000, 0.000000000000000000 ) ;
#250 = SURFACE_STYLE_FILL_AREA ( #133 ) ;
#251 =( LENGTH_UNIT ( ) NAMED_UNIT ( * ) SI_UNIT ( $, .METRE. ) );
#252 = EDGE_LOOP ( 'NONE', ( #201, #13 ) ) ;
#253 = EDGE_CURVE ( 'NONE', #68, #161, #123, .T. ) ;
#254 = EDGE_LOOP ( 'NONE', ( #45, #39, #280, #305 ) ) ;
#255 = EDGE_LOOP ( 'NONE', ( #206, #228, #232, #181 ) ) ;
#256 = VERTEX_POINT ( 'NONE', #210 ) ;
#257 = DIRECTION ( 'NONE',  ( 7.257166217169504641E-17, 1.000000000000000000, -0.000000000000000000 ) ) ;
#258 = DIRECTION ( 'NONE',  ( -1.000000000000000000, 7.257166217169504641E-17, 0.000000000000000000 ) ) ;
#259 = DIRECTION ( 'NONE',  ( 1.000000000000000000, -7.257166217169504641E-17, 0.000000000000000000 ) ) ;
#260 = CLOSED_SHELL ( 'NONE', ( #272, #62, #117, #279 ) ) ;
#261 = PRESENTATION_LAYER_ASSIGNMENT (  '', '', ( #85 ) ) ;
#262 = DIMENSIONAL_EXPONENTS ( 1.000000000000000000, 0.000000000000000000, 0.000000000000000000, 0.000000000000000000, 0.000000000000000000, 0.000000000000000000, 0.000000000000000000 ) ;
#263 = DIRECTION ( 'NONE',  ( 0.000000000000000000, 0.000000000000000000, -1.000000000000000000 ) ) ;
#264 = FILL_AREA_STYLE ('',( #169 ) ) ;
#265 = SURFACE_SIDE_STYLE ('',( #290 ) ) ;
#266 = MECHANICAL_DESIGN_GEOMETRIC_PRESENTATION_REPRESENTATION (  '', ( #225 ), #92 ) ;
#267 = CARTESIAN_POINT ( 'NONE',  ( 2.449293598294707400E-16, 4.000000000000000000, 0.000000000000000000 ) ) ;
#268 = DIRECTION ( 'NONE',  ( 0.000000000000000000, 0.000000000000000000, -1.000000000000000000 ) ) ;
#269 =( NAMED_UNIT ( * ) PLANE_ANGLE_UNIT ( ) SI_UNIT ( $, .RADIAN. ) );
#270 = PRODUCT_DEFINITION_CONTEXT ( 'detailed design', #157, 'design' ) ;
#271 = AXIS2_PLACEMENT_3D ( 'NONE', #189, #257, #205 ) ;
#272 = ADVANCED_FACE ( 'NONE', ( #289 ), #1, .T. ) ;
#273 = EDGE_LOOP ( 'NONE', ( #275, #139 ) ) ;
#274 = MECHANICAL_DESIGN_GEOMETRIC_PRESENTATION_REPRESENTATION (  '', ( #105 ), #137 ) ;
#275 = ORIENTED_EDGE ( 'NONE', *, *, #223, .T. ) ;
#276 = ADVANCED_BREP_SHAPE_REPRESENTATION ( '82945', ( #215, #116, #298 ), #142 ) ;
#277 = VERTEX_POINT ( 'NONE', #306 ) ;
#278 = CARTESIAN_POINT ( 'NONE',  ( 0.000000000000000000, 0.000000000000000000, 0.000000000000000000 ) ) ;
#279 = ADVANCED_FACE ( 'NONE', ( #46 ), #80, .F. ) ;
#280 = ORIENTED_EDGE ( 'NONE', *, *, #6, .T. ) ;
#281 = COLOUR_RGB ( '',1.000000000000000000, 0.000000000000000000, 0.000000000000000000 ) ;
#282 = LENGTH_MEASURE_WITH_UNIT ( LENGTH_MEASURE( 0.02539999999999999897 ), #118 );
#283 = PLANE ( 'NONE',  #65 ) ;
#284 = DIRECTION ( 'NONE',  ( -7.257166217169504641E-17, -1.000000000000000000, 0.000000000000000000 ) ) ;
#285 = DIRECTION ( 'NONE',  ( 7.257166217169504641E-17, 1.000000000000000000, -0.000000000000000000 ) ) ;
#286 = COLOUR_RGB ( '',0.7921568627450980005, 0.8196078431372548767, 0.9333333333333333481 ) ;
#287 = DIRECTION ( 'NONE',  ( 7.257166217169504641E-17, 1.000000000000000000, -0.000000000000000000 ) ) ;
#288 = LENGTH_MEASURE_WITH_UNIT ( LENGTH_MEASURE( 0.02539999999999999897 ), #192 );
#289 = FACE_OUTER_BOUND ( 'NONE', #69, .T. ) ;
#290 = SURFACE_STYLE_FILL_AREA ( #264 ) ;
#291 = CARTESIAN_POINT ( 'NONE',  ( 2.449293598294707400E-16, 4.000000000000000000, 0.000000000000000000 ) ) ;
#292 = EDGE_CURVE ( 'NONE', #182, #93, #196, .T. ) ;
#293 = AXIS2_PLACEMENT_3D ( 'NONE', #79, #82, #150 ) ;
#294 =( GEOMETRIC_REPRESENTATION_CONTEXT ( 3 ) GLOBAL_UNCERTAINTY_ASSIGNED_CONTEXT ( ( #98 ) ) GLOBAL_UNIT_ASSIGNED_CONTEXT ( ( #211, #193, #166 ) ) REPRESENTATION_CONTEXT ( 'NONE', 'WORKASPACE' ) );
#295 = DIMENSIONAL_EXPONENTS ( 1.000000000000000000, 0.000000000000000000, 0.000000000000000000, 0.000000000000000000, 0.000000000000000000, 0.000000000000000000, 0.000000000000000000 ) ;
#296 = DIRECTION ( 'NONE',  ( 7.257166217169504641E-17, 1.000000000000000000, -0.000000000000000000 ) ) ;
#297 = DIMENSIONAL_EXPONENTS ( 1.000000000000000000, 0.000000000000000000, 0.000000000000000000, 0.000000000000000000, 0.000000000000000000, 0.000000000000000000, 0.000000000000000000 ) ;
#298 = AXIS2_PLACEMENT_3D ( 'NONE', #300, #12, #90 ) ;
#299 =( CONVERSION_BASED_UNIT ( 'INCH', #28 ) LENGTH_UNIT ( ) NAMED_UNIT ( #24 ) );
#300 = CARTESIAN_POINT ( 'NONE',  ( 0.000000000000000000, 0.000000000000000000, 0.000000000000000000 ) ) ;
#301 = VERTEX_POINT ( 'NONE', #20 ) ;
#302 =( LENGTH_UNIT ( ) NAMED_UNIT ( * ) SI_UNIT ( $, .METRE. ) );
#303 = ORIENTED_EDGE ( 'NONE', *, *, #174, .T. ) ;
#304 = FILL_AREA_STYLE ('',( #183 ) ) ;
#305 = ORIENTED_EDGE ( 'NONE', *, *, #152, .F. ) ;
#306 = CARTESIAN_POINT ( 'NONE',  ( 0.000000000000000000, 0.000000000000000000, -0.2500000000000000000 ) ) ;
#307 = VECTOR ( 'NONE', #129, 39.37007874015748143 ) ;
#308 = CIRCLE ( 'NONE', #66, 0.2499999999999997502 ) ;
#309 = CARTESIAN_POINT ( 'NONE',  ( 0.000000000000000000, 0.6250000000000000000, 0.000000000000000000 ) ) ;
ENDSEC;
END-ISO-10303-21;
