ISO-10303-21;
HEADER;
FILE_DESCRIPTION (( 'STEP AP214' ),
    '1' );
FILE_NAME ('Micro_SEM-031-04.STEP',
    '2021-09-02T00:33:25',
    ( '' ),
    ( '' ),
    'SwSTEP 2.0',
    'SolidWorks 2020',
    '' );
FILE_SCHEMA (( 'AUTOMOTIVE_DESIGN' ));
ENDSEC;

DATA;
#1 = DIRECTION ( 'NONE',  ( 0.0000000000000000000, 0.0000000000000000000, 1.000000000000000000 ) ) ;
#2 = DIRECTION ( 'NONE',  ( -0.7071067811865456854, 0.0000000000000000000, -0.7071067811865493491 ) ) ;
#3 = FACE_OUTER_BOUND ( 'NONE', #108, .T. ) ;
#4 = ORIENTED_EDGE ( 'NONE', *, *, #170, .F. ) ;
#5 = PRESENTATION_STYLE_ASSIGNMENT (( #65 ) ) ;
#6 = DIRECTION ( 'NONE',  ( 0.0000000000000000000, 0.0000000000000000000, 1.000000000000000000 ) ) ;
#7 = ORIENTED_EDGE ( 'NONE', *, *, #119, .F. ) ;
#8 = ORIENTED_EDGE ( 'NONE', *, *, #114, .F. ) ;
#9 =( NAMED_UNIT ( * ) SI_UNIT ( $, .STERADIAN. ) SOLID_ANGLE_UNIT ( ) );
#10 =( NAMED_UNIT ( * ) SI_UNIT ( $, .STERADIAN. ) SOLID_ANGLE_UNIT ( ) );
#11 = EDGE_LOOP ( 'NONE', ( #147, #154, #177, #24 ) ) ;
#12 = CARTESIAN_POINT ( 'NONE',  ( 0.06250000000000000000, 7.654042494670956004E-18, 1.500000000000000222 ) ) ;
#13 = CIRCLE ( 'NONE', #62, 0.04750000000000064587 ) ;
#14 = EDGE_LOOP ( 'NONE', ( #23, #8 ) ) ;
#15 = ORIENTED_EDGE ( 'NONE', *, *, #134, .T. ) ;
#16 = UNCERTAINTY_MEASURE_WITH_UNIT (LENGTH_MEASURE( 1.000000000000000082E-05 ), #104, 'distance_accuracy_value', 'NONE');
#17 = EDGE_CURVE ( 'NONE', #143, #109, #110, .T. ) ;
#18 = DIRECTION ( 'NONE',  ( 0.0000000000000000000, 0.0000000000000000000, -1.000000000000000000 ) ) ;
#19 = CARTESIAN_POINT ( 'NONE',  ( -0.06250000000000000000, 0.0000000000000000000, 1.500000000000000222 ) ) ;
#20 = ORIENTED_EDGE ( 'NONE', *, *, #29, .F. ) ;
#21 = AXIS2_PLACEMENT_3D ( 'NONE', #107, #6, #39 ) ;
#22 = FILL_AREA_STYLE ('',( #117 ) ) ;
#23 = ORIENTED_EDGE ( 'NONE', *, *, #134, .F. ) ;
#24 = ORIENTED_EDGE ( 'NONE', *, *, #137, .F. ) ;
#25 = ADVANCED_FACE ( 'NONE', ( #90 ), #67, .T. ) ;
#26 = COLOUR_RGB ( '',0.7921568627450980005, 0.8196078431372548767, 0.9333333333333333481 ) ;
#27 = PRESENTATION_LAYER_ASSIGNMENT (  '', '', ( #181 ) ) ;
#28 = PRODUCT_DEFINITION ( 'UNKNOWN', '', #174, #173 ) ;
#29 = EDGE_CURVE ( 'NONE', #143, #53, #163, .T. ) ;
#30 =( NAMED_UNIT ( * ) PLANE_ANGLE_UNIT ( ) SI_UNIT ( $, .RADIAN. ) );
#31 = DIRECTION ( 'NONE',  ( -1.000000000000000000, 0.0000000000000000000, 0.0000000000000000000 ) ) ;
#32 = ADVANCED_FACE ( 'NONE', ( #133 ), #142, .T. ) ;
#33 = COLOUR_RGB ( '',0.7921568627450980005, 0.8196078431372548767, 0.9333333333333333481 ) ;
#34 = EDGE_LOOP ( 'NONE', ( #164, #171, #4, #20 ) ) ;
#35 = DIRECTION ( 'NONE',  ( 0.0000000000000000000, 0.0000000000000000000, 1.000000000000000000 ) ) ;
#36 = FILL_AREA_STYLE_COLOUR ( '', #26 ) ;
#37 = AXIS2_PLACEMENT_3D ( 'NONE', #157, #18, #80 ) ;
#38 = AXIS2_PLACEMENT_3D ( 'NONE', #51, #172, #31 ) ;
#39 = DIRECTION ( 'NONE',  ( 1.000000000000000000, 0.0000000000000000000, 0.0000000000000000000 ) ) ;
#40 = DIRECTION ( 'NONE',  ( -0.0000000000000000000, -0.0000000000000000000, -1.000000000000000000 ) ) ;
#41 = MANIFOLD_SOLID_BREP ( 'Chamfer', #196 ) ;
#42 = STYLED_ITEM ( 'NONE', ( #57 ), #41 ) ;
#43 = PRODUCT_RELATED_PRODUCT_CATEGORY ( 'part', '', ( #156 ) ) ;
#44 = CIRCLE ( 'NONE', #37, 0.06250000000000000000 ) ;
#45 = VECTOR ( 'NONE', #2, 39.37007874015748143 ) ;
#46 = DIRECTION ( 'NONE',  ( 0.0000000000000000000, 0.0000000000000000000, -1.000000000000000000 ) ) ;
#47 = LINE ( 'NONE', #19, #102 ) ;
#48 = SURFACE_STYLE_FILL_AREA ( #113 ) ;
#49 = CARTESIAN_POINT ( 'NONE',  ( 0.0000000000000000000, 0.0000000000000000000, 0.0000000000000000000 ) ) ;
#50 = CARTESIAN_POINT ( 'NONE',  ( 0.0000000000000000000, 0.0000000000000000000, 0.0000000000000000000 ) ) ;
#51 = CARTESIAN_POINT ( 'NONE',  ( 0.0000000000000000000, 0.0000000000000000000, 1.500000000000000222 ) ) ;
#52 = CARTESIAN_POINT ( 'NONE',  ( 0.0000000000000000000, 0.0000000000000000000, 1.500000000000000222 ) ) ;
#53 = VERTEX_POINT ( 'NONE', #149 ) ;
#54 = EDGE_CURVE ( 'NONE', #109, #143, #13, .T. ) ;
#55 = LENGTH_MEASURE_WITH_UNIT ( LENGTH_MEASURE( 0.02539999999999999897 ), #175 );
#56 = VERTEX_POINT ( 'NONE', #194 ) ;
#57 = PRESENTATION_STYLE_ASSIGNMENT (( #131 ) ) ;
#58 = ORIENTED_EDGE ( 'NONE', *, *, #137, .T. ) ;
#59 = SHAPE_DEFINITION_REPRESENTATION ( #153, #86 ) ;
#60 = CIRCLE ( 'NONE', #130, 0.06250000000000000000 ) ;
#61 = DIRECTION ( 'NONE',  ( -0.0000000000000000000, -0.0000000000000000000, -1.000000000000000000 ) ) ;
#62 = AXIS2_PLACEMENT_3D ( 'NONE', #159, #192, #127 ) ;
#63 =( NAMED_UNIT ( * ) PLANE_ANGLE_UNIT ( ) SI_UNIT ( $, .RADIAN. ) );
#64 = LINE ( 'NONE', #139, #76 ) ;
#65 = SURFACE_STYLE_USAGE ( .BOTH. , #146 ) ;
#66 =( LENGTH_UNIT ( ) NAMED_UNIT ( * ) SI_UNIT ( $, .METRE. ) );
#67 = PLANE ( 'NONE',  #135 ) ;
#68 = VECTOR ( 'NONE', #40, 39.37007874015748143 ) ;
#69 = CARTESIAN_POINT ( 'NONE',  ( -0.04750000000000064587, 0.0000000000000000000, 1.500000000000000222 ) ) ;
#70 = DIRECTION ( 'NONE',  ( 1.000000000000000000, 0.0000000000000000000, -0.0000000000000000000 ) ) ;
#71 = FACE_OUTER_BOUND ( 'NONE', #14, .T. ) ;
#72 = ADVANCED_FACE ( 'NONE', ( #189 ), #96, .T. ) ;
#73 =( GEOMETRIC_REPRESENTATION_CONTEXT ( 3 ) GLOBAL_UNCERTAINTY_ASSIGNED_CONTEXT ( ( #198 ) ) GLOBAL_UNIT_ASSIGNED_CONTEXT ( ( #180, #63, #9 ) ) REPRESENTATION_CONTEXT ( 'NONE', 'WORKASPACE' ) );
#74 = EDGE_LOOP ( 'NONE', ( #100, #124 ) ) ;
#75 = DIRECTION ( 'NONE',  ( 1.000000000000000000, 0.0000000000000000000, 0.0000000000000000000 ) ) ;
#76 = VECTOR ( 'NONE', #115, 39.37007874015748143 ) ;
#77 = VERTEX_POINT ( 'NONE', #161 ) ;
#78 = DIRECTION ( 'NONE',  ( 1.000000000000000000, 0.0000000000000000000, 0.0000000000000000000 ) ) ;
#79 = AXIS2_PLACEMENT_3D ( 'NONE', #128, #176, #111 ) ;
#80 = DIRECTION ( 'NONE',  ( 1.000000000000000000, 0.0000000000000000000, 0.0000000000000000000 ) ) ;
#81 = ADVANCED_FACE ( 'NONE', ( #3 ), #118, .T. ) ;
#82 = ORIENTED_EDGE ( 'NONE', *, *, #29, .T. ) ;
#83 = CARTESIAN_POINT ( 'NONE',  ( 0.0000000000000000000, 0.0000000000000000000, 0.0000000000000000000 ) ) ;
#84 =( GEOMETRIC_REPRESENTATION_CONTEXT ( 3 ) GLOBAL_UNCERTAINTY_ASSIGNED_CONTEXT ( ( #16 ) ) GLOBAL_UNIT_ASSIGNED_CONTEXT ( ( #104, #30, #188 ) ) REPRESENTATION_CONTEXT ( 'NONE', 'WORKASPACE' ) );
#85 = DIRECTION ( 'NONE',  ( -0.0000000000000000000, -0.0000000000000000000, -1.000000000000000000 ) ) ;
#86 = ADVANCED_BREP_SHAPE_REPRESENTATION ( 'Micro_SEM-031-04', ( #41, #195 ), #167 ) ;
#87 = PRODUCT_CONTEXT ( 'NONE', #162, 'mechanical' ) ;
#88 = SURFACE_SIDE_STYLE ('',( #121 ) ) ;
#89 = APPLICATION_CONTEXT ( 'automotive_design' ) ;
#90 = FACE_OUTER_BOUND ( 'NONE', #74, .T. ) ;
#91 = PRESENTATION_LAYER_ASSIGNMENT (  '', '', ( #42 ) ) ;
#92 = EDGE_CURVE ( 'NONE', #56, #145, #152, .T. ) ;
#93 = CARTESIAN_POINT ( 'NONE',  ( 0.04750000000000064587, 6.735557395310482421E-18, 1.500000000000000222 ) ) ;
#94 = DIMENSIONAL_EXPONENTS ( 1.000000000000000000, 0.0000000000000000000, 0.0000000000000000000, 0.0000000000000000000, 0.0000000000000000000, 0.0000000000000000000, 0.0000000000000000000 ) ;
#95 = AXIS2_PLACEMENT_3D ( 'NONE', #138, #125, #186 ) ;
#96 = CONICAL_SURFACE ( 'NONE', #38, 0.04750000000000064587, 0.7853981633974457255 ) ;
#97 = AXIS2_PLACEMENT_3D ( 'NONE', #158, #99, #75 ) ;
#98 = EDGE_LOOP ( 'NONE', ( #7, #185, #82, #136 ) ) ;
#99 = DIRECTION ( 'NONE',  ( 0.0000000000000000000, 0.0000000000000000000, 1.000000000000000000 ) ) ;
#100 = ORIENTED_EDGE ( 'NONE', *, *, #17, .T. ) ;
#101 = DIRECTION ( 'NONE',  ( 1.000000000000000000, 0.0000000000000000000, -0.0000000000000000000 ) ) ;
#102 = VECTOR ( 'NONE', #61, 39.37007874015748143 ) ;
#103 = PLANE ( 'NONE',  #166 ) ;
#104 =( CONVERSION_BASED_UNIT ( 'INCH', #55 ) LENGTH_UNIT ( ) NAMED_UNIT ( #197 ) );
#105 = CIRCLE ( 'NONE', #97, 0.06250000000000000000 ) ;
#106 = ORIENTED_EDGE ( 'NONE', *, *, #148, .T. ) ;
#107 = CARTESIAN_POINT ( 'NONE',  ( 0.0000000000000000000, 0.0000000000000000000, 1.500000000000000222 ) ) ;
#108 = EDGE_LOOP ( 'NONE', ( #184, #106, #58, #15 ) ) ;
#109 = VERTEX_POINT ( 'NONE', #93 ) ;
#110 = CIRCLE ( 'NONE', #21, 0.04750000000000064587 ) ;
#111 = DIRECTION ( 'NONE',  ( -1.000000000000000000, 0.0000000000000000000, 0.0000000000000000000 ) ) ;
#112 = ADVANCED_FACE ( 'NONE', ( #71 ), #103, .F. ) ;
#113 = FILL_AREA_STYLE ('',( #36 ) ) ;
#114 = EDGE_CURVE ( 'NONE', #145, #77, #126, .T. ) ;
#115 = DIRECTION ( 'NONE',  ( 0.7071067811865456854, 8.659560562354911904E-17, -0.7071067811865493491 ) ) ;
#116 = CARTESIAN_POINT ( 'NONE',  ( 0.06250000000000000000, 7.654042494670956004E-18, 0.0000000000000000000 ) ) ;
#117 = FILL_AREA_STYLE_COLOUR ( '', #33 ) ;
#118 = CYLINDRICAL_SURFACE ( 'NONE', #79, 0.06250000000000000000 ) ;
#119 = EDGE_CURVE ( 'NONE', #109, #56, #64, .T. ) ;
#120 = LENGTH_MEASURE_WITH_UNIT ( LENGTH_MEASURE( 0.02539999999999999897 ), #66 );
#121 = SURFACE_STYLE_FILL_AREA ( #22 ) ;
#122 = DIRECTION ( 'NONE',  ( -1.000000000000000000, 0.0000000000000000000, 0.0000000000000000000 ) ) ;
#123 = AXIS2_PLACEMENT_3D ( 'NONE', #83, #155, #78 ) ;
#124 = ORIENTED_EDGE ( 'NONE', *, *, #54, .T. ) ;
#125 = DIRECTION ( 'NONE',  ( 0.0000000000000000000, 0.0000000000000000000, -1.000000000000000000 ) ) ;
#126 = CIRCLE ( 'NONE', #123, 0.06250000000000000000 ) ;
#127 = DIRECTION ( 'NONE',  ( 1.000000000000000000, 0.0000000000000000000, 0.0000000000000000000 ) ) ;
#128 = CARTESIAN_POINT ( 'NONE',  ( 0.0000000000000000000, 0.0000000000000000000, 1.500000000000000222 ) ) ;
#129 =( CONVERSION_BASED_UNIT ( 'INCH', #120 ) LENGTH_UNIT ( ) NAMED_UNIT ( #165 ) );
#130 = AXIS2_PLACEMENT_3D ( 'NONE', #183, #46, #168 ) ;
#131 = SURFACE_STYLE_USAGE ( .BOTH. , #88 ) ;
#132 = AXIS2_PLACEMENT_3D ( 'NONE', #193, #85, #122 ) ;
#133 = FACE_OUTER_BOUND ( 'NONE', #11, .T. ) ;
#134 = EDGE_CURVE ( 'NONE', #77, #145, #105, .T. ) ;
#135 = AXIS2_PLACEMENT_3D ( 'NONE', #52, #35, #70 ) ;
#136 = ORIENTED_EDGE ( 'NONE', *, *, #148, .F. ) ;
#137 = EDGE_CURVE ( 'NONE', #53, #77, #47, .T. ) ;
#138 = CARTESIAN_POINT ( 'NONE',  ( 0.0000000000000000000, 0.0000000000000000000, 1.500000000000000222 ) ) ;
#139 = CARTESIAN_POINT ( 'NONE',  ( 0.04750000000000064587, 5.817072295950006528E-18, 1.500000000000000222 ) ) ;
#140 = CONICAL_SURFACE ( 'NONE', #95, 0.04750000000000064587, 0.7853981633974457255 ) ;
#141 = DIRECTION ( 'NONE',  ( 1.000000000000000000, 0.0000000000000000000, 0.0000000000000000000 ) ) ;
#142 = CYLINDRICAL_SURFACE ( 'NONE', #132, 0.06250000000000000000 ) ;
#143 = VERTEX_POINT ( 'NONE', #199 ) ;
#144 = APPLICATION_PROTOCOL_DEFINITION ( 'draft international standard', 'automotive_design', 1998, #89 ) ;
#145 = VERTEX_POINT ( 'NONE', #116 ) ;
#146 = SURFACE_SIDE_STYLE ('',( #48 ) ) ;
#147 = ORIENTED_EDGE ( 'NONE', *, *, #170, .T. ) ;
#148 = EDGE_CURVE ( 'NONE', #56, #53, #60, .T. ) ;
#149 = CARTESIAN_POINT ( 'NONE',  ( -0.06250000000000000000, 0.0000000000000000000, 1.485000000000000764 ) ) ;
#150 =( NAMED_UNIT ( * ) PLANE_ANGLE_UNIT ( ) SI_UNIT ( $, .RADIAN. ) );
#151 = MECHANICAL_DESIGN_GEOMETRIC_PRESENTATION_REPRESENTATION (  '', ( #42 ), #73 ) ;
#152 = LINE ( 'NONE', #12, #68 ) ;
#153 = PRODUCT_DEFINITION_SHAPE ( 'NONE', 'NONE',  #28 ) ;
#154 = ORIENTED_EDGE ( 'NONE', *, *, #92, .T. ) ;
#155 = DIRECTION ( 'NONE',  ( 0.0000000000000000000, 0.0000000000000000000, 1.000000000000000000 ) ) ;
#156 = PRODUCT ( 'Micro_SEM-031-04', 'Micro_SEM-031-04', '', ( #87 ) ) ;
#157 = CARTESIAN_POINT ( 'NONE',  ( 0.0000000000000000000, 0.0000000000000000000, 1.485000000000000764 ) ) ;
#158 = CARTESIAN_POINT ( 'NONE',  ( 0.0000000000000000000, 0.0000000000000000000, 0.0000000000000000000 ) ) ;
#159 = CARTESIAN_POINT ( 'NONE',  ( 0.0000000000000000000, 0.0000000000000000000, 1.500000000000000222 ) ) ;
#160 = DIRECTION ( 'NONE',  ( 0.0000000000000000000, 0.0000000000000000000, 1.000000000000000000 ) ) ;
#161 = CARTESIAN_POINT ( 'NONE',  ( -0.06250000000000000000, 0.0000000000000000000, 0.0000000000000000000 ) ) ;
#162 = APPLICATION_CONTEXT ( 'automotive_design' ) ;
#163 = LINE ( 'NONE', #69, #45 ) ;
#164 = ORIENTED_EDGE ( 'NONE', *, *, #54, .F. ) ;
#165 = DIMENSIONAL_EXPONENTS ( 1.000000000000000000, 0.0000000000000000000, 0.0000000000000000000, 0.0000000000000000000, 0.0000000000000000000, 0.0000000000000000000, 0.0000000000000000000 ) ;
#166 = AXIS2_PLACEMENT_3D ( 'NONE', #49, #160, #101 ) ;
#167 =( GEOMETRIC_REPRESENTATION_CONTEXT ( 3 ) GLOBAL_UNCERTAINTY_ASSIGNED_CONTEXT ( ( #187 ) ) GLOBAL_UNIT_ASSIGNED_CONTEXT ( ( #129, #150, #10 ) ) REPRESENTATION_CONTEXT ( 'NONE', 'WORKASPACE' ) );
#168 = DIRECTION ( 'NONE',  ( 1.000000000000000000, 0.0000000000000000000, 0.0000000000000000000 ) ) ;
#169 = FACE_OUTER_BOUND ( 'NONE', #34, .T. ) ;
#170 = EDGE_CURVE ( 'NONE', #53, #56, #44, .T. ) ;
#171 = ORIENTED_EDGE ( 'NONE', *, *, #119, .T. ) ;
#172 = DIRECTION ( 'NONE',  ( 0.0000000000000000000, 0.0000000000000000000, -1.000000000000000000 ) ) ;
#173 = PRODUCT_DEFINITION_CONTEXT ( 'detailed design', #89, 'design' ) ;
#174 = PRODUCT_DEFINITION_FORMATION_WITH_SPECIFIED_SOURCE ( 'ANY', '', #156, .NOT_KNOWN. ) ;
#175 =( LENGTH_UNIT ( ) NAMED_UNIT ( * ) SI_UNIT ( $, .METRE. ) );
#176 = DIRECTION ( 'NONE',  ( -0.0000000000000000000, -0.0000000000000000000, -1.000000000000000000 ) ) ;
#177 = ORIENTED_EDGE ( 'NONE', *, *, #114, .T. ) ;
#178 = LENGTH_MEASURE_WITH_UNIT ( LENGTH_MEASURE( 0.02539999999999999897 ), #190 );
#179 = APPLICATION_PROTOCOL_DEFINITION ( 'draft international standard', 'automotive_design', 1998, #162 ) ;
#180 =( CONVERSION_BASED_UNIT ( 'INCH', #178 ) LENGTH_UNIT ( ) NAMED_UNIT ( #94 ) );
#181 = STYLED_ITEM ( 'NONE', ( #5 ), #86 ) ;
#182 = ADVANCED_FACE ( 'NONE', ( #169 ), #140, .T. ) ;
#183 = CARTESIAN_POINT ( 'NONE',  ( 0.0000000000000000000, 0.0000000000000000000, 1.485000000000000764 ) ) ;
#184 = ORIENTED_EDGE ( 'NONE', *, *, #92, .F. ) ;
#185 = ORIENTED_EDGE ( 'NONE', *, *, #17, .F. ) ;
#186 = DIRECTION ( 'NONE',  ( -1.000000000000000000, 0.0000000000000000000, 0.0000000000000000000 ) ) ;
#187 = UNCERTAINTY_MEASURE_WITH_UNIT (LENGTH_MEASURE( 1.000000000000000082E-05 ), #129, 'distance_accuracy_value', 'NONE');
#188 =( NAMED_UNIT ( * ) SI_UNIT ( $, .STERADIAN. ) SOLID_ANGLE_UNIT ( ) );
#189 = FACE_OUTER_BOUND ( 'NONE', #98, .T. ) ;
#190 =( LENGTH_UNIT ( ) NAMED_UNIT ( * ) SI_UNIT ( $, .METRE. ) );
#191 = MECHANICAL_DESIGN_GEOMETRIC_PRESENTATION_REPRESENTATION (  '', ( #181 ), #84 ) ;
#192 = DIRECTION ( 'NONE',  ( 0.0000000000000000000, 0.0000000000000000000, 1.000000000000000000 ) ) ;
#193 = CARTESIAN_POINT ( 'NONE',  ( 0.0000000000000000000, 0.0000000000000000000, 1.500000000000000222 ) ) ;
#194 = CARTESIAN_POINT ( 'NONE',  ( 0.06250000000000000000, 7.654042494670956004E-18, 1.485000000000000764 ) ) ;
#195 = AXIS2_PLACEMENT_3D ( 'NONE', #50, #1, #141 ) ;
#196 = CLOSED_SHELL ( 'NONE', ( #182, #32, #81, #25, #112, #72 ) ) ;
#197 = DIMENSIONAL_EXPONENTS ( 1.000000000000000000, 0.0000000000000000000, 0.0000000000000000000, 0.0000000000000000000, 0.0000000000000000000, 0.0000000000000000000, 0.0000000000000000000 ) ;
#198 = UNCERTAINTY_MEASURE_WITH_UNIT (LENGTH_MEASURE( 1.000000000000000082E-05 ), #180, 'distance_accuracy_value', 'NONE');
#199 = CARTESIAN_POINT ( 'NONE',  ( -0.04750000000000064587, 0.0000000000000000000, 1.500000000000000222 ) ) ;
ENDSEC;
END-ISO-10303-21;
