ISO-10303-21;
HEADER;
FILE_DESCRIPTION (( 'STEP AP214' ),
    '1' );
FILE_NAME ('00120.STEP',
    '2023-06-22T14:03:04',
    ( '' ),
    ( '' ),
    'SwSTEP 2.0',
    'SolidWorks 2023',
    '' );
FILE_SCHEMA (( 'AUTOMOTIVE_DESIGN' ));
ENDSEC;

DATA;
#1 = PRODUCT_DEFINITION_CONTEXT ( 'detailed design', #123, 'design' ) ;
#2 = CARTESIAN_POINT ( 'NONE',  ( -7.582401355855259480E-33, 0.7499999999999998890, 0.000000000000000000 ) ) ;
#3 =( GEOMETRIC_REPRESENTATION_CONTEXT ( 3 ) GLOBAL_UNCERTAINTY_ASSIGNED_CONTEXT ( ( #116 ) ) GLOBAL_UNIT_ASSIGNED_CONTEXT ( ( #191, #235, #215 ) ) REPRESENTATION_CONTEXT ( 'NONE', 'WORKASPACE' ) );
#4 = CYLINDRICAL_SURFACE ( 'NONE', #216, 0.09375000000000004163 ) ;
#5 = SURFACE_SIDE_STYLE ('',( #201 ) ) ;
#6 = FILL_AREA_STYLE ('',( #144 ) ) ;
#7 = CIRCLE ( 'NONE', #243, 0.09375000000000001388 ) ;
#8 =( NAMED_UNIT ( * ) SI_UNIT ( $, .STERADIAN. ) SOLID_ANGLE_UNIT ( ) );
#9 = CARTESIAN_POINT ( 'NONE',  ( 0.09374999999999997224, 2.500000000000000000, 1.148106374200644171E-17 ) ) ;
#10 = CARTESIAN_POINT ( 'NONE',  ( 0.000000000000000000, 0.7500000000000001110, 0.000000000000000000 ) ) ;
#11 = AXIS2_PLACEMENT_3D ( 'NONE', #257, #289, #184 ) ;
#12 = DIRECTION ( 'NONE',  ( 0.000000000000000000, 0.000000000000000000, -1.000000000000000000 ) ) ;
#13 = PRESENTATION_LAYER_ASSIGNMENT (  '', '', ( #292 ) ) ;
#14 =( NAMED_UNIT ( * ) SI_UNIT ( $, .STERADIAN. ) SOLID_ANGLE_UNIT ( ) );
#15 = ORIENTED_EDGE ( 'NONE', *, *, #300, .F. ) ;
#16 = CARTESIAN_POINT ( 'NONE',  ( 0.000000000000000000, 0.000000000000000000, 0.000000000000000000 ) ) ;
#17 =( LENGTH_UNIT ( ) NAMED_UNIT ( * ) SI_UNIT ( $, .METRE. ) );
#18 = AXIS2_PLACEMENT_3D ( 'NONE', #199, #99, #242 ) ;
#19 = PRESENTATION_STYLE_ASSIGNMENT (( #112 ) ) ;
#20 = VERTEX_POINT ( 'NONE', #252 ) ;
#21 = UNCERTAINTY_MEASURE_WITH_UNIT (LENGTH_MEASURE( 1.000000000000000082E-05 ), #301, 'distance_accuracy_value', 'NONE');
#22 = PRESENTATION_STYLE_ASSIGNMENT (( #48 ) ) ;
#23 =( LENGTH_UNIT ( ) NAMED_UNIT ( * ) SI_UNIT ( $, .METRE. ) );
#24 = VERTEX_POINT ( 'NONE', #138 ) ;
#25 = UNCERTAINTY_MEASURE_WITH_UNIT (LENGTH_MEASURE( 1.000000000000000082E-05 ), #163, 'distance_accuracy_value', 'NONE');
#26 =( NAMED_UNIT ( * ) PLANE_ANGLE_UNIT ( ) SI_UNIT ( $, .RADIAN. ) );
#27 = STYLED_ITEM ( 'NONE', ( #221 ), #133 ) ;
#28 = EDGE_CURVE ( 'NONE', #278, #234, #239, .T. ) ;
#29 = PLANE ( 'NONE',  #118 ) ;
#30 = ORIENTED_EDGE ( 'NONE', *, *, #79, .F. ) ;
#31 = CARTESIAN_POINT ( 'NONE',  ( 0.000000000000000000, 0.000000000000000000, -0.09375000000000001388 ) ) ;
#32 = VECTOR ( 'NONE', #77, 39.37007874015748143 ) ;
#33 = PRODUCT_RELATED_PRODUCT_CATEGORY ( 'part', '', ( #264 ) ) ;
#34 =( CONVERSION_BASED_UNIT ( 'INCH', #244 ) LENGTH_UNIT ( ) NAMED_UNIT ( #174 ) );
#35 = AXIS2_PLACEMENT_3D ( 'NONE', #280, #159, #187 ) ;
#36 = ORIENTED_EDGE ( 'NONE', *, *, #300, .T. ) ;
#37 = VERTEX_POINT ( 'NONE', #192 ) ;
#38 = DIRECTION ( 'NONE',  ( -3.498990854706722745E-17, 1.000000000000000000, -0.000000000000000000 ) ) ;
#39 = AXIS2_PLACEMENT_3D ( 'NONE', #2, #95, #65 ) ;
#40 = FILL_AREA_STYLE ('',( #155 ) ) ;
#41 = COLOUR_RGB ( '',1.000000000000000000, 0.000000000000000000, 0.000000000000000000 ) ;
#42 = ADVANCED_FACE ( 'NONE', ( #140 ), #166, .T. ) ;
#43 = PRODUCT_DEFINITION_SHAPE ( 'NONE', 'NONE',  #279 ) ;
#44 = ORIENTED_EDGE ( 'NONE', *, *, #103, .T. ) ;
#45 =( NAMED_UNIT ( * ) SI_UNIT ( $, .STERADIAN. ) SOLID_ANGLE_UNIT ( ) );
#46 = ADVANCED_BREP_SHAPE_REPRESENTATION ( '00120', ( #93, #83, #35 ), #3 ) ;
#47 = CARTESIAN_POINT ( 'NONE',  ( -7.582401355855259480E-33, 0.7499999999999998890, 0.000000000000000000 ) ) ;
#48 = SURFACE_STYLE_USAGE ( .BOTH. , #236 ) ;
#49 = DIRECTION ( 'NONE',  ( -0.000000000000000000, -1.000000000000000000, -0.000000000000000000 ) ) ;
#50 =( NAMED_UNIT ( * ) SI_UNIT ( $, .STERADIAN. ) SOLID_ANGLE_UNIT ( ) );
#51 = DIRECTION ( 'NONE',  ( -1.000000000000000000, 0.000000000000000000, 0.000000000000000000 ) ) ;
#52 = COLOUR_RGB ( '',1.000000000000000000, 0.000000000000000000, 0.000000000000000000 ) ;
#53 = DIRECTION ( 'NONE',  ( 0.000000000000000000, -0.000000000000000000, 1.000000000000000000 ) ) ;
#54 = LINE ( 'NONE', #31, #32 ) ;
#55 = ORIENTED_EDGE ( 'NONE', *, *, #189, .F. ) ;
#56 = ORIENTED_EDGE ( 'NONE', *, *, #28, .F. ) ;
#57 = DIRECTION ( 'NONE',  ( -3.498990854706722745E-17, 1.000000000000000000, -0.000000000000000000 ) ) ;
#58 = PRESENTATION_LAYER_ASSIGNMENT (  '', '', ( #247 ) ) ;
#59 = AXIS2_PLACEMENT_3D ( 'NONE', #276, #302, #299 ) ;
#60 = FACE_OUTER_BOUND ( 'NONE', #269, .T. ) ;
#61 = ORIENTED_EDGE ( 'NONE', *, *, #246, .F. ) ;
#62 = ORIENTED_EDGE ( 'NONE', *, *, #79, .T. ) ;
#63 = CARTESIAN_POINT ( 'NONE',  ( 0.000000000000000000, 0.000000000000000000, 0.000000000000000000 ) ) ;
#64 = LINE ( 'NONE', #309, #87 ) ;
#65 = DIRECTION ( 'NONE',  ( -1.000000000000000000, 0.000000000000000000, 0.000000000000000000 ) ) ;
#66 = CARTESIAN_POINT ( 'NONE',  ( 0.000000000000000000, 0.000000000000000000, 0.000000000000000000 ) ) ;
#67 = UNCERTAINTY_MEASURE_WITH_UNIT (LENGTH_MEASURE( 1.000000000000000082E-05 ), #114, 'distance_accuracy_value', 'NONE');
#68 = SURFACE_STYLE_FILL_AREA ( #135 ) ;
#69 = CARTESIAN_POINT ( 'NONE',  ( -6.123233995736766036E-17, 2.500000000000000000, 0.000000000000000000 ) ) ;
#70 = CLOSED_SHELL ( 'NONE', ( #42, #261, #73, #219 ) ) ;
#71 = PRESENTATION_LAYER_ASSIGNMENT (  '', '', ( #111 ) ) ;
#72 = LENGTH_MEASURE_WITH_UNIT ( LENGTH_MEASURE( 0.02539999999999999897 ), #288 );
#73 = ADVANCED_FACE ( 'NONE', ( #141 ), #4, .T. ) ;
#74 = SURFACE_SIDE_STYLE ('',( #293 ) ) ;
#75 = SURFACE_STYLE_USAGE ( .BOTH. , #74 ) ;
#76 = COLOUR_RGB ( '',0.7921568627450980005, 0.8196078431372548767, 0.9333333333333333481 ) ;
#77 = DIRECTION ( 'NONE',  ( -0.000000000000000000, -1.000000000000000000, -0.000000000000000000 ) ) ;
#78 = CARTESIAN_POINT ( 'NONE',  ( 0.09375000000000001388, 0.7499999999999998890, 1.148106374200644325E-17 ) ) ;
#79 = EDGE_CURVE ( 'NONE', #20, #150, #222, .T. ) ;
#80 = LENGTH_MEASURE_WITH_UNIT ( LENGTH_MEASURE( 0.02539999999999999897 ), #17 );
#81 = VERTEX_POINT ( 'NONE', #193 ) ;
#82 = PRESENTATION_LAYER_ASSIGNMENT (  '', '', ( #195 ) ) ;
#83 = MANIFOLD_SOLID_BREP ( 'Revolve - Tool Body (Straight Shanked)', #70 ) ;
#84 =( NAMED_UNIT ( * ) PLANE_ANGLE_UNIT ( ) SI_UNIT ( $, .RADIAN. ) );
#85 = CARTESIAN_POINT ( 'NONE',  ( -0.09375000000000011102, 2.500000000000000000, 0.000000000000000000 ) ) ;
#86 = DIRECTION ( 'NONE',  ( 0.000000000000000000, -1.000000000000000000, -0.000000000000000000 ) ) ;
#87 = VECTOR ( 'NONE', #258, 39.37007874015748143 ) ;
#88 = PRODUCT_CONTEXT ( 'NONE', #294, 'mechanical' ) ;
#89 = PRESENTATION_STYLE_ASSIGNMENT (( #208 ) ) ;
#90 = DIRECTION ( 'NONE',  ( -3.498990854706722745E-17, 1.000000000000000000, -0.000000000000000000 ) ) ;
#91 = ORIENTED_EDGE ( 'NONE', *, *, #273, .T. ) ;
#92 =( LENGTH_UNIT ( ) NAMED_UNIT ( * ) SI_UNIT ( $, .METRE. ) );
#93 = MANIFOLD_SOLID_BREP ( 'Revolve - Cutting Edge', #171 ) ;
#94 = AXIS2_PLACEMENT_3D ( 'NONE', #66, #158, #139 ) ;
#95 = DIRECTION ( 'NONE',  ( -3.498990854706722745E-17, 1.000000000000000000, -0.000000000000000000 ) ) ;
#96 = EDGE_CURVE ( 'NONE', #234, #278, #7, .T. ) ;
#97 = CARTESIAN_POINT ( 'NONE',  ( -6.123233995736766036E-17, 2.500000000000000000, 0.000000000000000000 ) ) ;
#98 = AXIS2_PLACEMENT_3D ( 'NONE', #202, #38, #275 ) ;
#99 = DIRECTION ( 'NONE',  ( -0.000000000000000000, -1.000000000000000000, -0.000000000000000000 ) ) ;
#100 = SURFACE_STYLE_USAGE ( .BOTH. , #5 ) ;
#101 =( NAMED_UNIT ( * ) PLANE_ANGLE_UNIT ( ) SI_UNIT ( $, .RADIAN. ) );
#102 = VECTOR ( 'NONE', #57, 39.37007874015748143 ) ;
#103 = EDGE_CURVE ( 'NONE', #150, #20, #176, .T. ) ;
#104 = CARTESIAN_POINT ( 'NONE',  ( 0.09375000000000001388, 2.500000000000000000, 0.000000000000000000 ) ) ;
#105 = MECHANICAL_DESIGN_GEOMETRIC_PRESENTATION_REPRESENTATION (  '', ( #195 ), #291 ) ;
#106 = CIRCLE ( 'NONE', #59, 0.09375000000000001388 ) ;
#107 = FILL_AREA_STYLE ('',( #253 ) ) ;
#108 = EDGE_LOOP ( 'NONE', ( #62, #36, #229, #122 ) ) ;
#109 = AXIS2_PLACEMENT_3D ( 'NONE', #263, #160, #232 ) ;
#110 = CARTESIAN_POINT ( 'NONE',  ( -0.09375000000000001388, 0.7499999999999998890, 0.000000000000000000 ) ) ;
#111 = STYLED_ITEM ( 'NONE', ( #89 ), #281 ) ;
#112 = SURFACE_STYLE_USAGE ( .BOTH. , #241 ) ;
#113 = ORIENTED_EDGE ( 'NONE', *, *, #96, .T. ) ;
#114 =( CONVERSION_BASED_UNIT ( 'INCH', #285 ) LENGTH_UNIT ( ) NAMED_UNIT ( #130 ) );
#115 = LENGTH_MEASURE_WITH_UNIT ( LENGTH_MEASURE( 0.02539999999999999897 ), #23 );
#116 = UNCERTAINTY_MEASURE_WITH_UNIT (LENGTH_MEASURE( 1.000000000000000082E-05 ), #191, 'distance_accuracy_value', 'NONE');
#117 = LENGTH_MEASURE_WITH_UNIT ( LENGTH_MEASURE( 0.02539999999999999897 ), #284 );
#118 = AXIS2_PLACEMENT_3D ( 'NONE', #272, #86, #270 ) ;
#119 = FILL_AREA_STYLE ('',( #238 ) ) ;
#120 = DIRECTION ( 'NONE',  ( -1.000000000000000000, 0.000000000000000000, 0.000000000000000000 ) ) ;
#121 = CIRCLE ( 'NONE', #181, 0.09375000000000006939 ) ;
#122 = ORIENTED_EDGE ( 'NONE', *, *, #127, .F. ) ;
#123 = APPLICATION_CONTEXT ( 'automotive_design' ) ;
#124 = CARTESIAN_POINT ( 'NONE',  ( 1.148106374200643863E-17, 0.7500000000000001110, 0.09375000000000001388 ) ) ;
#125 = PRESENTATION_LAYER_ASSIGNMENT (  '', '', ( #27 ) ) ;
#126 = FACE_OUTER_BOUND ( 'NONE', #308, .T. ) ;
#127 = EDGE_CURVE ( 'NONE', #20, #81, #54, .T. ) ;
#128 = ORIENTED_EDGE ( 'NONE', *, *, #96, .F. ) ;
#129 = DIMENSIONAL_EXPONENTS ( 1.000000000000000000, 0.000000000000000000, 0.000000000000000000, 0.000000000000000000, 0.000000000000000000, 0.000000000000000000, 0.000000000000000000 ) ;
#130 = DIMENSIONAL_EXPONENTS ( 1.000000000000000000, 0.000000000000000000, 0.000000000000000000, 0.000000000000000000, 0.000000000000000000, 0.000000000000000000, 0.000000000000000000 ) ;
#131 = EDGE_CURVE ( 'NONE', #234, #37, #198, .T. ) ;
#132 = ORIENTED_EDGE ( 'NONE', *, *, #249, .T. ) ;
#133 = ADVANCED_FACE ( 'NONE', ( #220 ), #146, .T. ) ;
#134 =( NAMED_UNIT ( * ) SI_UNIT ( $, .STERADIAN. ) SOLID_ANGLE_UNIT ( ) );
#135 = FILL_AREA_STYLE ('',( #161 ) ) ;
#136 = ORIENTED_EDGE ( 'NONE', *, *, #131, .T. ) ;
#137 = CYLINDRICAL_SURFACE ( 'NONE', #271, 0.09375000000000001388 ) ;
#138 = CARTESIAN_POINT ( 'NONE',  ( -0.09375000000000013878, 2.500000000000000000, 0.000000000000000000 ) ) ;
#139 = DIRECTION ( 'NONE',  ( 0.000000000000000000, 0.000000000000000000, -1.000000000000000000 ) ) ;
#140 = FACE_OUTER_BOUND ( 'NONE', #142, .T. ) ;
#141 = FACE_OUTER_BOUND ( 'NONE', #157, .T. ) ;
#142 = EDGE_LOOP ( 'NONE', ( #170, #136, #211, #245 ) ) ;
#143 =( GEOMETRIC_REPRESENTATION_CONTEXT ( 3 ) GLOBAL_UNCERTAINTY_ASSIGNED_CONTEXT ( ( #25 ) ) GLOBAL_UNIT_ASSIGNED_CONTEXT ( ( #163, #165, #50 ) ) REPRESENTATION_CONTEXT ( 'NONE', 'WORKASPACE' ) );
#144 = FILL_AREA_STYLE_COLOUR ( '', #240 ) ;
#145 = PRODUCT_DEFINITION_FORMATION_WITH_SPECIFIED_SOURCE ( 'ANY', '', #264, .NOT_KNOWN. ) ;
#146 = PLANE ( 'NONE',  #248 ) ;
#147 = ADVANCED_FACE ( 'NONE', ( #169 ), #29, .T. ) ;
#148 = FILL_AREA_STYLE ('',( #268 ) ) ;
#149 =( GEOMETRIC_REPRESENTATION_CONTEXT ( 3 ) GLOBAL_UNCERTAINTY_ASSIGNED_CONTEXT ( ( #21 ) ) GLOBAL_UNIT_ASSIGNED_CONTEXT ( ( #301, #84, #134 ) ) REPRESENTATION_CONTEXT ( 'NONE', 'WORKASPACE' ) );
#150 = VERTEX_POINT ( 'NONE', #124 ) ;
#151 = DIRECTION ( 'NONE',  ( 3.498990854706722745E-17, -1.000000000000000000, 0.000000000000000000 ) ) ;
#152 = ORIENTED_EDGE ( 'NONE', *, *, #194, .T. ) ;
#153 = DIMENSIONAL_EXPONENTS ( 1.000000000000000000, 0.000000000000000000, 0.000000000000000000, 0.000000000000000000, 0.000000000000000000, 0.000000000000000000, 0.000000000000000000 ) ;
#154 = PRESENTATION_LAYER_ASSIGNMENT (  '', '', ( #223 ) ) ;
#155 = FILL_AREA_STYLE_COLOUR ( '', #52 ) ;
#156 = PLANE ( 'NONE',  #295 ) ;
#157 = EDGE_LOOP ( 'NONE', ( #227, #113, #132, #61 ) ) ;
#158 = DIRECTION ( 'NONE',  ( -0.000000000000000000, -1.000000000000000000, -0.000000000000000000 ) ) ;
#159 = DIRECTION ( 'NONE',  ( 0.000000000000000000, 0.000000000000000000, 1.000000000000000000 ) ) ;
#160 = DIRECTION ( 'NONE',  ( -3.498990854706722745E-17, 1.000000000000000000, -0.000000000000000000 ) ) ;
#161 = FILL_AREA_STYLE_COLOUR ( '', #76 ) ;
#162 = DIRECTION ( 'NONE',  ( -1.000000000000000000, 0.000000000000000000, 0.000000000000000000 ) ) ;
#163 =( CONVERSION_BASED_UNIT ( 'INCH', #188 ) LENGTH_UNIT ( ) NAMED_UNIT ( #206 ) );
#164 = APPLICATION_PROTOCOL_DEFINITION ( 'draft international standard', 'automotive_design', 1998, #123 ) ;
#165 =( NAMED_UNIT ( * ) PLANE_ANGLE_UNIT ( ) SI_UNIT ( $, .RADIAN. ) );
#166 = CYLINDRICAL_SURFACE ( 'NONE', #109, 0.09375000000000004163 ) ;
#167 = MECHANICAL_DESIGN_GEOMETRIC_PRESENTATION_REPRESENTATION (  '', ( #223 ), #172 ) ;
#168 = DIRECTION ( 'NONE',  ( -3.498990854706722745E-17, 1.000000000000000000, -0.000000000000000000 ) ) ;
#169 = FACE_OUTER_BOUND ( 'NONE', #297, .T. ) ;
#170 = ORIENTED_EDGE ( 'NONE', *, *, #28, .T. ) ;
#171 = CLOSED_SHELL ( 'NONE', ( #305, #133, #281, #147 ) ) ;
#172 =( GEOMETRIC_REPRESENTATION_CONTEXT ( 3 ) GLOBAL_UNCERTAINTY_ASSIGNED_CONTEXT ( ( #217 ) ) GLOBAL_UNIT_ASSIGNED_CONTEXT ( ( #175, #296, #14 ) ) REPRESENTATION_CONTEXT ( 'NONE', 'WORKASPACE' ) );
#173 = LINE ( 'NONE', #85, #102 ) ;
#174 = DIMENSIONAL_EXPONENTS ( 1.000000000000000000, 0.000000000000000000, 0.000000000000000000, 0.000000000000000000, 0.000000000000000000, 0.000000000000000000, 0.000000000000000000 ) ;
#175 =( CONVERSION_BASED_UNIT ( 'INCH', #80 ) LENGTH_UNIT ( ) NAMED_UNIT ( #204 ) );
#176 = CIRCLE ( 'NONE', #18, 0.09375000000000001388 ) ;
#177 = ORIENTED_EDGE ( 'NONE', *, *, #103, .F. ) ;
#178 = DIRECTION ( 'NONE',  ( -0.000000000000000000, -1.000000000000000000, -0.000000000000000000 ) ) ;
#179 = CARTESIAN_POINT ( 'NONE',  ( 1.148106374200643863E-17, 0.000000000000000000, 0.09375000000000001388 ) ) ;
#180 = ORIENTED_EDGE ( 'NONE', *, *, #246, .T. ) ;
#181 = AXIS2_PLACEMENT_3D ( 'NONE', #69, #230, #162 ) ;
#182 = FACE_OUTER_BOUND ( 'NONE', #108, .T. ) ;
#183 = UNCERTAINTY_MEASURE_WITH_UNIT (LENGTH_MEASURE( 1.000000000000000082E-05 ), #290, 'distance_accuracy_value', 'NONE');
#184 = DIRECTION ( 'NONE',  ( 0.000000000000000000, 0.000000000000000000, -1.000000000000000000 ) ) ;
#185 = VERTEX_POINT ( 'NONE', #179 ) ;
#186 = SURFACE_STYLE_FILL_AREA ( #40 ) ;
#187 = DIRECTION ( 'NONE',  ( 1.000000000000000000, 0.000000000000000000, 0.000000000000000000 ) ) ;
#188 = LENGTH_MEASURE_WITH_UNIT ( LENGTH_MEASURE( 0.02539999999999999897 ), #214 );
#189 = EDGE_CURVE ( 'NONE', #185, #81, #106, .T. ) ;
#190 = MECHANICAL_DESIGN_GEOMETRIC_PRESENTATION_REPRESENTATION (  '', ( #292 ), #149 ) ;
#191 =( CONVERSION_BASED_UNIT ( 'INCH', #72 ) LENGTH_UNIT ( ) NAMED_UNIT ( #250 ) );
#192 = CARTESIAN_POINT ( 'NONE',  ( 0.09375000000000001388, 2.500000000000000000, 1.148106374200644325E-17 ) ) ;
#193 = CARTESIAN_POINT ( 'NONE',  ( 0.000000000000000000, 0.000000000000000000, -0.09375000000000001388 ) ) ;
#194 = EDGE_CURVE ( 'NONE', #81, #185, #298, .T. ) ;
#195 = STYLED_ITEM ( 'NONE', ( #19 ), #83 ) ;
#196 = COLOUR_RGB ( '',0.7921568627450980005, 0.8196078431372548767, 0.9333333333333333481 ) ;
#197 =( GEOMETRIC_REPRESENTATION_CONTEXT ( 3 ) GLOBAL_UNCERTAINTY_ASSIGNED_CONTEXT ( ( #209 ) ) GLOBAL_UNIT_ASSIGNED_CONTEXT ( ( #34, #101, #8 ) ) REPRESENTATION_CONTEXT ( 'NONE', 'WORKASPACE' ) );
#198 = LINE ( 'NONE', #9, #306 ) ;
#199 = CARTESIAN_POINT ( 'NONE',  ( 0.000000000000000000, 0.7500000000000001110, 0.000000000000000000 ) ) ;
#200 = AXIS2_PLACEMENT_3D ( 'NONE', #63, #178, #12 ) ;
#201 = SURFACE_STYLE_FILL_AREA ( #148 ) ;
#202 = CARTESIAN_POINT ( 'NONE',  ( -6.123233995736766036E-17, 2.500000000000000000, 0.000000000000000000 ) ) ;
#203 = EDGE_LOOP ( 'NONE', ( #15, #44, #259, #55 ) ) ;
#204 = DIMENSIONAL_EXPONENTS ( 1.000000000000000000, 0.000000000000000000, 0.000000000000000000, 0.000000000000000000, 0.000000000000000000, 0.000000000000000000, 0.000000000000000000 ) ;
#205 = MECHANICAL_DESIGN_GEOMETRIC_PRESENTATION_REPRESENTATION (  '', ( #27 ), #197 ) ;
#206 = DIMENSIONAL_EXPONENTS ( 1.000000000000000000, 0.000000000000000000, 0.000000000000000000, 0.000000000000000000, 0.000000000000000000, 0.000000000000000000, 0.000000000000000000 ) ;
#207 = ORIENTED_EDGE ( 'NONE', *, *, #189, .T. ) ;
#208 = SURFACE_STYLE_USAGE ( .BOTH. , #228 ) ;
#209 = UNCERTAINTY_MEASURE_WITH_UNIT (LENGTH_MEASURE( 1.000000000000000082E-05 ), #34, 'distance_accuracy_value', 'NONE');
#210 = DIRECTION ( 'NONE',  ( -3.498990854706722745E-17, 1.000000000000000000, 0.000000000000000000 ) ) ;
#211 = ORIENTED_EDGE ( 'NONE', *, *, #273, .F. ) ;
#212 = DIRECTION ( 'NONE',  ( -1.000000000000000000, -3.498990854706722745E-17, 0.000000000000000000 ) ) ;
#213 = APPLICATION_PROTOCOL_DEFINITION ( 'draft international standard', 'automotive_design', 1998, #294 ) ;
#214 =( LENGTH_UNIT ( ) NAMED_UNIT ( * ) SI_UNIT ( $, .METRE. ) );
#215 =( NAMED_UNIT ( * ) SI_UNIT ( $, .STERADIAN. ) SOLID_ANGLE_UNIT ( ) );
#216 = AXIS2_PLACEMENT_3D ( 'NONE', #97, #262, #51 ) ;
#217 = UNCERTAINTY_MEASURE_WITH_UNIT (LENGTH_MEASURE( 1.000000000000000082E-05 ), #175, 'distance_accuracy_value', 'NONE');
#218 =( NAMED_UNIT ( * ) SI_UNIT ( $, .STERADIAN. ) SOLID_ANGLE_UNIT ( ) );
#219 = ADVANCED_FACE ( 'NONE', ( #60 ), #156, .F. ) ;
#220 = FACE_OUTER_BOUND ( 'NONE', #255, .T. ) ;
#221 = PRESENTATION_STYLE_ASSIGNMENT (( #100 ) ) ;
#222 = CIRCLE ( 'NONE', #11, 0.09375000000000001388 ) ;
#223 = STYLED_ITEM ( 'NONE', ( #267 ), #147 ) ;
#224 =( LENGTH_UNIT ( ) NAMED_UNIT ( * ) SI_UNIT ( $, .METRE. ) );
#225 =( GEOMETRIC_REPRESENTATION_CONTEXT ( 3 ) GLOBAL_UNCERTAINTY_ASSIGNED_CONTEXT ( ( #67 ) ) GLOBAL_UNIT_ASSIGNED_CONTEXT ( ( #114, #260, #45 ) ) REPRESENTATION_CONTEXT ( 'NONE', 'WORKASPACE' ) );
#226 = PLANE ( 'NONE',  #277 ) ;
#227 = ORIENTED_EDGE ( 'NONE', *, *, #131, .F. ) ;
#228 = SURFACE_SIDE_STYLE ('',( #186 ) ) ;
#229 = ORIENTED_EDGE ( 'NONE', *, *, #194, .F. ) ;
#230 = DIRECTION ( 'NONE',  ( -3.498990854706722745E-17, 1.000000000000000000, -0.000000000000000000 ) ) ;
#231 = MECHANICAL_DESIGN_GEOMETRIC_PRESENTATION_REPRESENTATION (  '', ( #247 ), #143 ) ;
#232 = DIRECTION ( 'NONE',  ( -1.000000000000000000, 0.000000000000000000, 0.000000000000000000 ) ) ;
#233 = CIRCLE ( 'NONE', #98, 0.09375000000000006939 ) ;
#234 = VERTEX_POINT ( 'NONE', #78 ) ;
#235 =( NAMED_UNIT ( * ) PLANE_ANGLE_UNIT ( ) SI_UNIT ( $, .RADIAN. ) );
#236 = SURFACE_SIDE_STYLE ('',( #282 ) ) ;
#237 = SURFACE_STYLE_FILL_AREA ( #107 ) ;
#238 = FILL_AREA_STYLE_COLOUR ( '', #196 ) ;
#239 = CIRCLE ( 'NONE', #39, 0.09375000000000001388 ) ;
#240 = COLOUR_RGB ( '',1.000000000000000000, 0.000000000000000000, 0.000000000000000000 ) ;
#241 = SURFACE_SIDE_STYLE ('',( #68 ) ) ;
#242 = DIRECTION ( 'NONE',  ( 0.000000000000000000, 0.000000000000000000, -1.000000000000000000 ) ) ;
#243 = AXIS2_PLACEMENT_3D ( 'NONE', #47, #90, #120 ) ;
#244 = LENGTH_MEASURE_WITH_UNIT ( LENGTH_MEASURE( 0.02539999999999999897 ), #224 );
#245 = ORIENTED_EDGE ( 'NONE', *, *, #249, .F. ) ;
#246 = EDGE_CURVE ( 'NONE', #37, #24, #233, .T. ) ;
#247 = STYLED_ITEM ( 'NONE', ( #22 ), #93 ) ;
#248 = AXIS2_PLACEMENT_3D ( 'NONE', #10, #266, #53 ) ;
#249 = EDGE_CURVE ( 'NONE', #278, #24, #173, .T. ) ;
#250 = DIMENSIONAL_EXPONENTS ( 1.000000000000000000, 0.000000000000000000, 0.000000000000000000, 0.000000000000000000, 0.000000000000000000, 0.000000000000000000, 0.000000000000000000 ) ;
#251 = CARTESIAN_POINT ( 'NONE',  ( 5.738876719369351455E-35, 0.7500000000000001110, 0.000000000000000000 ) ) ;
#252 = CARTESIAN_POINT ( 'NONE',  ( 0.000000000000000000, 0.7500000000000001110, -0.09375000000000001388 ) ) ;
#253 = FILL_AREA_STYLE_COLOUR ( '', #265 ) ;
#254 = DIRECTION ( 'NONE',  ( 1.000000000000000000, 3.498990854706722745E-17, 0.000000000000000000 ) ) ;
#255 = EDGE_LOOP ( 'NONE', ( #30, #177 ) ) ;
#256 = DIRECTION ( 'NONE',  ( 0.000000000000000000, 0.000000000000000000, -1.000000000000000000 ) ) ;
#257 = CARTESIAN_POINT ( 'NONE',  ( 0.000000000000000000, 0.7500000000000001110, 0.000000000000000000 ) ) ;
#258 = DIRECTION ( 'NONE',  ( -0.000000000000000000, -1.000000000000000000, -0.000000000000000000 ) ) ;
#259 = ORIENTED_EDGE ( 'NONE', *, *, #127, .T. ) ;
#260 =( NAMED_UNIT ( * ) PLANE_ANGLE_UNIT ( ) SI_UNIT ( $, .RADIAN. ) );
#261 = ADVANCED_FACE ( 'NONE', ( #126 ), #226, .F. ) ;
#262 = DIRECTION ( 'NONE',  ( -3.498990854706722745E-17, 1.000000000000000000, -0.000000000000000000 ) ) ;
#263 = CARTESIAN_POINT ( 'NONE',  ( -6.123233995736766036E-17, 2.500000000000000000, 0.000000000000000000 ) ) ;
#264 = PRODUCT ( '00120', '00120', '', ( #88 ) ) ;
#265 = COLOUR_RGB ( '',1.000000000000000000, 0.000000000000000000, 0.000000000000000000 ) ;
#266 = DIRECTION ( 'NONE',  ( 0.000000000000000000, 1.000000000000000000, 0.000000000000000000 ) ) ;
#267 = PRESENTATION_STYLE_ASSIGNMENT (( #75 ) ) ;
#268 = FILL_AREA_STYLE_COLOUR ( '', #41 ) ;
#269 = EDGE_LOOP ( 'NONE', ( #91, #180 ) ) ;
#270 = DIRECTION ( 'NONE',  ( 0.000000000000000000, 0.000000000000000000, -1.000000000000000000 ) ) ;
#271 = AXIS2_PLACEMENT_3D ( 'NONE', #16, #49, #256 ) ;
#272 = CARTESIAN_POINT ( 'NONE',  ( 0.000000000000000000, 0.000000000000000000, 0.000000000000000000 ) ) ;
#273 = EDGE_CURVE ( 'NONE', #24, #37, #121, .T. ) ;
#274 = CYLINDRICAL_SURFACE ( 'NONE', #94, 0.09375000000000001388 ) ;
#275 = DIRECTION ( 'NONE',  ( -1.000000000000000000, 0.000000000000000000, 0.000000000000000000 ) ) ;
#276 = CARTESIAN_POINT ( 'NONE',  ( 0.000000000000000000, 0.000000000000000000, 0.000000000000000000 ) ) ;
#277 = AXIS2_PLACEMENT_3D ( 'NONE', #251, #210, #212 ) ;
#278 = VERTEX_POINT ( 'NONE', #110 ) ;
#279 = PRODUCT_DEFINITION ( 'UNKNOWN', '', #145, #1 ) ;
#280 = CARTESIAN_POINT ( 'NONE',  ( 0.000000000000000000, 0.000000000000000000, 0.000000000000000000 ) ) ;
#281 = ADVANCED_FACE ( 'NONE', ( #307 ), #137, .T. ) ;
#282 = SURFACE_STYLE_FILL_AREA ( #119 ) ;
#283 = PRESENTATION_STYLE_ASSIGNMENT (( #304 ) ) ;
#284 =( LENGTH_UNIT ( ) NAMED_UNIT ( * ) SI_UNIT ( $, .METRE. ) );
#285 = LENGTH_MEASURE_WITH_UNIT ( LENGTH_MEASURE( 0.02539999999999999897 ), #92 );
#286 = SHAPE_DEFINITION_REPRESENTATION ( #43, #46 ) ;
#287 = MECHANICAL_DESIGN_GEOMETRIC_PRESENTATION_REPRESENTATION (  '', ( #111 ), #225 ) ;
#288 =( LENGTH_UNIT ( ) NAMED_UNIT ( * ) SI_UNIT ( $, .METRE. ) );
#289 = DIRECTION ( 'NONE',  ( -0.000000000000000000, -1.000000000000000000, -0.000000000000000000 ) ) ;
#290 =( CONVERSION_BASED_UNIT ( 'INCH', #117 ) LENGTH_UNIT ( ) NAMED_UNIT ( #129 ) );
#291 =( GEOMETRIC_REPRESENTATION_CONTEXT ( 3 ) GLOBAL_UNCERTAINTY_ASSIGNED_CONTEXT ( ( #183 ) ) GLOBAL_UNIT_ASSIGNED_CONTEXT ( ( #290, #26, #218 ) ) REPRESENTATION_CONTEXT ( 'NONE', 'WORKASPACE' ) );
#292 = STYLED_ITEM ( 'NONE', ( #283 ), #305 ) ;
#293 = SURFACE_STYLE_FILL_AREA ( #6 ) ;
#294 = APPLICATION_CONTEXT ( 'automotive_design' ) ;
#295 = AXIS2_PLACEMENT_3D ( 'NONE', #104, #151, #254 ) ;
#296 =( NAMED_UNIT ( * ) PLANE_ANGLE_UNIT ( ) SI_UNIT ( $, .RADIAN. ) );
#297 = EDGE_LOOP ( 'NONE', ( #152, #207 ) ) ;
#298 = CIRCLE ( 'NONE', #200, 0.09375000000000001388 ) ;
#299 = DIRECTION ( 'NONE',  ( 0.000000000000000000, 0.000000000000000000, -1.000000000000000000 ) ) ;
#300 = EDGE_CURVE ( 'NONE', #150, #185, #64, .T. ) ;
#301 =( CONVERSION_BASED_UNIT ( 'INCH', #115 ) LENGTH_UNIT ( ) NAMED_UNIT ( #153 ) );
#302 = DIRECTION ( 'NONE',  ( -0.000000000000000000, -1.000000000000000000, -0.000000000000000000 ) ) ;
#303 = SURFACE_SIDE_STYLE ('',( #237 ) ) ;
#304 = SURFACE_STYLE_USAGE ( .BOTH. , #303 ) ;
#305 = ADVANCED_FACE ( 'NONE', ( #182 ), #274, .T. ) ;
#306 = VECTOR ( 'NONE', #168, 39.37007874015748143 ) ;
#307 = FACE_OUTER_BOUND ( 'NONE', #203, .T. ) ;
#308 = EDGE_LOOP ( 'NONE', ( #56, #128 ) ) ;
#309 = CARTESIAN_POINT ( 'NONE',  ( 1.148106374200643863E-17, 0.000000000000000000, 0.09375000000000001388 ) ) ;
ENDSEC;
END-ISO-10303-21;
