ISO-10303-21;
HEADER;
FILE_DESCRIPTION (( 'STEP AP214' ),
    '1' );
FILE_NAME ('59725.STEP',
    '2023-07-24T15:29:29',
    ( '' ),
    ( '' ),
    'SwSTEP 2.0',
    'SolidWorks 2023',
    '' );
FILE_SCHEMA (( 'AUTOMOTIVE_DESIGN' ));
ENDSEC;

DATA;
#1 = DIRECTION ( 'NONE',  ( -0.000000000000000000, -1.000000000000000000, -0.000000000000000000 ) ) ;
#2 = PRESENTATION_LAYER_ASSIGNMENT (  '', '', ( #107 ) ) ;
#3 = DIRECTION ( 'NONE',  ( 0.000000000000000000, 0.000000000000000000, 1.000000000000000000 ) ) ;
#4 = PRESENTATION_LAYER_ASSIGNMENT (  '', '', ( #235 ) ) ;
#5 = DIRECTION ( 'NONE',  ( -1.576935716305902603E-16, 1.000000000000000000, 0.000000000000000000 ) ) ;
#6 = DIRECTION ( 'NONE',  ( -0.000000000000000000, -1.000000000000000000, -0.000000000000000000 ) ) ;
#7 = CARTESIAN_POINT ( 'NONE',  ( -1.714505518806293652E-15, 89.00000000000000000, 0.000000000000000000 ) ) ;
#8 =( NAMED_UNIT ( * ) SI_UNIT ( $, .STERADIAN. ) SOLID_ANGLE_UNIT ( ) );
#9 = CARTESIAN_POINT ( 'NONE',  ( 7.589415207398531038E-15, 30.00000000000000000, 0.000000000000000000 ) ) ;
#10 = CARTESIAN_POINT ( 'NONE',  ( 0.000000000000000000, 30.00000000000000000, 0.000000000000000000 ) ) ;
#11 = FILL_AREA_STYLE_COLOUR ( '', #268 ) ;
#12 = EDGE_LOOP ( 'NONE', ( #361, #137 ) ) ;
#13 = CARTESIAN_POINT ( 'NONE',  ( 1.224646799147353256E-15, 30.00000000000000000, 10.00000000000000000 ) ) ;
#14 = FACE_OUTER_BOUND ( 'NONE', #37, .T. ) ;
#15 = ADVANCED_FACE ( 'NONE', ( #255 ), #317, .T. ) ;
#16 = AXIS2_PLACEMENT_3D ( 'NONE', #59, #267, #205 ) ;
#17 = CIRCLE ( 'NONE', #54, 9.999999999999992895 ) ;
#18 = MANIFOLD_SOLID_BREP ( 'Revolve - Cutting Edge', #307 ) ;
#19 = ORIENTED_EDGE ( 'NONE', *, *, #334, .T. ) ;
#20 = EDGE_LOOP ( 'NONE', ( #134, #201 ) ) ;
#21 = EDGE_CURVE ( 'NONE', #369, #336, #35, .T. ) ;
#22 = ORIENTED_EDGE ( 'NONE', *, *, #330, .F. ) ;
#23 = COLOUR_RGB ( '',1.000000000000000000, 0.000000000000000000, 0.000000000000000000 ) ;
#24 = DIRECTION ( 'NONE',  ( -0.000000000000000000, -1.000000000000000000, -0.000000000000000000 ) ) ;
#25 = SURFACE_SIDE_STYLE ('',( #93 ) ) ;
#26 = CARTESIAN_POINT ( 'NONE',  ( -1.714505518806293849E-15, 89.00000000000000000, 0.000000000000000000 ) ) ;
#27 = AXIS2_PLACEMENT_3D ( 'NONE', #52, #175, #184 ) ;
#28 = FACE_OUTER_BOUND ( 'NONE', #309, .T. ) ;
#29 = COLOUR_RGB ( '',1.000000000000000000, 0.000000000000000000, 0.000000000000000000 ) ;
#30 = PLANE ( 'NONE',  #349 ) ;
#31 = SURFACE_SIDE_STYLE ('',( #215 ) ) ;
#32 = DIRECTION ( 'NONE',  ( 0.000000000000000000, 0.000000000000000000, 1.000000000000000000 ) ) ;
#33 = DIRECTION ( 'NONE',  ( 0.000000000000000000, -0.000000000000000000, 1.000000000000000000 ) ) ;
#34 = DIRECTION ( 'NONE',  ( -0.000000000000000000, -1.000000000000000000, -0.000000000000000000 ) ) ;
#35 = CIRCLE ( 'NONE', #360, 1.000000000000000888 ) ;
#36 = TOROIDAL_SURFACE ( 'NONE', #42, 9.000000000000001776, 1.000000000000000444 ) ;
#37 = EDGE_LOOP ( 'NONE', ( #249, #19, #108, #78 ) ) ;
#38 = CARTESIAN_POINT ( 'NONE',  ( 9.999999999999996447, 89.00000000000000000, 1.224646799147353059E-15 ) ) ;
#39 = EDGE_CURVE ( 'NONE', #195, #48, #85, .T. ) ;
#40 = FILL_AREA_STYLE_COLOUR ( '', #343 ) ;
#41 = STYLED_ITEM ( 'NONE', ( #365 ), #270 ) ;
#42 = AXIS2_PLACEMENT_3D ( 'NONE', #142, #260, #232 ) ;
#43 = ADVANCED_FACE ( 'NONE', ( #236 ), #348, .T. ) ;
#44 = VERTEX_POINT ( 'NONE', #62 ) ;
#45 = ORIENTED_EDGE ( 'NONE', *, *, #261, .T. ) ;
#46 = SURFACE_STYLE_FILL_AREA ( #302 ) ;
#47 = ORIENTED_EDGE ( 'NONE', *, *, #49, .F. ) ;
#48 = VERTEX_POINT ( 'NONE', #146 ) ;
#49 = EDGE_CURVE ( 'NONE', #196, #67, #283, .T. ) ;
#50 = DIRECTION ( 'NONE',  ( -1.000000000000000000, 0.000000000000000000, 0.000000000000000000 ) ) ;
#51 =( NAMED_UNIT ( * ) PLANE_ANGLE_UNIT ( ) SI_UNIT ( $, .RADIAN. ) );
#52 = CARTESIAN_POINT ( 'NONE',  ( 0.000000000000000000, 1.000000000000000000, 0.000000000000000000 ) ) ;
#53 = AXIS2_PLACEMENT_3D ( 'NONE', #342, #228, #256 ) ;
#54 = AXIS2_PLACEMENT_3D ( 'NONE', #150, #119, #370 ) ;
#55 = UNCERTAINTY_MEASURE_WITH_UNIT (LENGTH_MEASURE( 1.000000000000000082E-05 ), #102, 'distance_accuracy_value', 'NONE');
#56 = FILL_AREA_STYLE_COLOUR ( '', #109 ) ;
#57 = CARTESIAN_POINT ( 'NONE',  ( 0.000000000000000000, 0.000000000000000000, -10.00000000000000178 ) ) ;
#58 = SURFACE_STYLE_FILL_AREA ( #198 ) ;
#59 = CARTESIAN_POINT ( 'NONE',  ( 0.000000000000000000, 1.000000000000000000, 0.000000000000000000 ) ) ;
#60 = UNCERTAINTY_MEASURE_WITH_UNIT (LENGTH_MEASURE( 1.000000000000000082E-05 ), #257, 'distance_accuracy_value', 'NONE');
#61 = DIRECTION ( 'NONE',  ( 1.000000000000000000, 0.000000000000000000, 0.000000000000000000 ) ) ;
#62 = CARTESIAN_POINT ( 'NONE',  ( 1.224646799147353256E-15, 1.000000000000000000, 10.00000000000000178 ) ) ;
#63 = MECHANICAL_DESIGN_GEOMETRIC_PRESENTATION_REPRESENTATION (  '', ( #41 ), #274 ) ;
#64 = SURFACE_STYLE_USAGE ( .BOTH. , #158 ) ;
#65 = LINE ( 'NONE', #95, #163 ) ;
#66 = CARTESIAN_POINT ( 'NONE',  ( -9.999999999999985789, 30.00000000000000000, 0.000000000000000000 ) ) ;
#67 = VERTEX_POINT ( 'NONE', #322 ) ;
#68 =( GEOMETRIC_REPRESENTATION_CONTEXT ( 3 ) GLOBAL_UNCERTAINTY_ASSIGNED_CONTEXT ( ( #263 ) ) GLOBAL_UNIT_ASSIGNED_CONTEXT ( ( #213, #272, #211 ) ) REPRESENTATION_CONTEXT ( 'NONE', 'WORKASPACE' ) );
#69 = CIRCLE ( 'NONE', #101, 10.00000000000000178 ) ;
#70 =( NAMED_UNIT ( * ) PLANE_ANGLE_UNIT ( ) SI_UNIT ( $, .RADIAN. ) );
#71 = CARTESIAN_POINT ( 'NONE',  ( 0.000000000000000000, 0.000000000000000000, 0.000000000000000000 ) ) ;
#72 = ORIENTED_EDGE ( 'NONE', *, *, #39, .T. ) ;
#73 = APPLICATION_CONTEXT ( 'automotive_design' ) ;
#74 = AXIS2_PLACEMENT_3D ( 'NONE', #352, #299, #271 ) ;
#75 = ORIENTED_EDGE ( 'NONE', *, *, #289, .F. ) ;
#76 = PRESENTATION_STYLE_ASSIGNMENT (( #339 ) ) ;
#77 = EDGE_LOOP ( 'NONE', ( #227, #159, #72, #315 ) ) ;
#78 = ORIENTED_EDGE ( 'NONE', *, *, #112, .F. ) ;
#79 = AXIS2_PLACEMENT_3D ( 'NONE', #187, #128, #97 ) ;
#80 = DIRECTION ( 'NONE',  ( -0.000000000000000000, -1.000000000000000000, -0.000000000000000000 ) ) ;
#81 = ORIENTED_EDGE ( 'NONE', *, *, #261, .F. ) ;
#82 = FACE_OUTER_BOUND ( 'NONE', #135, .T. ) ;
#83 = CARTESIAN_POINT ( 'NONE',  ( -10.00000000000000000, 89.00000000000000000, 0.000000000000000000 ) ) ;
#84 = EDGE_CURVE ( 'NONE', #259, #48, #319, .T. ) ;
#85 = LINE ( 'NONE', #83, #147 ) ;
#86 = CIRCLE ( 'NONE', #27, 10.00000000000000178 ) ;
#87 = STYLED_ITEM ( 'NONE', ( #320 ), #296 ) ;
#88 = MECHANICAL_DESIGN_GEOMETRIC_PRESENTATION_REPRESENTATION (  '', ( #167 ), #350 ) ;
#89 = CYLINDRICAL_SURFACE ( 'NONE', #362, 10.00000000000000178 ) ;
#90 = DIRECTION ( 'NONE',  ( 0.000000000000000000, 0.000000000000000000, -1.000000000000000000 ) ) ;
#91 = APPLICATION_PROTOCOL_DEFINITION ( 'draft international standard', 'automotive_design', 1998, #222 ) ;
#92 = PRODUCT_DEFINITION_SHAPE ( 'NONE', 'NONE',  #335 ) ;
#93 = SURFACE_STYLE_FILL_AREA ( #290 ) ;
#94 =( LENGTH_UNIT ( ) NAMED_UNIT ( * ) SI_UNIT ( .MILLI., .METRE. ) );
#95 = CARTESIAN_POINT ( 'NONE',  ( 1.224646799147353454E-15, 0.000000000000000000, 10.00000000000000178 ) ) ;
#96 = PLANE ( 'NONE',  #338 ) ;
#97 = DIRECTION ( 'NONE',  ( -1.224646799147353454E-16, 0.000000000000000000, -1.000000000000000000 ) ) ;
#98 = PRODUCT_RELATED_PRODUCT_CATEGORY ( 'part', '', ( #301 ) ) ;
#99 = AXIS2_PLACEMENT_3D ( 'NONE', #71, #216, #279 ) ;
#100 = CARTESIAN_POINT ( 'NONE',  ( 10.00000000000000000, 89.00000000000000000, 1.224646799147353256E-15 ) ) ;
#101 = AXIS2_PLACEMENT_3D ( 'NONE', #243, #157, #326 ) ;
#102 =( LENGTH_UNIT ( ) NAMED_UNIT ( * ) SI_UNIT ( .MILLI., .METRE. ) );
#103 = CARTESIAN_POINT ( 'NONE',  ( -1.714505518806293652E-15, 89.00000000000000000, 0.000000000000000000 ) ) ;
#104 = ORIENTED_EDGE ( 'NONE', *, *, #112, .T. ) ;
#105 = ORIENTED_EDGE ( 'NONE', *, *, #356, .T. ) ;
#106 = UNCERTAINTY_MEASURE_WITH_UNIT (LENGTH_MEASURE( 1.000000000000000082E-05 ), #297, 'distance_accuracy_value', 'NONE');
#107 = STYLED_ITEM ( 'NONE', ( #281 ), #18 ) ;
#108 = ORIENTED_EDGE ( 'NONE', *, *, #356, .F. ) ;
#109 = COLOUR_RGB ( '',0.7921568627450980005, 0.8196078431372548767, 0.9333333333333333481 ) ;
#110 = CARTESIAN_POINT ( 'NONE',  ( 1.163414459189985682E-15, 0.000000000000000000, 9.000000000000001776 ) ) ;
#111 = ORIENTED_EDGE ( 'NONE', *, *, #84, .T. ) ;
#112 = EDGE_CURVE ( 'NONE', #67, #369, #181, .T. ) ;
#113 = FILL_AREA_STYLE ('',( #314 ) ) ;
#114 = CARTESIAN_POINT ( 'NONE',  ( 0.000000000000000000, 0.000000000000000000, 0.000000000000000000 ) ) ;
#115 = SURFACE_STYLE_USAGE ( .BOTH. , #25 ) ;
#116 = PRESENTATION_LAYER_ASSIGNMENT (  '', '', ( #190 ) ) ;
#117 = PRESENTATION_LAYER_ASSIGNMENT (  '', '', ( #167 ) ) ;
#118 = PRODUCT_CONTEXT ( 'NONE', #73, 'mechanical' ) ;
#119 = DIRECTION ( 'NONE',  ( -1.576935716305902603E-16, 1.000000000000000000, -0.000000000000000000 ) ) ;
#120 = FACE_OUTER_BOUND ( 'NONE', #20, .T. ) ;
#121 = PLANE ( 'NONE',  #194 ) ;
#122 = PRESENTATION_STYLE_ASSIGNMENT (( #115 ) ) ;
#123 = CLOSED_SHELL ( 'NONE', ( #280, #151, #15, #239 ) ) ;
#124 = COLOUR_RGB ( '',1.000000000000000000, 0.000000000000000000, 0.000000000000000000 ) ;
#125 = CARTESIAN_POINT ( 'NONE',  ( 0.000000000000000000, 0.000000000000000000, -9.000000000000001776 ) ) ;
#126 =( NAMED_UNIT ( * ) PLANE_ANGLE_UNIT ( ) SI_UNIT ( $, .RADIAN. ) );
#127 = ORIENTED_EDGE ( 'NONE', *, *, #209, .T. ) ;
#128 = DIRECTION ( 'NONE',  ( 1.000000000000000000, 0.000000000000000000, -1.224646799147353207E-16 ) ) ;
#129 = PRESENTATION_LAYER_ASSIGNMENT (  '', '', ( #337 ) ) ;
#130 = AXIS2_PLACEMENT_3D ( 'NONE', #103, #221, #333 ) ;
#131 = ORIENTED_EDGE ( 'NONE', *, *, #39, .F. ) ;
#132 = MECHANICAL_DESIGN_GEOMETRIC_PRESENTATION_REPRESENTATION (  '', ( #107 ), #161 ) ;
#133 = PRESENTATION_LAYER_ASSIGNMENT (  '', '', ( #41 ) ) ;
#134 = ORIENTED_EDGE ( 'NONE', *, *, #180, .T. ) ;
#135 = EDGE_LOOP ( 'NONE', ( #285, #312, #81, #131 ) ) ;
#136 = SURFACE_STYLE_USAGE ( .BOTH. , #233 ) ;
#137 = ORIENTED_EDGE ( 'NONE', *, *, #154, .F. ) ;
#138 = UNCERTAINTY_MEASURE_WITH_UNIT (LENGTH_MEASURE( 1.000000000000000082E-05 ), #275, 'distance_accuracy_value', 'NONE');
#139 =( GEOMETRIC_REPRESENTATION_CONTEXT ( 3 ) GLOBAL_UNCERTAINTY_ASSIGNED_CONTEXT ( ( #248 ) ) GLOBAL_UNIT_ASSIGNED_CONTEXT ( ( #173, #51, #344 ) ) REPRESENTATION_CONTEXT ( 'NONE', 'WORKASPACE' ) );
#140 = ORIENTED_EDGE ( 'NONE', *, *, #21, .F. ) ;
#141 = AXIS2_PLACEMENT_3D ( 'NONE', #264, #3, #61 ) ;
#142 = CARTESIAN_POINT ( 'NONE',  ( 0.000000000000000000, 1.000000000000000000, 0.000000000000000000 ) ) ;
#143 = DIRECTION ( 'NONE',  ( 0.000000000000000000, 0.000000000000000000, -1.000000000000000000 ) ) ;
#144 =( NAMED_UNIT ( * ) SI_UNIT ( $, .STERADIAN. ) SOLID_ANGLE_UNIT ( ) );
#145 =( NAMED_UNIT ( * ) SI_UNIT ( $, .STERADIAN. ) SOLID_ANGLE_UNIT ( ) );
#146 = CARTESIAN_POINT ( 'NONE',  ( -10.00000000000000355, 89.00000000000000000, 0.000000000000000000 ) ) ;
#147 = VECTOR ( 'NONE', #354, 1000.000000000000000 ) ;
#148 = MECHANICAL_DESIGN_GEOMETRIC_PRESENTATION_REPRESENTATION (  '', ( #235 ), #266 ) ;
#149 = EDGE_CURVE ( 'NONE', #44, #369, #86, .T. ) ;
#150 = CARTESIAN_POINT ( 'NONE',  ( 7.589415207398531038E-15, 30.00000000000000000, 0.000000000000000000 ) ) ;
#151 = ADVANCED_FACE ( 'NONE', ( #293 ), #30, .F. ) ;
#152 = PRESENTATION_STYLE_ASSIGNMENT (( #298 ) ) ;
#153 = PRESENTATION_STYLE_ASSIGNMENT (( #294 ) ) ;
#154 = EDGE_CURVE ( 'NONE', #340, #195, #17, .T. ) ;
#155 = AXIS2_PLACEMENT_3D ( 'NONE', #7, #318, #353 ) ;
#156 = MECHANICAL_DESIGN_GEOMETRIC_PRESENTATION_REPRESENTATION (  '', ( #87 ), #193 ) ;
#157 = DIRECTION ( 'NONE',  ( -0.000000000000000000, -1.000000000000000000, -0.000000000000000000 ) ) ;
#158 = SURFACE_SIDE_STYLE ('',( #46 ) ) ;
#159 = ORIENTED_EDGE ( 'NONE', *, *, #154, .T. ) ;
#160 = FILL_AREA_STYLE ('',( #40 ) ) ;
#161 =( GEOMETRIC_REPRESENTATION_CONTEXT ( 3 ) GLOBAL_UNCERTAINTY_ASSIGNED_CONTEXT ( ( #55 ) ) GLOBAL_UNIT_ASSIGNED_CONTEXT ( ( #102, #225, #203 ) ) REPRESENTATION_CONTEXT ( 'NONE', 'WORKASPACE' ) );
#162 =( GEOMETRIC_REPRESENTATION_CONTEXT ( 3 ) GLOBAL_UNCERTAINTY_ASSIGNED_CONTEXT ( ( #323 ) ) GLOBAL_UNIT_ASSIGNED_CONTEXT ( ( #273, #276, #305 ) ) REPRESENTATION_CONTEXT ( 'NONE', 'WORKASPACE' ) );
#163 = VECTOR ( 'NONE', #34, 1000.000000000000000 ) ;
#164 = SURFACE_STYLE_USAGE ( .BOTH. , #165 ) ;
#165 = SURFACE_SIDE_STYLE ('',( #308 ) ) ;
#166 = DIRECTION ( 'NONE',  ( -0.000000000000000000, -1.000000000000000000, -0.000000000000000000 ) ) ;
#167 = STYLED_ITEM ( 'NONE', ( #153 ), #311 ) ;
#168 = ORIENTED_EDGE ( 'NONE', *, *, #149, .T. ) ;
#169 = SURFACE_STYLE_FILL_AREA ( #113 ) ;
#170 = EDGE_LOOP ( 'NONE', ( #197, #168, #282, #75 ) ) ;
#171 = DIRECTION ( 'NONE',  ( -1.576935716305902603E-16, 1.000000000000000000, -0.000000000000000000 ) ) ;
#172 = FILL_AREA_STYLE_COLOUR ( '', #265 ) ;
#173 =( LENGTH_UNIT ( ) NAMED_UNIT ( * ) SI_UNIT ( .MILLI., .METRE. ) );
#174 = PRESENTATION_LAYER_ASSIGNMENT (  '', '', ( #182 ) ) ;
#175 = DIRECTION ( 'NONE',  ( -0.000000000000000000, -1.000000000000000000, -0.000000000000000000 ) ) ;
#176 =( NAMED_UNIT ( * ) PLANE_ANGLE_UNIT ( ) SI_UNIT ( $, .RADIAN. ) );
#177 = CARTESIAN_POINT ( 'NONE',  ( 0.000000000000000000, 30.00000000000000000, 0.000000000000000000 ) ) ;
#178 = PRODUCT_DEFINITION_CONTEXT ( 'detailed design', #222, 'design' ) ;
#179 = FILL_AREA_STYLE_COLOUR ( '', #23 ) ;
#180 = EDGE_CURVE ( 'NONE', #336, #287, #288, .T. ) ;
#181 = LINE ( 'NONE', #57, #250 ) ;
#182 = STYLED_ITEM ( 'NONE', ( #76 ), #269 ) ;
#183 = FILL_AREA_STYLE ('',( #11 ) ) ;
#184 = DIRECTION ( 'NONE',  ( 0.000000000000000000, 0.000000000000000000, -1.000000000000000000 ) ) ;
#185 = DIRECTION ( 'NONE',  ( 0.000000000000000000, 0.000000000000000000, -1.000000000000000000 ) ) ;
#186 = ADVANCED_FACE ( 'NONE', ( #120 ), #240, .T. ) ;
#187 = CARTESIAN_POINT ( 'NONE',  ( 1.102182119232617911E-15, 1.000000000000000000, 9.000000000000001776 ) ) ;
#188 =( NAMED_UNIT ( * ) PLANE_ANGLE_UNIT ( ) SI_UNIT ( $, .RADIAN. ) );
#189 = DIRECTION ( 'NONE',  ( 1.576935716305902603E-16, -1.000000000000000000, 0.000000000000000000 ) ) ;
#190 = STYLED_ITEM ( 'NONE', ( #310 ), #237 ) ;
#191 = APPLICATION_PROTOCOL_DEFINITION ( 'draft international standard', 'automotive_design', 1998, #73 ) ;
#192 = DIRECTION ( 'NONE',  ( 1.000000000000000000, 1.576935716305902603E-16, 0.000000000000000000 ) ) ;
#193 =( GEOMETRIC_REPRESENTATION_CONTEXT ( 3 ) GLOBAL_UNCERTAINTY_ASSIGNED_CONTEXT ( ( #291 ) ) GLOBAL_UNIT_ASSIGNED_CONTEXT ( ( #324, #176, #144 ) ) REPRESENTATION_CONTEXT ( 'NONE', 'WORKASPACE' ) );
#194 = AXIS2_PLACEMENT_3D ( 'NONE', #241, #212, #33 ) ;
#195 = VERTEX_POINT ( 'NONE', #66 ) ;
#196 = VERTEX_POINT ( 'NONE', #13 ) ;
#197 = ORIENTED_EDGE ( 'NONE', *, *, #209, .F. ) ;
#198 = FILL_AREA_STYLE ('',( #56 ) ) ;
#199 = AXIS2_PLACEMENT_3D ( 'NONE', #177, #347, #143 ) ;
#200 =( GEOMETRIC_REPRESENTATION_CONTEXT ( 3 ) GLOBAL_UNCERTAINTY_ASSIGNED_CONTEXT ( ( #138 ) ) GLOBAL_UNIT_ASSIGNED_CONTEXT ( ( #275, #126, #145 ) ) REPRESENTATION_CONTEXT ( 'NONE', 'WORKASPACE' ) );
#201 = ORIENTED_EDGE ( 'NONE', *, *, #289, .T. ) ;
#202 = DIRECTION ( 'NONE',  ( 0.000000000000000000, 0.000000000000000000, -1.000000000000000000 ) ) ;
#203 =( NAMED_UNIT ( * ) SI_UNIT ( $, .STERADIAN. ) SOLID_ANGLE_UNIT ( ) );
#204 =( NAMED_UNIT ( * ) PLANE_ANGLE_UNIT ( ) SI_UNIT ( $, .RADIAN. ) );
#205 = DIRECTION ( 'NONE',  ( 0.000000000000000000, 0.000000000000000000, -1.000000000000000000 ) ) ;
#206 = UNCERTAINTY_MEASURE_WITH_UNIT (LENGTH_MEASURE( 1.000000000000000082E-05 ), #94, 'distance_accuracy_value', 'NONE');
#207 = FILL_AREA_STYLE_COLOUR ( '', #29 ) ;
#208 = CIRCLE ( 'NONE', #304, 10.00000000000000000 ) ;
#209 = EDGE_CURVE ( 'NONE', #44, #287, #313, .T. ) ;
#210 = CARTESIAN_POINT ( 'NONE',  ( 0.000000000000000000, 1.000000000000000000, -10.00000000000000178 ) ) ;
#211 =( NAMED_UNIT ( * ) SI_UNIT ( $, .STERADIAN. ) SOLID_ANGLE_UNIT ( ) );
#212 = DIRECTION ( 'NONE',  ( 0.000000000000000000, 1.000000000000000000, 0.000000000000000000 ) ) ;
#213 =( LENGTH_UNIT ( ) NAMED_UNIT ( * ) SI_UNIT ( .MILLI., .METRE. ) );
#214 = AXIS2_PLACEMENT_3D ( 'NONE', #26, #171, #50 ) ;
#215 = SURFACE_STYLE_FILL_AREA ( #183 ) ;
#216 = DIRECTION ( 'NONE',  ( 0.000000000000000000, -1.000000000000000000, -0.000000000000000000 ) ) ;
#217 = ADVANCED_BREP_SHAPE_REPRESENTATION ( '59725', ( #18, #270, #141 ), #200 ) ;
#218 =( NAMED_UNIT ( * ) SI_UNIT ( $, .STERADIAN. ) SOLID_ANGLE_UNIT ( ) );
#219 = CARTESIAN_POINT ( 'NONE',  ( 0.000000000000000000, 0.000000000000000000, 0.000000000000000000 ) ) ;
#220 = AXIS2_PLACEMENT_3D ( 'NONE', #114, #1, #90 ) ;
#221 = DIRECTION ( 'NONE',  ( -1.576935716305902603E-16, 1.000000000000000000, -0.000000000000000000 ) ) ;
#222 = APPLICATION_CONTEXT ( 'automotive_design' ) ;
#223 = ORIENTED_EDGE ( 'NONE', *, *, #180, .F. ) ;
#224 = EDGE_CURVE ( 'NONE', #340, #259, #278, .T. ) ;
#225 =( NAMED_UNIT ( * ) PLANE_ANGLE_UNIT ( ) SI_UNIT ( $, .RADIAN. ) );
#226 = FACE_OUTER_BOUND ( 'NONE', #170, .T. ) ;
#227 = ORIENTED_EDGE ( 'NONE', *, *, #224, .F. ) ;
#228 = DIRECTION ( 'NONE',  ( -1.576935716305902603E-16, 1.000000000000000000, -0.000000000000000000 ) ) ;
#229 = CIRCLE ( 'NONE', #130, 10.00000000000000178 ) ;
#230 = CARTESIAN_POINT ( 'NONE',  ( 0.000000000000000000, 1.000000000000000000, -9.000000000000001776 ) ) ;
#231 = FILL_AREA_STYLE ('',( #172 ) ) ;
#232 = DIRECTION ( 'NONE',  ( 0.000000000000000000, 0.000000000000000000, -1.000000000000000000 ) ) ;
#233 = SURFACE_SIDE_STYLE ('',( #58 ) ) ;
#234 = MECHANICAL_DESIGN_GEOMETRIC_PRESENTATION_REPRESENTATION (  '', ( #337 ), #68 ) ;
#235 = STYLED_ITEM ( 'NONE', ( #152 ), #186 ) ;
#236 = FACE_OUTER_BOUND ( 'NONE', #345, .T. ) ;
#237 = ADVANCED_FACE ( 'NONE', ( #14 ), #244, .T. ) ;
#238 = SHAPE_DEFINITION_REPRESENTATION ( #92, #217 ) ;
#239 = ADVANCED_FACE ( 'NONE', ( #331 ), #96, .F. ) ;
#240 = PLANE ( 'NONE',  #99 ) ;
#241 = CARTESIAN_POINT ( 'NONE',  ( 0.000000000000000000, 30.00000000000000000, 0.000000000000000000 ) ) ;
#242 = CIRCLE ( 'NONE', #74, 9.999999999999992895 ) ;
#243 = CARTESIAN_POINT ( 'NONE',  ( 0.000000000000000000, 1.000000000000000000, 0.000000000000000000 ) ) ;
#244 = CYLINDRICAL_SURFACE ( 'NONE', #303, 10.00000000000000178 ) ;
#245 = ORIENTED_EDGE ( 'NONE', *, *, #49, .T. ) ;
#246 = CARTESIAN_POINT ( 'NONE',  ( 10.00000000000000000, 89.00000000000000000, 0.000000000000000000 ) ) ;
#247 = VECTOR ( 'NONE', #329, 1000.000000000000000 ) ;
#248 = UNCERTAINTY_MEASURE_WITH_UNIT (LENGTH_MEASURE( 1.000000000000000082E-05 ), #173, 'distance_accuracy_value', 'NONE');
#249 = ORIENTED_EDGE ( 'NONE', *, *, #330, .T. ) ;
#250 = VECTOR ( 'NONE', #351, 1000.000000000000000 ) ;
#251 = PRESENTATION_LAYER_ASSIGNMENT (  '', '', ( #87 ) ) ;
#252 = SURFACE_STYLE_FILL_AREA ( #160 ) ;
#253 = PRODUCT_DEFINITION_FORMATION_WITH_SPECIFIED_SOURCE ( 'ANY', '', #301, .NOT_KNOWN. ) ;
#254 = DIRECTION ( 'NONE',  ( 0.000000000000000000, 0.000000000000000000, -1.000000000000000000 ) ) ;
#255 = FACE_OUTER_BOUND ( 'NONE', #77, .T. ) ;
#256 = DIRECTION ( 'NONE',  ( -1.000000000000000000, 0.000000000000000000, 0.000000000000000000 ) ) ;
#257 =( LENGTH_UNIT ( ) NAMED_UNIT ( * ) SI_UNIT ( .MILLI., .METRE. ) );
#258 = COLOUR_RGB ( '',1.000000000000000000, 0.000000000000000000, 0.000000000000000000 ) ;
#259 = VERTEX_POINT ( 'NONE', #100 ) ;
#260 = DIRECTION ( 'NONE',  ( -0.000000000000000000, -1.000000000000000000, -0.000000000000000000 ) ) ;
#261 = EDGE_CURVE ( 'NONE', #48, #259, #229, .T. ) ;
#262 = DIRECTION ( 'NONE',  ( -1.000000000000000000, -1.576935716305902603E-16, 0.000000000000000000 ) ) ;
#263 = UNCERTAINTY_MEASURE_WITH_UNIT (LENGTH_MEASURE( 1.000000000000000082E-05 ), #213, 'distance_accuracy_value', 'NONE');
#264 = CARTESIAN_POINT ( 'NONE',  ( 0.000000000000000000, 0.000000000000000000, 0.000000000000000000 ) ) ;
#265 = COLOUR_RGB ( '',0.7921568627450980005, 0.8196078431372548767, 0.9333333333333333481 ) ;
#266 =( GEOMETRIC_REPRESENTATION_CONTEXT ( 3 ) GLOBAL_UNCERTAINTY_ASSIGNED_CONTEXT ( ( #206 ) ) GLOBAL_UNIT_ASSIGNED_CONTEXT ( ( #94, #70, #218 ) ) REPRESENTATION_CONTEXT ( 'NONE', 'WORKASPACE' ) );
#267 = DIRECTION ( 'NONE',  ( -0.000000000000000000, -1.000000000000000000, -0.000000000000000000 ) ) ;
#268 = COLOUR_RGB ( '',1.000000000000000000, 0.000000000000000000, 0.000000000000000000 ) ;
#269 = ADVANCED_FACE ( 'NONE', ( #226 ), #36, .T. ) ;
#270 = MANIFOLD_SOLID_BREP ( 'Revolve - Tool Body (Straight Shanked)', #123 ) ;
#271 = DIRECTION ( 'NONE',  ( -1.000000000000000000, 0.000000000000000000, 0.000000000000000000 ) ) ;
#272 =( NAMED_UNIT ( * ) PLANE_ANGLE_UNIT ( ) SI_UNIT ( $, .RADIAN. ) );
#273 =( LENGTH_UNIT ( ) NAMED_UNIT ( * ) SI_UNIT ( .MILLI., .METRE. ) );
#274 =( GEOMETRIC_REPRESENTATION_CONTEXT ( 3 ) GLOBAL_UNCERTAINTY_ASSIGNED_CONTEXT ( ( #60 ) ) GLOBAL_UNIT_ASSIGNED_CONTEXT ( ( #257, #204, #368 ) ) REPRESENTATION_CONTEXT ( 'NONE', 'WORKASPACE' ) );
#275 =( LENGTH_UNIT ( ) NAMED_UNIT ( * ) SI_UNIT ( .MILLI., .METRE. ) );
#276 =( NAMED_UNIT ( * ) PLANE_ANGLE_UNIT ( ) SI_UNIT ( $, .RADIAN. ) );
#277 = EDGE_LOOP ( 'NONE', ( #45, #111 ) ) ;
#278 = LINE ( 'NONE', #38, #247 ) ;
#279 = DIRECTION ( 'NONE',  ( 0.000000000000000000, 0.000000000000000000, -1.000000000000000000 ) ) ;
#280 = ADVANCED_FACE ( 'NONE', ( #82 ), #306, .T. ) ;
#281 = PRESENTATION_STYLE_ASSIGNMENT (( #164 ) ) ;
#282 = ORIENTED_EDGE ( 'NONE', *, *, #21, .T. ) ;
#283 = CIRCLE ( 'NONE', #199, 10.00000000000000000 ) ;
#284 = DIRECTION ( 'NONE',  ( 0.000000000000000000, 0.000000000000000000, -1.000000000000000000 ) ) ;
#285 = ORIENTED_EDGE ( 'NONE', *, *, #300, .T. ) ;
#286 = SURFACE_SIDE_STYLE ('',( #169 ) ) ;
#287 = VERTEX_POINT ( 'NONE', #110 ) ;
#288 = CIRCLE ( 'NONE', #220, 9.000000000000001776 ) ;
#289 = EDGE_CURVE ( 'NONE', #287, #336, #327, .T. ) ;
#290 = FILL_AREA_STYLE ('',( #179 ) ) ;
#291 = UNCERTAINTY_MEASURE_WITH_UNIT (LENGTH_MEASURE( 1.000000000000000082E-05 ), #324, 'distance_accuracy_value', 'NONE');
#292 = SURFACE_STYLE_FILL_AREA ( #325 ) ;
#293 = FACE_OUTER_BOUND ( 'NONE', #12, .T. ) ;
#294 = SURFACE_STYLE_USAGE ( .BOTH. , #31 ) ;
#295 = DIRECTION ( 'NONE',  ( -1.000000000000000000, 0.000000000000000000, 0.000000000000000000 ) ) ;
#296 = ADVANCED_FACE ( 'NONE', ( #341 ), #89, .T. ) ;
#297 =( LENGTH_UNIT ( ) NAMED_UNIT ( * ) SI_UNIT ( .MILLI., .METRE. ) );
#298 = SURFACE_STYLE_USAGE ( .BOTH. , #328 ) ;
#299 = DIRECTION ( 'NONE',  ( -1.576935716305902603E-16, 1.000000000000000000, -0.000000000000000000 ) ) ;
#300 = EDGE_CURVE ( 'NONE', #195, #340, #242, .T. ) ;
#301 = PRODUCT ( '59725', '59725', '', ( #118 ) ) ;
#302 = FILL_AREA_STYLE ('',( #358 ) ) ;
#303 = AXIS2_PLACEMENT_3D ( 'NONE', #219, #166, #284 ) ;
#304 = AXIS2_PLACEMENT_3D ( 'NONE', #10, #6, #185 ) ;
#305 =( NAMED_UNIT ( * ) SI_UNIT ( $, .STERADIAN. ) SOLID_ANGLE_UNIT ( ) );
#306 = CYLINDRICAL_SURFACE ( 'NONE', #214, 9.999999999999998224 ) ;
#307 = CLOSED_SHELL ( 'NONE', ( #237, #43, #186, #269, #296, #311 ) ) ;
#308 = SURFACE_STYLE_FILL_AREA ( #231 ) ;
#309 = EDGE_LOOP ( 'NONE', ( #22, #47 ) ) ;
#310 = PRESENTATION_STYLE_ASSIGNMENT (( #64 ) ) ;
#311 = ADVANCED_FACE ( 'NONE', ( #28 ), #121, .T. ) ;
#312 = ORIENTED_EDGE ( 'NONE', *, *, #224, .T. ) ;
#313 = CIRCLE ( 'NONE', #79, 1.000000000000000888 ) ;
#314 = FILL_AREA_STYLE_COLOUR ( '', #258 ) ;
#315 = ORIENTED_EDGE ( 'NONE', *, *, #84, .F. ) ;
#316 = CARTESIAN_POINT ( 'NONE',  ( 0.000000000000000000, 0.000000000000000000, 0.000000000000000000 ) ) ;
#317 = CYLINDRICAL_SURFACE ( 'NONE', #53, 9.999999999999998224 ) ;
#318 = DIRECTION ( 'NONE',  ( -1.576935716305902603E-16, 1.000000000000000000, -0.000000000000000000 ) ) ;
#319 = CIRCLE ( 'NONE', #155, 10.00000000000000178 ) ;
#320 = PRESENTATION_STYLE_ASSIGNMENT (( #346 ) ) ;
#321 = AXIS2_PLACEMENT_3D ( 'NONE', #316, #24, #254 ) ;
#322 = CARTESIAN_POINT ( 'NONE',  ( 0.000000000000000000, 30.00000000000000000, -10.00000000000000000 ) ) ;
#323 = UNCERTAINTY_MEASURE_WITH_UNIT (LENGTH_MEASURE( 1.000000000000000082E-05 ), #273, 'distance_accuracy_value', 'NONE');
#324 =( LENGTH_UNIT ( ) NAMED_UNIT ( * ) SI_UNIT ( .MILLI., .METRE. ) );
#325 = FILL_AREA_STYLE ('',( #207 ) ) ;
#326 = DIRECTION ( 'NONE',  ( 0.000000000000000000, 0.000000000000000000, -1.000000000000000000 ) ) ;
#327 = CIRCLE ( 'NONE', #321, 9.000000000000001776 ) ;
#328 = SURFACE_SIDE_STYLE ('',( #292 ) ) ;
#329 = DIRECTION ( 'NONE',  ( -1.576935716305902603E-16, 1.000000000000000000, -0.000000000000000000 ) ) ;
#330 = EDGE_CURVE ( 'NONE', #67, #196, #208, .T. ) ;
#331 = FACE_OUTER_BOUND ( 'NONE', #277, .T. ) ;
#332 = MECHANICAL_DESIGN_GEOMETRIC_PRESENTATION_REPRESENTATION (  '', ( #182 ), #139 ) ;
#333 = DIRECTION ( 'NONE',  ( -1.000000000000000000, 0.000000000000000000, 0.000000000000000000 ) ) ;
#334 = EDGE_CURVE ( 'NONE', #196, #44, #65, .T. ) ;
#335 = PRODUCT_DEFINITION ( 'UNKNOWN', '', #253, #178 ) ;
#336 = VERTEX_POINT ( 'NONE', #125 ) ;
#337 = STYLED_ITEM ( 'NONE', ( #122 ), #43 ) ;
#338 = AXIS2_PLACEMENT_3D ( 'NONE', #246, #189, #192 ) ;
#339 = SURFACE_STYLE_USAGE ( .BOTH. , #363 ) ;
#340 = VERTEX_POINT ( 'NONE', #355 ) ;
#341 = FACE_OUTER_BOUND ( 'NONE', #366, .T. ) ;
#342 = CARTESIAN_POINT ( 'NONE',  ( -1.714505518806293849E-15, 89.00000000000000000, 0.000000000000000000 ) ) ;
#343 = COLOUR_RGB ( '',1.000000000000000000, 0.000000000000000000, 0.000000000000000000 ) ;
#344 =( NAMED_UNIT ( * ) SI_UNIT ( $, .STERADIAN. ) SOLID_ANGLE_UNIT ( ) );
#345 = EDGE_LOOP ( 'NONE', ( #105, #127, #223, #140 ) ) ;
#346 = SURFACE_STYLE_USAGE ( .BOTH. , #286 ) ;
#347 = DIRECTION ( 'NONE',  ( -0.000000000000000000, -1.000000000000000000, -0.000000000000000000 ) ) ;
#348 = TOROIDAL_SURFACE ( 'NONE', #16, 9.000000000000001776, 1.000000000000000444 ) ;
#349 = AXIS2_PLACEMENT_3D ( 'NONE', #9, #5, #262 ) ;
#350 =( GEOMETRIC_REPRESENTATION_CONTEXT ( 3 ) GLOBAL_UNCERTAINTY_ASSIGNED_CONTEXT ( ( #106 ) ) GLOBAL_UNIT_ASSIGNED_CONTEXT ( ( #297, #188, #8 ) ) REPRESENTATION_CONTEXT ( 'NONE', 'WORKASPACE' ) );
#351 = DIRECTION ( 'NONE',  ( -0.000000000000000000, -1.000000000000000000, -0.000000000000000000 ) ) ;
#352 = CARTESIAN_POINT ( 'NONE',  ( 7.589415207398531038E-15, 30.00000000000000000, 0.000000000000000000 ) ) ;
#353 = DIRECTION ( 'NONE',  ( -1.000000000000000000, 0.000000000000000000, 0.000000000000000000 ) ) ;
#354 = DIRECTION ( 'NONE',  ( -1.576935716305902603E-16, 1.000000000000000000, -0.000000000000000000 ) ) ;
#355 = CARTESIAN_POINT ( 'NONE',  ( 10.00000000000000000, 30.00000000000000000, 1.224646799147353256E-15 ) ) ;
#356 = EDGE_CURVE ( 'NONE', #369, #44, #69, .T. ) ;
#357 = ORIENTED_EDGE ( 'NONE', *, *, #149, .F. ) ;
#358 = FILL_AREA_STYLE_COLOUR ( '', #124 ) ;
#359 = MECHANICAL_DESIGN_GEOMETRIC_PRESENTATION_REPRESENTATION (  '', ( #190 ), #162 ) ;
#360 = AXIS2_PLACEMENT_3D ( 'NONE', #230, #295, #32 ) ;
#361 = ORIENTED_EDGE ( 'NONE', *, *, #300, .F. ) ;
#362 = AXIS2_PLACEMENT_3D ( 'NONE', #367, #80, #202 ) ;
#363 = SURFACE_SIDE_STYLE ('',( #252 ) ) ;
#364 = ORIENTED_EDGE ( 'NONE', *, *, #334, .F. ) ;
#365 = PRESENTATION_STYLE_ASSIGNMENT (( #136 ) ) ;
#366 = EDGE_LOOP ( 'NONE', ( #364, #245, #104, #357 ) ) ;
#367 = CARTESIAN_POINT ( 'NONE',  ( 0.000000000000000000, 0.000000000000000000, 0.000000000000000000 ) ) ;
#368 =( NAMED_UNIT ( * ) SI_UNIT ( $, .STERADIAN. ) SOLID_ANGLE_UNIT ( ) );
#369 = VERTEX_POINT ( 'NONE', #210 ) ;
#370 = DIRECTION ( 'NONE',  ( -1.000000000000000000, 0.000000000000000000, 0.000000000000000000 ) ) ;
ENDSEC;
END-ISO-10303-21;
