ISO-10303-21;
HEADER;
FILE_DESCRIPTION (( 'STEP AP214' ),
    '1' );
FILE_NAME ('Micro_MMBM-012-15.STEP',
    '2021-09-03T16:27:41',
    ( '' ),
    ( '' ),
    'SwSTEP 2.0',
    'SolidWorks 2020',
    '' );
FILE_SCHEMA (( 'AUTOMOTIVE_DESIGN' ));
ENDSEC;

DATA;
#1 = CARTESIAN_POINT ( 'NONE',  ( 0.0000000000000000000, 0.0000000000000000000, 0.04724400000000000127 ) ) ;
#2 = FACE_OUTER_BOUND ( 'NONE', #51, .T. ) ;
#3 = DIRECTION ( 'NONE',  ( 1.000000000000000000, 0.0000000000000000000, 0.0000000000000000000 ) ) ;
#4 = CARTESIAN_POINT ( 'NONE',  ( -0.02263800000000003657, 0.0000000000000000000, 0.0000000000000000000 ) ) ;
#5 = DIRECTION ( 'NONE',  ( -1.000000000000000000, 0.0000000000000000000, 0.0000000000000000000 ) ) ;
#6 = CARTESIAN_POINT ( 'NONE',  ( 0.0000000000000000000, 0.0000000000000000000, 0.5905510000000000481 ) ) ;
#7 = DIRECTION ( 'NONE',  ( -1.000000000000000000, 0.0000000000000000000, 0.0000000000000000000 ) ) ;
#8 = DIRECTION ( 'NONE',  ( -1.000000000000000000, 0.0000000000000000000, 0.0000000000000000000 ) ) ;
#9 = CARTESIAN_POINT ( 'NONE',  ( 0.0000000000000000000, 0.0000000000000000000, 0.0000000000000000000 ) ) ;
#10 = EDGE_CURVE ( 'NONE', #221, #173, #123, .T. ) ;
#11 = CARTESIAN_POINT ( 'NONE',  ( -0.1181100000000000066, 0.0000000000000000000, 0.5905510000000000481 ) ) ;
#12 = AXIS2_PLACEMENT_3D ( 'NONE', #33, #153, #257 ) ;
#13 = DIRECTION ( 'NONE',  ( -1.000000000000000000, 0.0000000000000000000, 0.0000000000000000000 ) ) ;
#14 = CYLINDRICAL_SURFACE ( 'NONE', #226, 0.02361963780000000609 ) ;
#15 = UNCERTAINTY_MEASURE_WITH_UNIT (LENGTH_MEASURE( 1.000000000000000082E-05 ), #331, 'distance_accuracy_value', 'NONE');
#16 = DIRECTION ( 'NONE',  ( 1.000000000000000000, 0.0000000000000000000, 0.0000000000000000000 ) ) ;
#17 = ADVANCED_FACE ( 'NONE', ( #37 ), #334, .T. ) ;
#18 = CARTESIAN_POINT ( 'NONE',  ( 0.0000000000000000000, 0.0000000000000000000, 0.0000000000000000000 ) ) ;
#19 = VECTOR ( 'NONE', #182, 39.37007874015748143 ) ;
#20 = VECTOR ( 'NONE', #122, 39.37007874015748143 ) ;
#21 = ORIENTED_EDGE ( 'NONE', *, *, #369, .T. ) ;
#22 = ORIENTED_EDGE ( 'NONE', *, *, #352, .T. ) ;
#23 = ORIENTED_EDGE ( 'NONE', *, *, #227, .F. ) ;
#24 = AXIS2_PLACEMENT_3D ( 'NONE', #299, #41, #269 ) ;
#25 = ORIENTED_EDGE ( 'NONE', *, *, #227, .T. ) ;
#26 = ORIENTED_EDGE ( 'NONE', *, *, #340, .T. ) ;
#27 = DIRECTION ( 'NONE',  ( -1.000000000000000000, 0.0000000000000000000, 0.0000000000000000000 ) ) ;
#28 = AXIS2_PLACEMENT_3D ( 'NONE', #9, #219, #39 ) ;
#29 = CARTESIAN_POINT ( 'NONE',  ( -0.02263800000000000187, 0.0000000000000000000, 0.05281114460858953724 ) ) ;
#30 = VECTOR ( 'NONE', #286, 39.37007874015748854 ) ;
#31 = ADVANCED_FACE ( 'NONE', ( #289, #128 ), #152, .T. ) ;
#32 = CARTESIAN_POINT ( 'NONE',  ( 0.1031100000000002570, 1.262733314600838667E-17, 2.244094000000000033 ) ) ;
#33 = CARTESIAN_POINT ( 'NONE',  ( 0.0000000000000000000, 0.0000000000000000000, 2.229093999999999465 ) ) ;
#34 = FACE_OUTER_BOUND ( 'NONE', #167, .T. ) ;
#35 = DIRECTION ( 'NONE',  ( -0.0000000000000000000, 0.0000000000000000000, -1.000000000000000000 ) ) ;
#36 = DIRECTION ( 'NONE',  ( -0.1736481776669307475, 0.0000000000000000000, -0.9848077530122077983 ) ) ;
#37 = FACE_OUTER_BOUND ( 'NONE', #279, .T. ) ;
#38 = CYLINDRICAL_SURFACE ( 'NONE', #50, 0.1181100000000000066 ) ;
#39 = DIRECTION ( 'NONE',  ( -1.000000000000000000, 0.0000000000000000000, 0.0000000000000000000 ) ) ;
#40 = CARTESIAN_POINT ( 'NONE',  ( 0.1031100000000002570, 1.354581824536888722E-17, 2.244094000000000033 ) ) ;
#41 = DIRECTION ( 'NONE',  ( 0.0000000000000000000, 0.0000000000000000000, 1.000000000000000000 ) ) ;
#42 =( LENGTH_UNIT ( ) NAMED_UNIT ( * ) SI_UNIT ( $, .METRE. ) );
#43 = LENGTH_MEASURE_WITH_UNIT ( LENGTH_MEASURE( 0.02539999999999999897 ), #275 );
#44 = DIRECTION ( 'NONE',  ( 1.000000000000000000, 0.0000000000000000000, -0.0000000000000000000 ) ) ;
#45 = FILL_AREA_STYLE_COLOUR ( '', #312 ) ;
#46 = AXIS2_PLACEMENT_3D ( 'NONE', #121, #209, #7 ) ;
#47 = ORIENTED_EDGE ( 'NONE', *, *, #263, .T. ) ;
#48 = ORIENTED_EDGE ( 'NONE', *, *, #165, .T. ) ;
#49 = VERTEX_POINT ( 'NONE', #125 ) ;
#50 = AXIS2_PLACEMENT_3D ( 'NONE', #317, #358, #327 ) ;
#51 = EDGE_LOOP ( 'NONE', ( #52, #248, #249, #169 ) ) ;
#52 = ORIENTED_EDGE ( 'NONE', *, *, #77, .T. ) ;
#53 = CARTESIAN_POINT ( 'NONE',  ( 0.0000000000000000000, 0.0000000000000000000, 2.229093999999999465 ) ) ;
#54 = EDGE_CURVE ( 'NONE', #142, #79, #371, .T. ) ;
#55 = APPLICATION_CONTEXT ( 'automotive_design' ) ;
#56 = LINE ( 'NONE', #296, #98 ) ;
#57 = DIRECTION ( 'NONE',  ( 0.0000000000000000000, 0.0000000000000000000, -1.000000000000000000 ) ) ;
#58 = PRODUCT_DEFINITION ( 'UNKNOWN', '', #82, #242 ) ;
#59 = CYLINDRICAL_SURFACE ( 'NONE', #206, 0.02361963780000000609 ) ;
#60 = DIRECTION ( 'NONE',  ( -1.000000000000000000, 0.0000000000000000000, 0.0000000000000000000 ) ) ;
#61 = LINE ( 'NONE', #291, #177 ) ;
#62 = LINE ( 'NONE', #262, #19 ) ;
#63 = CARTESIAN_POINT ( 'NONE',  ( 0.0000000000000000000, 0.0000000000000000000, 0.0000000000000000000 ) ) ;
#64 = EDGE_CURVE ( 'NONE', #370, #112, #310, .T. ) ;
#65 = EDGE_LOOP ( 'NONE', ( #355, #306, #26, #342 ) ) ;
#66 = AXIS2_PLACEMENT_3D ( 'NONE', #63, #350, #8 ) ;
#67 = DIRECTION ( 'NONE',  ( -1.000000000000000000, 0.0000000000000000000, 0.0000000000000000000 ) ) ;
#68 = SURFACE_STYLE_FILL_AREA ( #328 ) ;
#69 = FILL_AREA_STYLE ('',( #45 ) ) ;
#70 = DIRECTION ( 'NONE',  ( -1.000000000000000000, 0.0000000000000000000, 0.0000000000000000000 ) ) ;
#71 = SURFACE_SIDE_STYLE ('',( #68 ) ) ;
#72 = CONICAL_SURFACE ( 'NONE', #150, 0.1031100000000002570, 0.7853981633974318477 ) ;
#73 = PRESENTATION_STYLE_ASSIGNMENT (( #301 ) ) ;
#74 = EDGE_CURVE ( 'NONE', #143, #142, #157, .T. ) ;
#75 = ORIENTED_EDGE ( 'NONE', *, *, #64, .F. ) ;
#76 =( GEOMETRIC_REPRESENTATION_CONTEXT ( 3 ) GLOBAL_UNCERTAINTY_ASSIGNED_CONTEXT ( ( #300 ) ) GLOBAL_UNIT_ASSIGNED_CONTEXT ( ( #246, #273, #192 ) ) REPRESENTATION_CONTEXT ( 'NONE', 'WORKASPACE' ) );
#77 = EDGE_CURVE ( 'NONE', #368, #143, #102, .T. ) ;
#78 = ORIENTED_EDGE ( 'NONE', *, *, #315, .F. ) ;
#79 = VERTEX_POINT ( 'NONE', #29 ) ;
#80 = ORIENTED_EDGE ( 'NONE', *, *, #298, .F. ) ;
#81 = CIRCLE ( 'NONE', #12, 0.1181100000000000066 ) ;
#82 = PRODUCT_DEFINITION_FORMATION_WITH_SPECIFIED_SOURCE ( 'ANY', '', #290, .NOT_KNOWN. ) ;
#83 = ORIENTED_EDGE ( 'NONE', *, *, #10, .F. ) ;
#84 = DIRECTION ( 'NONE',  ( -0.0000000000000000000, -0.0000000000000000000, -1.000000000000000000 ) ) ;
#85 = CARTESIAN_POINT ( 'NONE',  ( -0.1031100000000002570, 0.0000000000000000000, 2.244094000000000033 ) ) ;
#86 = DIRECTION ( 'NONE',  ( -0.0000000000000000000, -0.0000000000000000000, -1.000000000000000000 ) ) ;
#87 = DIRECTION ( 'NONE',  ( 0.7071067811865358044, 8.659560562354788645E-17, -0.7071067811865590080 ) ) ;
#88 = AXIS2_PLACEMENT_3D ( 'NONE', #292, #180, #3 ) ;
#89 = CIRCLE ( 'NONE', #366, 0.1181100000000000066 ) ;
#90 = LINE ( 'NONE', #116, #326 ) ;
#91 = DIRECTION ( 'NONE',  ( 0.0000000000000000000, 0.0000000000000000000, 1.000000000000000000 ) ) ;
#92 = ORIENTED_EDGE ( 'NONE', *, *, #106, .T. ) ;
#93 = ADVANCED_FACE ( 'NONE', ( #252 ), #344, .T. ) ;
#94 = LINE ( 'NONE', #322, #20 ) ;
#95 = EDGE_CURVE ( 'NONE', #142, #370, #90, .T. ) ;
#96 = CARTESIAN_POINT ( 'NONE',  ( 0.0000000000000000000, 0.0000000000000000000, 0.5905510000000000481 ) ) ;
#97 = CARTESIAN_POINT ( 'NONE',  ( 0.0000000000000000000, 0.0000000000000000000, 2.244094000000000033 ) ) ;
#98 = VECTOR ( 'NONE', #127, 39.37007874015748143 ) ;
#99 = CARTESIAN_POINT ( 'NONE',  ( 0.0000000000000000000, 0.0000000000000000000, 0.05281114460858953724 ) ) ;
#100 = DIRECTION ( 'NONE',  ( -1.000000000000000000, 0.0000000000000000000, 0.0000000000000000000 ) ) ;
#101 = SURFACE_STYLE_FILL_AREA ( #69 ) ;
#102 = CIRCLE ( 'NONE', #46, 0.02263800000000007126 ) ;
#103 = CARTESIAN_POINT ( 'NONE',  ( 0.02361963780000000609, 2.892571382878983863E-18, 0.04724400000000000127 ) ) ;
#104 = ADVANCED_FACE ( 'NONE', ( #323 ), #72, .T. ) ;
#105 = ORIENTED_EDGE ( 'NONE', *, *, #95, .F. ) ;
#106 = EDGE_CURVE ( 'NONE', #112, #144, #62, .T. ) ;
#107 = DIMENSIONAL_EXPONENTS ( 1.000000000000000000, 0.0000000000000000000, 0.0000000000000000000, 0.0000000000000000000, 0.0000000000000000000, 0.0000000000000000000, 0.0000000000000000000 ) ;
#108 = ORIENTED_EDGE ( 'NONE', *, *, #110, .T. ) ;
#109 = AXIS2_PLACEMENT_3D ( 'NONE', #321, #35, #357 ) ;
#110 = EDGE_CURVE ( 'NONE', #281, #316, #89, .T. ) ;
#111 = ORIENTED_EDGE ( 'NONE', *, *, #294, .T. ) ;
#112 = VERTEX_POINT ( 'NONE', #287 ) ;
#113 = ORIENTED_EDGE ( 'NONE', *, *, #278, .T. ) ;
#114 = AXIS2_PLACEMENT_3D ( 'NONE', #129, #237, #67 ) ;
#115 = MECHANICAL_DESIGN_GEOMETRIC_PRESENTATION_REPRESENTATION (  '', ( #271 ), #134 ) ;
#116 = CARTESIAN_POINT ( 'NONE',  ( 0.02361963780000000609, 2.892571382878983863E-18, 0.04724400000000000127 ) ) ;
#117 = CARTESIAN_POINT ( 'NONE',  ( -0.1181100000000000066, 0.0000000000000000000, 2.229093999999999465 ) ) ;
#118 = DIRECTION ( 'NONE',  ( -0.0000000000000000000, -0.0000000000000000000, -1.000000000000000000 ) ) ;
#119 = LINE ( 'NONE', #4, #305 ) ;
#120 = PRODUCT_DEFINITION_SHAPE ( 'NONE', 'NONE',  #58 ) ;
#121 = CARTESIAN_POINT ( 'NONE',  ( 0.0000000000000000000, 0.0000000000000000000, 0.5905510000000000481 ) ) ;
#122 = DIRECTION ( 'NONE',  ( -0.0000000000000000000, -0.0000000000000000000, -1.000000000000000000 ) ) ;
#123 = CIRCLE ( 'NONE', #88, 0.1031100000000002570 ) ;
#124 = AXIS2_PLACEMENT_3D ( 'NONE', #211, #91, #185 ) ;
#125 = CARTESIAN_POINT ( 'NONE',  ( 0.1181100000000000066, 1.446430334472939084E-17, 0.5905510000000000481 ) ) ;
#126 = EDGE_CURVE ( 'NONE', #316, #281, #81, .T. ) ;
#127 = DIRECTION ( 'NONE',  ( -0.0000000000000000000, -0.0000000000000000000, -1.000000000000000000 ) ) ;
#128 = FACE_OUTER_BOUND ( 'NONE', #196, .T. ) ;
#129 = CARTESIAN_POINT ( 'NONE',  ( 0.0000000000000000000, 0.0000000000000000000, 0.0000000000000000000 ) ) ;
#130 = DIRECTION ( 'NONE',  ( -1.000000000000000000, 0.0000000000000000000, 0.0000000000000000000 ) ) ;
#131 = ADVANCED_FACE ( 'NONE', ( #351 ), #207, .F. ) ;
#132 = PRESENTATION_STYLE_ASSIGNMENT (( #159 ) ) ;
#133 = CIRCLE ( 'NONE', #28, 0.02361963780000000609 ) ;
#134 =( GEOMETRIC_REPRESENTATION_CONTEXT ( 3 ) GLOBAL_UNCERTAINTY_ASSIGNED_CONTEXT ( ( #15 ) ) GLOBAL_UNIT_ASSIGNED_CONTEXT ( ( #331, #304, #367 ) ) REPRESENTATION_CONTEXT ( 'NONE', 'WORKASPACE' ) );
#135 = DIRECTION ( 'NONE',  ( -0.0000000000000000000, -0.0000000000000000000, -1.000000000000000000 ) ) ;
#136 = EDGE_CURVE ( 'NONE', #79, #142, #199, .T. ) ;
#137 = CARTESIAN_POINT ( 'NONE',  ( 0.0000000000000000000, 0.0000000000000000000, 0.0000000000000000000 ) ) ;
#138 = DIRECTION ( 'NONE',  ( -0.0000000000000000000, -0.0000000000000000000, -1.000000000000000000 ) ) ;
#139 =( LENGTH_UNIT ( ) NAMED_UNIT ( * ) SI_UNIT ( $, .METRE. ) );
#140 = ADVANCED_FACE ( 'NONE', ( #332 ), #303, .T. ) ;
#141 = CONICAL_SURFACE ( 'NONE', #319, 0.1031100000000002570, 0.7853981633974318477 ) ;
#142 = VERTEX_POINT ( 'NONE', #189 ) ;
#143 = VERTEX_POINT ( 'NONE', #274 ) ;
#144 = VERTEX_POINT ( 'NONE', #184 ) ;
#145 = DIMENSIONAL_EXPONENTS ( 1.000000000000000000, 0.0000000000000000000, 0.0000000000000000000, 0.0000000000000000000, 0.0000000000000000000, 0.0000000000000000000, 0.0000000000000000000 ) ;
#146 = ORIENTED_EDGE ( 'NONE', *, *, #10, .T. ) ;
#147 = ORIENTED_EDGE ( 'NONE', *, *, #95, .T. ) ;
#148 = DIRECTION ( 'NONE',  ( -0.0000000000000000000, -0.0000000000000000000, -1.000000000000000000 ) ) ;
#149 = EDGE_CURVE ( 'NONE', #49, #174, #339, .T. ) ;
#150 = AXIS2_PLACEMENT_3D ( 'NONE', #204, #202, #235 ) ;
#151 = CARTESIAN_POINT ( 'NONE',  ( -0.1031100000000002570, 0.0000000000000000000, 2.244094000000000033 ) ) ;
#152 = PLANE ( 'NONE',  #109 ) ;
#153 = DIRECTION ( 'NONE',  ( 0.0000000000000000000, 0.0000000000000000000, -1.000000000000000000 ) ) ;
#154 = DIRECTION ( 'NONE',  ( -1.000000000000000000, 0.0000000000000000000, 0.0000000000000000000 ) ) ;
#155 = EDGE_LOOP ( 'NONE', ( #256, #341 ) ) ;
#156 = AXIS2_PLACEMENT_3D ( 'NONE', #230, #84, #379 ) ;
#157 = LINE ( 'NONE', #178, #213 ) ;
#158 = DIRECTION ( 'NONE',  ( -0.0000000000000000000, -0.0000000000000000000, -1.000000000000000000 ) ) ;
#159 = SURFACE_STYLE_USAGE ( .BOTH. , #71 ) ;
#160 = PRODUCT_CONTEXT ( 'NONE', #313, 'mechanical' ) ;
#161 = CIRCLE ( 'NONE', #66, 0.02361963780000000609 ) ;
#162 = FACE_OUTER_BOUND ( 'NONE', #250, .T. ) ;
#163 = AXIS2_PLACEMENT_3D ( 'NONE', #6, #187, #216 ) ;
#164 = DIRECTION ( 'NONE',  ( -1.000000000000000000, 0.0000000000000000000, 0.0000000000000000000 ) ) ;
#165 = EDGE_CURVE ( 'NONE', #343, #144, #133, .T. ) ;
#166 = AXIS2_PLACEMENT_3D ( 'NONE', #137, #295, #130 ) ;
#167 = EDGE_LOOP ( 'NONE', ( #146, #309 ) ) ;
#168 = ORIENTED_EDGE ( 'NONE', *, *, #54, .T. ) ;
#169 = ORIENTED_EDGE ( 'NONE', *, *, #294, .F. ) ;
#170 = VECTOR ( 'NONE', #176, 39.37007874015748143 ) ;
#171 = ORIENTED_EDGE ( 'NONE', *, *, #149, .T. ) ;
#172 = ADVANCED_FACE ( 'NONE', ( #359 ), #141, .T. ) ;
#173 = VERTEX_POINT ( 'NONE', #40 ) ;
#174 = VERTEX_POINT ( 'NONE', #11 ) ;
#175 = CLOSED_SHELL ( 'NONE', ( #195, #222, #93, #104, #236, #140, #268, #172, #31, #17, #212, #337, #131 ) ) ;
#176 = DIRECTION ( 'NONE',  ( -0.0000000000000000000, -0.0000000000000000000, -1.000000000000000000 ) ) ;
#177 = VECTOR ( 'NONE', #36, 39.37007874015748854 ) ;
#178 = CARTESIAN_POINT ( 'NONE',  ( 0.02263800000000003657, 2.772355423909782880E-18, 0.0000000000000000000 ) ) ;
#179 = CARTESIAN_POINT ( 'NONE',  ( 0.0000000000000000000, 0.0000000000000000000, 0.0000000000000000000 ) ) ;
#180 = DIRECTION ( 'NONE',  ( 0.0000000000000000000, 0.0000000000000000000, 1.000000000000000000 ) ) ;
#181 = LINE ( 'NONE', #32, #277 ) ;
#182 = DIRECTION ( 'NONE',  ( -0.0000000000000000000, -0.0000000000000000000, -1.000000000000000000 ) ) ;
#183 = PLANE ( 'NONE',  #124 ) ;
#184 = CARTESIAN_POINT ( 'NONE',  ( -0.02361963780000000609, 0.0000000000000000000, 0.0000000000000000000 ) ) ;
#185 = DIRECTION ( 'NONE',  ( 1.000000000000000000, 0.0000000000000000000, -0.0000000000000000000 ) ) ;
#186 = DIRECTION ( 'NONE',  ( -1.000000000000000000, 0.0000000000000000000, 0.0000000000000000000 ) ) ;
#187 = DIRECTION ( 'NONE',  ( -0.0000000000000000000, -0.0000000000000000000, -1.000000000000000000 ) ) ;
#188 = AXIS2_PLACEMENT_3D ( 'NONE', #330, #267, #44 ) ;
#189 = CARTESIAN_POINT ( 'NONE',  ( 0.02263800000000000187, 2.832463403394381638E-18, 0.05281114460858953724 ) ) ;
#190 = APPLICATION_PROTOCOL_DEFINITION ( 'draft international standard', 'automotive_design', 1998, #313 ) ;
#191 = CARTESIAN_POINT ( 'NONE',  ( 0.0000000000000000000, 0.0000000000000000000, 2.244094000000000033 ) ) ;
#192 =( NAMED_UNIT ( * ) SI_UNIT ( $, .STERADIAN. ) SOLID_ANGLE_UNIT ( ) );
#193 = ORIENTED_EDGE ( 'NONE', *, *, #126, .F. ) ;
#194 = AXIS2_PLACEMENT_3D ( 'NONE', #99, #265, #186 ) ;
#195 = ADVANCED_FACE ( 'NONE', ( #162 ), #14, .T. ) ;
#196 = EDGE_LOOP ( 'NONE', ( #22, #171 ) ) ;
#197 = ORIENTED_EDGE ( 'NONE', *, *, #54, .F. ) ;
#198 = ORIENTED_EDGE ( 'NONE', *, *, #110, .F. ) ;
#199 = CIRCLE ( 'NONE', #194, 0.02263800000000000187 ) ;
#200 = ADVANCED_BREP_SHAPE_REPRESENTATION ( 'Micro_MMBM-012-15', ( #218, #24 ), #76 ) ;
#201 = ORIENTED_EDGE ( 'NONE', *, *, #369, .F. ) ;
#202 = DIRECTION ( 'NONE',  ( 0.0000000000000000000, 0.0000000000000000000, -1.000000000000000000 ) ) ;
#203 =( CONVERSION_BASED_UNIT ( 'INCH', #324 ) LENGTH_UNIT ( ) NAMED_UNIT ( #145 ) );
#204 = CARTESIAN_POINT ( 'NONE',  ( 0.0000000000000000000, 0.0000000000000000000, 2.244094000000000033 ) ) ;
#205 = CIRCLE ( 'NONE', #163, 0.1181100000000000066 ) ;
#206 = AXIS2_PLACEMENT_3D ( 'NONE', #179, #288, #154 ) ;
#207 = PLANE ( 'NONE',  #188 ) ;
#208 = CARTESIAN_POINT ( 'NONE',  ( 0.02361963780000000609, 2.892571382878983863E-18, 0.0000000000000000000 ) ) ;
#209 = DIRECTION ( 'NONE',  ( -0.0000000000000000000, -0.0000000000000000000, -1.000000000000000000 ) ) ;
#210 = ORIENTED_EDGE ( 'NONE', *, *, #298, .T. ) ;
#211 = CARTESIAN_POINT ( 'NONE',  ( 0.0000000000000000000, 0.0000000000000000000, 2.244094000000000033 ) ) ;
#212 = ADVANCED_FACE ( 'NONE', ( #243 ), #272, .T. ) ;
#213 = VECTOR ( 'NONE', #86, 39.37007874015748143 ) ;
#214 = AXIS2_PLACEMENT_3D ( 'NONE', #266, #135, #13 ) ;
#215 = FILL_AREA_STYLE_COLOUR ( '', #270 ) ;
#216 = DIRECTION ( 'NONE',  ( -1.000000000000000000, 0.0000000000000000000, 0.0000000000000000000 ) ) ;
#217 = DIRECTION ( 'NONE',  ( 0.0000000000000000000, 0.0000000000000000000, -1.000000000000000000 ) ) ;
#218 = MANIFOLD_SOLID_BREP ( 'Cut-Revolve1', #175 ) ;
#219 = DIRECTION ( 'NONE',  ( -0.0000000000000000000, -0.0000000000000000000, -1.000000000000000000 ) ) ;
#220 = AXIS2_PLACEMENT_3D ( 'NONE', #1, #284, #27 ) ;
#221 = VERTEX_POINT ( 'NONE', #151 ) ;
#222 = ADVANCED_FACE ( 'NONE', ( #2 ), #238, .T. ) ;
#223 = ORIENTED_EDGE ( 'NONE', *, *, #74, .F. ) ;
#224 = ORIENTED_EDGE ( 'NONE', *, *, #347, .T. ) ;
#225 = ORIENTED_EDGE ( 'NONE', *, *, #165, .F. ) ;
#226 = AXIS2_PLACEMENT_3D ( 'NONE', #18, #158, #362 ) ;
#227 = EDGE_CURVE ( 'NONE', #144, #343, #161, .T. ) ;
#228 = DIRECTION ( 'NONE',  ( 0.1736481776669307475, 2.126576849575776537E-17, -0.9848077530122077983 ) ) ;
#229 = CARTESIAN_POINT ( 'NONE',  ( 0.0000000000000000000, 0.0000000000000000000, 0.05281114460858953724 ) ) ;
#230 = CARTESIAN_POINT ( 'NONE',  ( 0.0000000000000000000, 0.0000000000000000000, 0.04724400000000000127 ) ) ;
#231 = AXIS2_PLACEMENT_3D ( 'NONE', #349, #148, #60 ) ;
#232 = CARTESIAN_POINT ( 'NONE',  ( 0.02361963780000000609, 2.892571382878983863E-18, 0.0000000000000000000 ) ) ;
#233 = EDGE_LOOP ( 'NONE', ( #78, #83, #314, #193 ) ) ;
#234 = DIRECTION ( 'NONE',  ( -0.0000000000000000000, -0.0000000000000000000, -1.000000000000000000 ) ) ;
#235 = DIRECTION ( 'NONE',  ( -1.000000000000000000, 0.0000000000000000000, 0.0000000000000000000 ) ) ;
#236 = ADVANCED_FACE ( 'NONE', ( #255 ), #38, .T. ) ;
#237 = DIRECTION ( 'NONE',  ( -0.0000000000000000000, -0.0000000000000000000, -1.000000000000000000 ) ) ;
#238 = CYLINDRICAL_SURFACE ( 'NONE', #114, 0.02263800000000003657 ) ;
#239 = AXIS2_PLACEMENT_3D ( 'NONE', #241, #363, #164 ) ;
#240 = CIRCLE ( 'NONE', #214, 0.02361963780000000609 ) ;
#241 = CARTESIAN_POINT ( 'NONE',  ( 0.0000000000000000000, 0.0000000000000000000, 2.244094000000000033 ) ) ;
#242 = PRODUCT_DEFINITION_CONTEXT ( 'detailed design', #55, 'design' ) ;
#243 = FACE_OUTER_BOUND ( 'NONE', #374, .T. ) ;
#244 = DIRECTION ( 'NONE',  ( 0.0000000000000000000, 0.0000000000000000000, 1.000000000000000000 ) ) ;
#245 = AXIS2_PLACEMENT_3D ( 'NONE', #297, #138, #100 ) ;
#246 =( CONVERSION_BASED_UNIT ( 'INCH', #329 ) LENGTH_UNIT ( ) NAMED_UNIT ( #107 ) );
#247 = ORIENTED_EDGE ( 'NONE', *, *, #352, .F. ) ;
#248 = ORIENTED_EDGE ( 'NONE', *, *, #74, .T. ) ;
#249 = ORIENTED_EDGE ( 'NONE', *, *, #136, .F. ) ;
#250 = EDGE_LOOP ( 'NONE', ( #21, #210, #23, #283 ) ) ;
#251 = ORIENTED_EDGE ( 'NONE', *, *, #315, .T. ) ;
#252 = FACE_OUTER_BOUND ( 'NONE', #345, .T. ) ;
#253 = AXIS2_PLACEMENT_3D ( 'NONE', #96, #234, #356 ) ;
#254 = PRESENTATION_LAYER_ASSIGNMENT (  '', '', ( #271 ) ) ;
#255 = FACE_OUTER_BOUND ( 'NONE', #376, .T. ) ;
#256 = ORIENTED_EDGE ( 'NONE', *, *, #77, .F. ) ;
#257 = DIRECTION ( 'NONE',  ( 1.000000000000000000, 0.0000000000000000000, 0.0000000000000000000 ) ) ;
#258 = LINE ( 'NONE', #208, #170 ) ;
#259 = ORIENTED_EDGE ( 'NONE', *, *, #308, .F. ) ;
#260 = STYLED_ITEM ( 'NONE', ( #132 ), #218 ) ;
#261 = FACE_OUTER_BOUND ( 'NONE', #282, .T. ) ;
#262 = CARTESIAN_POINT ( 'NONE',  ( -0.02361963780000000609, 0.0000000000000000000, 0.0000000000000000000 ) ) ;
#263 = EDGE_CURVE ( 'NONE', #143, #368, #378, .T. ) ;
#264 =( NAMED_UNIT ( * ) PLANE_ANGLE_UNIT ( ) SI_UNIT ( $, .RADIAN. ) );
#265 = DIRECTION ( 'NONE',  ( -0.0000000000000000000, -0.0000000000000000000, -1.000000000000000000 ) ) ;
#266 = CARTESIAN_POINT ( 'NONE',  ( 0.0000000000000000000, 0.0000000000000000000, 0.04724400000000000127 ) ) ;
#267 = DIRECTION ( 'NONE',  ( 0.0000000000000000000, 0.0000000000000000000, 1.000000000000000000 ) ) ;
#268 = ADVANCED_FACE ( 'NONE', ( #34 ), #183, .T. ) ;
#269 = DIRECTION ( 'NONE',  ( 1.000000000000000000, 0.0000000000000000000, 0.0000000000000000000 ) ) ;
#270 = COLOUR_RGB ( '',0.7921568627450980005, 0.8196078431372548767, 0.9333333333333333481 ) ;
#271 = STYLED_ITEM ( 'NONE', ( #73 ), #200 ) ;
#272 = CYLINDRICAL_SURFACE ( 'NONE', #166, 0.02263800000000003657 ) ;
#273 =( NAMED_UNIT ( * ) PLANE_ANGLE_UNIT ( ) SI_UNIT ( $, .RADIAN. ) );
#274 = CARTESIAN_POINT ( 'NONE',  ( 0.02263800000000007126, 2.772355423909787117E-18, 0.5905510000000000481 ) ) ;
#275 =( LENGTH_UNIT ( ) NAMED_UNIT ( * ) SI_UNIT ( $, .METRE. ) );
#276 = MECHANICAL_DESIGN_GEOMETRIC_PRESENTATION_REPRESENTATION (  '', ( #260 ), #353 ) ;
#277 = VECTOR ( 'NONE', #87, 39.37007874015748854 ) ;
#278 = EDGE_CURVE ( 'NONE', #316, #49, #56, .T. ) ;
#279 = EDGE_LOOP ( 'NONE', ( #105, #168, #224, #75 ) ) ;
#280 = ORIENTED_EDGE ( 'NONE', *, *, #347, .F. ) ;
#281 = VERTEX_POINT ( 'NONE', #117 ) ;
#282 = EDGE_LOOP ( 'NONE', ( #80, #375, #92, #225 ) ) ;
#283 = ORIENTED_EDGE ( 'NONE', *, *, #106, .F. ) ;
#284 = DIRECTION ( 'NONE',  ( -0.0000000000000000000, -0.0000000000000000000, -1.000000000000000000 ) ) ;
#285 = CIRCLE ( 'NONE', #373, 0.1031100000000002570 ) ;
#286 = DIRECTION ( 'NONE',  ( -0.7071067811865358044, 0.0000000000000000000, -0.7071067811865590080 ) ) ;
#287 = CARTESIAN_POINT ( 'NONE',  ( -0.02361963780000000609, 0.0000000000000000000, 0.04724400000000000127 ) ) ;
#288 = DIRECTION ( 'NONE',  ( -0.0000000000000000000, -0.0000000000000000000, -1.000000000000000000 ) ) ;
#289 = FACE_BOUND ( 'NONE', #155, .T. ) ;
#290 = PRODUCT ( 'Micro_MMBM-012-15', 'Micro_MMBM-012-15', '', ( #160 ) ) ;
#291 = CARTESIAN_POINT ( 'NONE',  ( -0.02361963780000000609, 0.0000000000000000000, 0.04724400000000000127 ) ) ;
#292 = CARTESIAN_POINT ( 'NONE',  ( 0.0000000000000000000, 0.0000000000000000000, 2.244094000000000033 ) ) ;
#293 = DIRECTION ( 'NONE',  ( -0.0000000000000000000, -0.0000000000000000000, -1.000000000000000000 ) ) ;
#294 = EDGE_CURVE ( 'NONE', #368, #79, #119, .T. ) ;
#295 = DIRECTION ( 'NONE',  ( -0.0000000000000000000, -0.0000000000000000000, -1.000000000000000000 ) ) ;
#296 = CARTESIAN_POINT ( 'NONE',  ( 0.1181100000000000066, 1.446430334472939084E-17, 2.244094000000000033 ) ) ;
#297 = CARTESIAN_POINT ( 'NONE',  ( 0.0000000000000000000, 0.0000000000000000000, 0.5905510000000000481 ) ) ;
#298 = EDGE_CURVE ( 'NONE', #370, #343, #258, .T. ) ;
#299 = CARTESIAN_POINT ( 'NONE',  ( 0.0000000000000000000, 0.0000000000000000000, 0.0000000000000000000 ) ) ;
#300 = UNCERTAINTY_MEASURE_WITH_UNIT (LENGTH_MEASURE( 1.000000000000000082E-05 ), #246, 'distance_accuracy_value', 'NONE');
#301 = SURFACE_STYLE_USAGE ( .BOTH. , #335 ) ;
#302 = PRESENTATION_LAYER_ASSIGNMENT (  '', '', ( #260 ) ) ;
#303 = CYLINDRICAL_SURFACE ( 'NONE', #239, 0.1181100000000000066 ) ;
#304 =( NAMED_UNIT ( * ) PLANE_ANGLE_UNIT ( ) SI_UNIT ( $, .RADIAN. ) );
#305 = VECTOR ( 'NONE', #293, 39.37007874015748143 ) ;
#306 = ORIENTED_EDGE ( 'NONE', *, *, #126, .T. ) ;
#307 = EDGE_LOOP ( 'NONE', ( #25, #48 ) ) ;
#308 = EDGE_CURVE ( 'NONE', #221, #281, #348, .T. ) ;
#309 = ORIENTED_EDGE ( 'NONE', *, *, #361, .T. ) ;
#310 = CIRCLE ( 'NONE', #231, 0.02361963780000000609 ) ;
#311 = ORIENTED_EDGE ( 'NONE', *, *, #340, .F. ) ;
#312 = COLOUR_RGB ( '',0.7921568627450980005, 0.8196078431372548767, 0.9333333333333333481 ) ;
#313 = APPLICATION_CONTEXT ( 'automotive_design' ) ;
#314 = ORIENTED_EDGE ( 'NONE', *, *, #308, .T. ) ;
#315 = EDGE_CURVE ( 'NONE', #173, #316, #181, .T. ) ;
#316 = VERTEX_POINT ( 'NONE', #320 ) ;
#317 = CARTESIAN_POINT ( 'NONE',  ( 0.0000000000000000000, 0.0000000000000000000, 2.244094000000000033 ) ) ;
#318 = DIRECTION ( 'NONE',  ( 1.000000000000000000, 0.0000000000000000000, 0.0000000000000000000 ) ) ;
#319 = AXIS2_PLACEMENT_3D ( 'NONE', #97, #217, #70 ) ;
#320 = CARTESIAN_POINT ( 'NONE',  ( 0.1181100000000000066, 1.446430334472939084E-17, 2.229093999999999465 ) ) ;
#321 = CARTESIAN_POINT ( 'NONE',  ( 0.02263800000000007126, 0.0000000000000000000, 0.5905510000000000481 ) ) ;
#322 = CARTESIAN_POINT ( 'NONE',  ( -0.1181100000000000066, 0.0000000000000000000, 2.244094000000000033 ) ) ;
#323 = FACE_OUTER_BOUND ( 'NONE', #325, .T. ) ;
#324 = LENGTH_MEASURE_WITH_UNIT ( LENGTH_MEASURE( 0.02539999999999999897 ), #42 );
#325 = EDGE_LOOP ( 'NONE', ( #346, #251, #198, #259 ) ) ;
#326 = VECTOR ( 'NONE', #228, 39.37007874015748854 ) ;
#327 = DIRECTION ( 'NONE',  ( -1.000000000000000000, 0.0000000000000000000, 0.0000000000000000000 ) ) ;
#328 = FILL_AREA_STYLE ('',( #215 ) ) ;
#329 = LENGTH_MEASURE_WITH_UNIT ( LENGTH_MEASURE( 0.02539999999999999897 ), #139 );
#330 = CARTESIAN_POINT ( 'NONE',  ( 0.0000000000000000000, 0.0000000000000000000, 0.0000000000000000000 ) ) ;
#331 =( CONVERSION_BASED_UNIT ( 'INCH', #43 ) LENGTH_UNIT ( ) NAMED_UNIT ( #377 ) );
#332 = FACE_OUTER_BOUND ( 'NONE', #65, .T. ) ;
#333 = APPLICATION_PROTOCOL_DEFINITION ( 'draft international standard', 'automotive_design', 1998, #55 ) ;
#334 = CONICAL_SURFACE ( 'NONE', #220, 0.02361963780000000609, 0.1745329251994333919 ) ;
#335 = SURFACE_SIDE_STYLE ('',( #101 ) ) ;
#336 = UNCERTAINTY_MEASURE_WITH_UNIT (LENGTH_MEASURE( 1.000000000000000082E-05 ), #203, 'distance_accuracy_value', 'NONE');
#337 = ADVANCED_FACE ( 'NONE', ( #261 ), #59, .T. ) ;
#338 = ORIENTED_EDGE ( 'NONE', *, *, #136, .T. ) ;
#339 = CIRCLE ( 'NONE', #245, 0.1181100000000000066 ) ;
#340 = EDGE_CURVE ( 'NONE', #281, #174, #94, .T. ) ;
#341 = ORIENTED_EDGE ( 'NONE', *, *, #263, .F. ) ;
#342 = ORIENTED_EDGE ( 'NONE', *, *, #149, .F. ) ;
#343 = VERTEX_POINT ( 'NONE', #232 ) ;
#344 = CONICAL_SURFACE ( 'NONE', #156, 0.02361963780000000609, 0.1745329251994333919 ) ;
#345 = EDGE_LOOP ( 'NONE', ( #338, #147, #201, #280 ) ) ;
#346 = ORIENTED_EDGE ( 'NONE', *, *, #361, .F. ) ;
#347 = EDGE_CURVE ( 'NONE', #79, #112, #61, .T. ) ;
#348 = LINE ( 'NONE', #85, #30 ) ;
#349 = CARTESIAN_POINT ( 'NONE',  ( 0.0000000000000000000, 0.0000000000000000000, 0.04724400000000000127 ) ) ;
#350 = DIRECTION ( 'NONE',  ( -0.0000000000000000000, -0.0000000000000000000, -1.000000000000000000 ) ) ;
#351 = FACE_OUTER_BOUND ( 'NONE', #307, .T. ) ;
#352 = EDGE_CURVE ( 'NONE', #174, #49, #205, .T. ) ;
#353 =( GEOMETRIC_REPRESENTATION_CONTEXT ( 3 ) GLOBAL_UNCERTAINTY_ASSIGNED_CONTEXT ( ( #336 ) ) GLOBAL_UNIT_ASSIGNED_CONTEXT ( ( #203, #264, #354 ) ) REPRESENTATION_CONTEXT ( 'NONE', 'WORKASPACE' ) );
#354 =( NAMED_UNIT ( * ) SI_UNIT ( $, .STERADIAN. ) SOLID_ANGLE_UNIT ( ) );
#355 = ORIENTED_EDGE ( 'NONE', *, *, #278, .F. ) ;
#356 = DIRECTION ( 'NONE',  ( -1.000000000000000000, 0.0000000000000000000, 0.0000000000000000000 ) ) ;
#357 = DIRECTION ( 'NONE',  ( -1.000000000000000000, 0.0000000000000000000, 0.0000000000000000000 ) ) ;
#358 = DIRECTION ( 'NONE',  ( -0.0000000000000000000, -0.0000000000000000000, -1.000000000000000000 ) ) ;
#359 = FACE_OUTER_BOUND ( 'NONE', #233, .T. ) ;
#360 = AXIS2_PLACEMENT_3D ( 'NONE', #229, #118, #5 ) ;
#361 = EDGE_CURVE ( 'NONE', #173, #221, #285, .T. ) ;
#362 = DIRECTION ( 'NONE',  ( -1.000000000000000000, 0.0000000000000000000, 0.0000000000000000000 ) ) ;
#363 = DIRECTION ( 'NONE',  ( -0.0000000000000000000, -0.0000000000000000000, -1.000000000000000000 ) ) ;
#364 = SHAPE_DEFINITION_REPRESENTATION ( #120, #200 ) ;
#365 = CARTESIAN_POINT ( 'NONE',  ( -0.02263800000000007126, 0.0000000000000000000, 0.5905510000000000481 ) ) ;
#366 = AXIS2_PLACEMENT_3D ( 'NONE', #53, #57, #318 ) ;
#367 =( NAMED_UNIT ( * ) SI_UNIT ( $, .STERADIAN. ) SOLID_ANGLE_UNIT ( ) );
#368 = VERTEX_POINT ( 'NONE', #365 ) ;
#369 = EDGE_CURVE ( 'NONE', #112, #370, #240, .T. ) ;
#370 = VERTEX_POINT ( 'NONE', #103 ) ;
#371 = CIRCLE ( 'NONE', #360, 0.02263800000000000187 ) ;
#372 = PRODUCT_RELATED_PRODUCT_CATEGORY ( 'part', '', ( #290 ) ) ;
#373 = AXIS2_PLACEMENT_3D ( 'NONE', #191, #244, #16 ) ;
#374 = EDGE_LOOP ( 'NONE', ( #223, #47, #111, #197 ) ) ;
#375 = ORIENTED_EDGE ( 'NONE', *, *, #64, .T. ) ;
#376 = EDGE_LOOP ( 'NONE', ( #108, #113, #247, #311 ) ) ;
#377 = DIMENSIONAL_EXPONENTS ( 1.000000000000000000, 0.0000000000000000000, 0.0000000000000000000, 0.0000000000000000000, 0.0000000000000000000, 0.0000000000000000000, 0.0000000000000000000 ) ;
#378 = CIRCLE ( 'NONE', #253, 0.02263800000000007126 ) ;
#379 = DIRECTION ( 'NONE',  ( -1.000000000000000000, 0.0000000000000000000, 0.0000000000000000000 ) ) ;
ENDSEC;
END-ISO-10303-21;
