ISO-10303-21;
HEADER;
FILE_DESCRIPTION (( 'STEP AP214' ),
    '1' );
FILE_NAME ('Micro_SHL-312-4X.STEP',
    '2021-09-02T07:58:21',
    ( '' ),
    ( '' ),
    'SwSTEP 2.0',
    'SolidWorks 2020',
    '' );
FILE_SCHEMA (( 'AUTOMOTIVE_DESIGN' ));
ENDSEC;

DATA;
#1 = DIRECTION ( 'NONE',  ( -1.224646799147353454E-16, -0.0000000000000000000, -1.000000000000000000 ) ) ;
#2 = CARTESIAN_POINT ( 'NONE',  ( 0.0000000000000000000, 0.0000000000000000000, 0.0000000000000000000 ) ) ;
#3 = EDGE_LOOP ( 'NONE', ( #86, #256, #103, #36 ) ) ;
#4 = VECTOR ( 'NONE', #101, 39.37007874015747433 ) ;
#5 = LENGTH_MEASURE_WITH_UNIT ( LENGTH_MEASURE( 0.02539999999999999897 ), #8 );
#6 = DIMENSIONAL_EXPONENTS ( 1.000000000000000000, 0.0000000000000000000, 0.0000000000000000000, 0.0000000000000000000, 0.0000000000000000000, 0.0000000000000000000, 0.0000000000000000000 ) ;
#7 = ORIENTED_EDGE ( 'NONE', *, *, #26, .F. ) ;
#8 =( LENGTH_UNIT ( ) NAMED_UNIT ( * ) SI_UNIT ( $, .METRE. ) );
#9 = ORIENTED_EDGE ( 'NONE', *, *, #157, .F. ) ;
#10 = VERTEX_POINT ( 'NONE', #158 ) ;
#11 = AXIS2_PLACEMENT_3D ( 'NONE', #39, #112, #201 ) ;
#12 = VERTEX_POINT ( 'NONE', #64 ) ;
#13 = EDGE_CURVE ( 'NONE', #38, #12, #176, .T. ) ;
#14 = SURFACE_STYLE_FILL_AREA ( #198 ) ;
#15 = ORIENTED_EDGE ( 'NONE', *, *, #220, .T. ) ;
#16 = AXIS2_PLACEMENT_3D ( 'NONE', #47, #168, #97 ) ;
#17 = DIRECTION ( 'NONE',  ( 1.000000000000000000, 0.0000000000000000000, 0.0000000000000000000 ) ) ;
#18 = DIRECTION ( 'NONE',  ( 1.000000000000000000, 0.0000000000000000000, 0.0000000000000000000 ) ) ;
#19 = CARTESIAN_POINT ( 'NONE',  ( -0.1562500000000000000, 0.0000000000000000000, 3.000000000000000444 ) ) ;
#20 = UNCERTAINTY_MEASURE_WITH_UNIT (LENGTH_MEASURE( 1.000000000000000082E-05 ), #34, 'distance_accuracy_value', 'NONE');
#21 = CARTESIAN_POINT ( 'NONE',  ( 0.1412500000000005418, 1.821662113731690949E-17, 3.000000000000000444 ) ) ;
#22 = CARTESIAN_POINT ( 'NONE',  ( 0.0000000000000000000, 0.0000000000000000000, 3.000000000000000444 ) ) ;
#23 = FACE_OUTER_BOUND ( 'NONE', #194, .T. ) ;
#24 = MECHANICAL_DESIGN_GEOMETRIC_PRESENTATION_REPRESENTATION (  '', ( #200 ), #278 ) ;
#25 = CARTESIAN_POINT ( 'NONE',  ( 1.377727649040772882E-16, 0.0000000000000000000, 1.125000000000000000 ) ) ;
#26 = EDGE_CURVE ( 'NONE', #281, #136, #65, .T. ) ;
#27 =( NAMED_UNIT ( * ) SI_UNIT ( $, .STERADIAN. ) SOLID_ANGLE_UNIT ( ) );
#28 = UNCERTAINTY_MEASURE_WITH_UNIT (LENGTH_MEASURE( 1.000000000000000082E-05 ), #32, 'distance_accuracy_value', 'NONE');
#29 = ADVANCED_FACE ( 'NONE', ( #88 ), #206, .T. ) ;
#30 = VERTEX_POINT ( 'NONE', #247 ) ;
#31 = CONICAL_SURFACE ( 'NONE', #135, 0.1412500000000005418, 0.7853981633974583820 ) ;
#32 =( CONVERSION_BASED_UNIT ( 'INCH', #5 ) LENGTH_UNIT ( ) NAMED_UNIT ( #6 ) );
#33 = ORIENTED_EDGE ( 'NONE', *, *, #157, .T. ) ;
#34 =( CONVERSION_BASED_UNIT ( 'INCH', #77 ) LENGTH_UNIT ( ) NAMED_UNIT ( #190 ) );
#35 = EDGE_CURVE ( 'NONE', #136, #60, #156, .T. ) ;
#36 = ORIENTED_EDGE ( 'NONE', *, *, #288, .F. ) ;
#37 = CIRCLE ( 'NONE', #272, 0.1562500000000000000 ) ;
#38 = VERTEX_POINT ( 'NONE', #62 ) ;
#39 = CARTESIAN_POINT ( 'NONE',  ( 2.341031285748743856E-33, 0.0000000000000000000, 1.911597113044071690E-17 ) ) ;
#40 = DIRECTION ( 'NONE',  ( 1.000000000000000000, 0.0000000000000000000, 0.0000000000000000000 ) ) ;
#41 = CYLINDRICAL_SURFACE ( 'NONE', #108, 0.1562500000000000000 ) ;
#42 = AXIS2_PLACEMENT_3D ( 'NONE', #283, #83, #171 ) ;
#43 = CARTESIAN_POINT ( 'NONE',  ( 1.377727649040772882E-16, 0.0000000000000000000, 1.125000000000000000 ) ) ;
#44 = DIRECTION ( 'NONE',  ( -1.000000000000000000, 0.0000000000000000000, 0.0000000000000000000 ) ) ;
#45 = LINE ( 'NONE', #142, #214 ) ;
#46 = AXIS2_PLACEMENT_3D ( 'NONE', #245, #113, #225 ) ;
#47 = CARTESIAN_POINT ( 'NONE',  ( 0.0000000000000000000, 0.0000000000000000000, 0.0000000000000000000 ) ) ;
#48 = DIRECTION ( 'NONE',  ( -1.000000000000000000, 0.0000000000000000000, 1.224646799147353700E-16 ) ) ;
#49 = CARTESIAN_POINT ( 'NONE',  ( 0.1560937499999999478, 1.911597113044071073E-17, -1.911597113044071690E-17 ) ) ;
#50 = CIRCLE ( 'NONE', #114, 0.1560937499999999756 ) ;
#51 = EDGE_CURVE ( 'NONE', #12, #196, #213, .T. ) ;
#52 = ADVANCED_FACE ( 'NONE', ( #162 ), #219, .T. ) ;
#53 =( LENGTH_UNIT ( ) NAMED_UNIT ( * ) SI_UNIT ( $, .METRE. ) );
#54 = ORIENTED_EDGE ( 'NONE', *, *, #276, .F. ) ;
#55 = EDGE_LOOP ( 'NONE', ( #154, #9, #150, #215 ) ) ;
#56 = PLANE ( 'NONE',  #289 ) ;
#57 = ORIENTED_EDGE ( 'NONE', *, *, #123, .T. ) ;
#58 = SHAPE_DEFINITION_REPRESENTATION ( #169, #231 ) ;
#59 = ORIENTED_EDGE ( 'NONE', *, *, #188, .T. ) ;
#60 = VERTEX_POINT ( 'NONE', #290 ) ;
#61 = AXIS2_PLACEMENT_3D ( 'NONE', #43, #248, #115 ) ;
#62 = CARTESIAN_POINT ( 'NONE',  ( 0.1560937500000001144, 0.0000000000000000000, 1.125000000000000000 ) ) ;
#63 =( CONVERSION_BASED_UNIT ( 'INCH', #287 ) LENGTH_UNIT ( ) NAMED_UNIT ( #72 ) );
#64 = CARTESIAN_POINT ( 'NONE',  ( 0.1562500000000001388, 1.913510623667740388E-17, 1.125886137784315455 ) ) ;
#65 = LINE ( 'NONE', #243, #284 ) ;
#66 = DIRECTION ( 'NONE',  ( -1.224646799147353454E-16, -0.0000000000000000000, -1.000000000000000000 ) ) ;
#67 = DIRECTION ( 'NONE',  ( -1.000000000000000000, 0.0000000000000000000, 0.0000000000000000000 ) ) ;
#68 = LINE ( 'NONE', #49, #99 ) ;
#69 = EDGE_CURVE ( 'NONE', #175, #38, #81, .T. ) ;
#70 = DIRECTION ( 'NONE',  ( -0.0000000000000000000, -0.0000000000000000000, -1.000000000000000000 ) ) ;
#71 = DIRECTION ( 'NONE',  ( 1.000000000000000000, 0.0000000000000000000, 0.0000000000000000000 ) ) ;
#72 = DIMENSIONAL_EXPONENTS ( 1.000000000000000000, 0.0000000000000000000, 0.0000000000000000000, 0.0000000000000000000, 0.0000000000000000000, 0.0000000000000000000, 0.0000000000000000000 ) ;
#73 = FACE_OUTER_BOUND ( 'NONE', #237, .T. ) ;
#74 = AXIS2_PLACEMENT_3D ( 'NONE', #141, #166, #48 ) ;
#75 = FILL_AREA_STYLE ('',( #235 ) ) ;
#76 = ADVANCED_FACE ( 'NONE', ( #160 ), #41, .T. ) ;
#77 = LENGTH_MEASURE_WITH_UNIT ( LENGTH_MEASURE( 0.02539999999999999897 ), #53 );
#78 = ORIENTED_EDGE ( 'NONE', *, *, #35, .F. ) ;
#79 = DIRECTION ( 'NONE',  ( -0.7071067811865546782, 0.0000000000000000000, -0.7071067811865402453 ) ) ;
#80 = ORIENTED_EDGE ( 'NONE', *, *, #270, .T. ) ;
#81 = CIRCLE ( 'NONE', #208, 0.1560937499999999756 ) ;
#82 =( GEOMETRIC_REPRESENTATION_CONTEXT ( 3 ) GLOBAL_UNCERTAINTY_ASSIGNED_CONTEXT ( ( #28 ) ) GLOBAL_UNIT_ASSIGNED_CONTEXT ( ( #32, #173, #27 ) ) REPRESENTATION_CONTEXT ( 'NONE', 'WORKASPACE' ) );
#83 = DIRECTION ( 'NONE',  ( 0.0000000000000000000, 0.0000000000000000000, 1.000000000000000000 ) ) ;
#84 = EDGE_LOOP ( 'NONE', ( #7, #110, #193, #78 ) ) ;
#85 = EDGE_CURVE ( 'NONE', #196, #12, #252, .T. ) ;
#86 = ORIENTED_EDGE ( 'NONE', *, *, #140, .F. ) ;
#87 = PRODUCT_RELATED_PRODUCT_CATEGORY ( 'part', '', ( #127 ) ) ;
#88 = FACE_OUTER_BOUND ( 'NONE', #84, .T. ) ;
#89 = AXIS2_PLACEMENT_3D ( 'NONE', #132, #222, #181 ) ;
#90 = VECTOR ( 'NONE', #189, 39.37007874015748143 ) ;
#91 = CARTESIAN_POINT ( 'NONE',  ( 1.378812854841938252E-16, 0.0000000000000000000, 1.125886137784315455 ) ) ;
#92 =( NAMED_UNIT ( * ) PLANE_ANGLE_UNIT ( ) SI_UNIT ( $, .RADIAN. ) );
#93 = ADVANCED_FACE ( 'NONE', ( #116 ), #266, .T. ) ;
#94 = FILL_AREA_STYLE_COLOUR ( '', #126 ) ;
#95 = CIRCLE ( 'NONE', #293, 0.1412500000000005418 ) ;
#96 = CARTESIAN_POINT ( 'NONE',  ( 0.0000000000000000000, 0.0000000000000000000, 3.000000000000000444 ) ) ;
#97 = DIRECTION ( 'NONE',  ( -1.000000000000000000, 0.0000000000000000000, 1.224646799147353700E-16 ) ) ;
#98 = CARTESIAN_POINT ( 'NONE',  ( -0.1560937499999999478, 0.0000000000000000000, 1.911597113044071690E-17 ) ) ;
#99 = VECTOR ( 'NONE', #273, 39.37007874015748143 ) ;
#100 = LINE ( 'NONE', #98, #90 ) ;
#101 = DIRECTION ( 'NONE',  ( -0.1736481776669311083, 2.126576849575782084E-17, 0.9848077530122080203 ) ) ;
#102 = DIRECTION ( 'NONE',  ( 1.000000000000000000, 0.0000000000000000000, -0.0000000000000000000 ) ) ;
#103 = ORIENTED_EDGE ( 'NONE', *, *, #270, .F. ) ;
#104 = AXIS2_PLACEMENT_3D ( 'NONE', #233, #184, #122 ) ;
#105 = ORIENTED_EDGE ( 'NONE', *, *, #35, .T. ) ;
#106 = APPLICATION_PROTOCOL_DEFINITION ( 'draft international standard', 'automotive_design', 1998, #227 ) ;
#107 = ORIENTED_EDGE ( 'NONE', *, *, #130, .T. ) ;
#108 = AXIS2_PLACEMENT_3D ( 'NONE', #221, #264, #202 ) ;
#109 = PRESENTATION_LAYER_ASSIGNMENT (  '', '', ( #200 ) ) ;
#110 = ORIENTED_EDGE ( 'NONE', *, *, #220, .F. ) ;
#111 = EDGE_CURVE ( 'NONE', #30, #10, #147, .T. ) ;
#112 = DIRECTION ( 'NONE',  ( -1.224646799147353454E-16, -0.0000000000000000000, -1.000000000000000000 ) ) ;
#113 = DIRECTION ( 'NONE',  ( 0.0000000000000000000, 0.0000000000000000000, -1.000000000000000000 ) ) ;
#114 = AXIS2_PLACEMENT_3D ( 'NONE', #25, #1, #67 ) ;
#115 = DIRECTION ( 'NONE',  ( 1.000000000000000000, 0.0000000000000000000, 0.0000000000000000000 ) ) ;
#116 = FACE_OUTER_BOUND ( 'NONE', #55, .T. ) ;
#117 = MANIFOLD_SOLID_BREP ( 'Cut-Revolve1', #138 ) ;
#118 = SURFACE_SIDE_STYLE ('',( #14 ) ) ;
#119 = CARTESIAN_POINT ( 'NONE',  ( 0.1562500000000000000, 1.913510623667738847E-17, 2.985000000000001208 ) ) ;
#120 = AXIS2_PLACEMENT_3D ( 'NONE', #291, #139, #18 ) ;
#121 = ADVANCED_FACE ( 'NONE', ( #187 ), #244, .T. ) ;
#122 = DIRECTION ( 'NONE',  ( -1.000000000000000000, 0.0000000000000000000, 1.224646799147353700E-16 ) ) ;
#123 = EDGE_CURVE ( 'NONE', #175, #30, #100, .T. ) ;
#124 = DIRECTION ( 'NONE',  ( 0.0000000000000000000, 0.0000000000000000000, 1.000000000000000000 ) ) ;
#125 = LINE ( 'NONE', #19, #165 ) ;
#126 = COLOUR_RGB ( '',0.7921568627450980005, 0.8196078431372548767, 0.9333333333333333481 ) ;
#127 = PRODUCT ( 'Micro_SHL-312-4X', 'Micro_SHL-312-4X', '', ( #257 ) ) ;
#128 = DIRECTION ( 'NONE',  ( -0.0000000000000000000, -0.0000000000000000000, -1.000000000000000000 ) ) ;
#129 = SURFACE_STYLE_USAGE ( .BOTH. , #236 ) ;
#130 = EDGE_CURVE ( 'NONE', #38, #10, #68, .T. ) ;
#131 = AXIS2_PLACEMENT_3D ( 'NONE', #22, #70, #44 ) ;
#132 = CARTESIAN_POINT ( 'NONE',  ( 1.378812854841938252E-16, 0.0000000000000000000, 1.125886137784315455 ) ) ;
#133 = DIRECTION ( 'NONE',  ( 0.1736481776669313026, 0.0000000000000000000, 0.9848077530122077983 ) ) ;
#134 = EDGE_LOOP ( 'NONE', ( #259, #107, #174, #180 ) ) ;
#135 = AXIS2_PLACEMENT_3D ( 'NONE', #230, #185, #269 ) ;
#136 = VERTEX_POINT ( 'NONE', #119 ) ;
#137 = PRODUCT_DEFINITION_CONTEXT ( 'detailed design', #238, 'design' ) ;
#138 = CLOSED_SHELL ( 'NONE', ( #182, #52, #261, #179, #76, #121, #29, #93, #234, #295 ) ) ;
#139 = DIRECTION ( 'NONE',  ( 1.224646799147353454E-16, 0.0000000000000000000, 1.000000000000000000 ) ) ;
#140 = EDGE_CURVE ( 'NONE', #281, #192, #239, .T. ) ;
#141 = CARTESIAN_POINT ( 'NONE',  ( 0.0000000000000000000, 0.0000000000000000000, 0.0000000000000000000 ) ) ;
#142 = CARTESIAN_POINT ( 'NONE',  ( 0.1562500000000000000, 1.913510623667738847E-17, 3.000000000000000444 ) ) ;
#143 = COLOUR_RGB ( '',0.7921568627450980005, 0.8196078431372548767, 0.9333333333333333481 ) ;
#144 = FACE_OUTER_BOUND ( 'NONE', #3, .T. ) ;
#145 = CARTESIAN_POINT ( 'NONE',  ( -0.1412500000000005418, 0.0000000000000000000, 3.000000000000000444 ) ) ;
#146 = FACE_OUTER_BOUND ( 'NONE', #134, .T. ) ;
#147 = CIRCLE ( 'NONE', #11, 0.1560937499999999478 ) ;
#148 = SURFACE_STYLE_FILL_AREA ( #75 ) ;
#149 = PRESENTATION_STYLE_ASSIGNMENT (( #129 ) ) ;
#150 = ORIENTED_EDGE ( 'NONE', *, *, #13, .T. ) ;
#151 = EDGE_LOOP ( 'NONE', ( #218, #59 ) ) ;
#152 = APPLICATION_PROTOCOL_DEFINITION ( 'draft international standard', 'automotive_design', 1998, #238 ) ;
#153 = ORIENTED_EDGE ( 'NONE', *, *, #188, .F. ) ;
#154 = ORIENTED_EDGE ( 'NONE', *, *, #197, .F. ) ;
#155 = ORIENTED_EDGE ( 'NONE', *, *, #197, .T. ) ;
#156 = CIRCLE ( 'NONE', #258, 0.1562500000000000000 ) ;
#157 = EDGE_CURVE ( 'NONE', #38, #175, #50, .T. ) ;
#158 = CARTESIAN_POINT ( 'NONE',  ( 0.1560937499999999478, 1.911597113044071073E-17, 0.0000000000000000000 ) ) ;
#159 = DIRECTION ( 'NONE',  ( -1.000000000000000000, 0.0000000000000000000, 0.0000000000000000000 ) ) ;
#160 = FACE_OUTER_BOUND ( 'NONE', #254, .T. ) ;
#161 = UNCERTAINTY_MEASURE_WITH_UNIT (LENGTH_MEASURE( 1.000000000000000082E-05 ), #63, 'distance_accuracy_value', 'NONE');
#162 = FACE_OUTER_BOUND ( 'NONE', #260, .T. ) ;
#163 = DIRECTION ( 'NONE',  ( 0.0000000000000000000, 0.0000000000000000000, -1.000000000000000000 ) ) ;
#164 = CARTESIAN_POINT ( 'NONE',  ( 0.0000000000000000000, 0.0000000000000000000, 3.000000000000000444 ) ) ;
#165 = VECTOR ( 'NONE', #128, 39.37007874015748143 ) ;
#166 = DIRECTION ( 'NONE',  ( -1.224646799147353454E-16, -0.0000000000000000000, -1.000000000000000000 ) ) ;
#167 = CARTESIAN_POINT ( 'NONE',  ( -0.1560937499999998368, 1.912553868355905422E-17, 1.125000000000000000 ) ) ;
#168 = DIRECTION ( 'NONE',  ( -1.224646799147353454E-16, -0.0000000000000000000, -1.000000000000000000 ) ) ;
#169 = PRODUCT_DEFINITION_SHAPE ( 'NONE', 'NONE',  #274 ) ;
#170 = ORIENTED_EDGE ( 'NONE', *, *, #69, .F. ) ;
#171 = DIRECTION ( 'NONE',  ( 1.000000000000000000, 0.0000000000000000000, 0.0000000000000000000 ) ) ;
#172 = ORIENTED_EDGE ( 'NONE', *, *, #130, .F. ) ;
#173 =( NAMED_UNIT ( * ) PLANE_ANGLE_UNIT ( ) SI_UNIT ( $, .RADIAN. ) );
#174 = ORIENTED_EDGE ( 'NONE', *, *, #111, .F. ) ;
#175 = VERTEX_POINT ( 'NONE', #167 ) ;
#176 = LINE ( 'NONE', #262, #299 ) ;
#177 = PRESENTATION_LAYER_ASSIGNMENT (  '', '', ( #298 ) ) ;
#178 = SURFACE_STYLE_USAGE ( .BOTH. , #118 ) ;
#179 = ADVANCED_FACE ( 'NONE', ( #23 ), #271, .T. ) ;
#180 = ORIENTED_EDGE ( 'NONE', *, *, #123, .F. ) ;
#181 = DIRECTION ( 'NONE',  ( 1.000000000000000000, 0.0000000000000000000, 0.0000000000000000000 ) ) ;
#182 = ADVANCED_FACE ( 'NONE', ( #146 ), #205, .T. ) ;
#183 = CARTESIAN_POINT ( 'NONE',  ( 0.0000000000000000000, 0.0000000000000000000, 2.985000000000001208 ) ) ;
#184 = DIRECTION ( 'NONE',  ( -1.224646799147353454E-16, -0.0000000000000000000, -1.000000000000000000 ) ) ;
#185 = DIRECTION ( 'NONE',  ( 0.0000000000000000000, 0.0000000000000000000, -1.000000000000000000 ) ) ;
#186 = AXIS2_PLACEMENT_3D ( 'NONE', #91, #224, #17 ) ;
#187 = FACE_OUTER_BOUND ( 'NONE', #280, .T. ) ;
#188 = EDGE_CURVE ( 'NONE', #10, #30, #191, .T. ) ;
#189 = DIRECTION ( 'NONE',  ( -1.224646799147353454E-16, -0.0000000000000000000, -1.000000000000000000 ) ) ;
#190 = DIMENSIONAL_EXPONENTS ( 1.000000000000000000, 0.0000000000000000000, 0.0000000000000000000, 0.0000000000000000000, 0.0000000000000000000, 0.0000000000000000000, 0.0000000000000000000 ) ;
#191 = CIRCLE ( 'NONE', #104, 0.1560937499999999478 ) ;
#192 = VERTEX_POINT ( 'NONE', #145 ) ;
#193 = ORIENTED_EDGE ( 'NONE', *, *, #288, .T. ) ;
#194 = EDGE_LOOP ( 'NONE', ( #80, #217, #242, #286 ) ) ;
#195 = EDGE_CURVE ( 'NONE', #60, #196, #125, .T. ) ;
#196 = VERTEX_POINT ( 'NONE', #204 ) ;
#197 = EDGE_CURVE ( 'NONE', #175, #196, #277, .T. ) ;
#198 = FILL_AREA_STYLE ('',( #94 ) ) ;
#199 = CARTESIAN_POINT ( 'NONE',  ( 1.377727649040772882E-16, 0.0000000000000000000, 1.125000000000000000 ) ) ;
#200 = STYLED_ITEM ( 'NONE', ( #292 ), #117 ) ;
#201 = DIRECTION ( 'NONE',  ( -1.000000000000000000, 0.0000000000000000000, 1.224646799147353700E-16 ) ) ;
#202 = DIRECTION ( 'NONE',  ( -1.000000000000000000, 0.0000000000000000000, 0.0000000000000000000 ) ) ;
#203 = VECTOR ( 'NONE', #79, 39.37007874015748854 ) ;
#204 = CARTESIAN_POINT ( 'NONE',  ( -0.1562499999999998612, 0.0000000000000000000, 1.125886137784315455 ) ) ;
#205 = CYLINDRICAL_SURFACE ( 'NONE', #74, 0.1560937499999999478 ) ;
#206 = CONICAL_SURFACE ( 'NONE', #46, 0.1412500000000005418, 0.7853981633974583820 ) ;
#207 = CARTESIAN_POINT ( 'NONE',  ( -0.1560937499999998368, 1.911597113044071690E-17, 1.125000000000000000 ) ) ;
#208 = AXIS2_PLACEMENT_3D ( 'NONE', #199, #66, #159 ) ;
#209 = DIRECTION ( 'NONE',  ( 0.0000000000000000000, 0.0000000000000000000, 1.000000000000000000 ) ) ;
#210 = CARTESIAN_POINT ( 'NONE',  ( -0.1412500000000005418, 0.0000000000000000000, 3.000000000000000444 ) ) ;
#211 = ORIENTED_EDGE ( 'NONE', *, *, #140, .T. ) ;
#212 =( NAMED_UNIT ( * ) SI_UNIT ( $, .STERADIAN. ) SOLID_ANGLE_UNIT ( ) );
#213 = CIRCLE ( 'NONE', #89, 0.1562500000000000000 ) ;
#214 = VECTOR ( 'NONE', #229, 39.37007874015748143 ) ;
#215 = ORIENTED_EDGE ( 'NONE', *, *, #51, .T. ) ;
#216 = LINE ( 'NONE', #210, #203 ) ;
#217 = ORIENTED_EDGE ( 'NONE', *, *, #276, .T. ) ;
#218 = ORIENTED_EDGE ( 'NONE', *, *, #111, .T. ) ;
#219 = CONICAL_SURFACE ( 'NONE', #61, 0.1560937499999999756, 0.1745329251994338082 ) ;
#220 = EDGE_CURVE ( 'NONE', #192, #281, #95, .T. ) ;
#221 = CARTESIAN_POINT ( 'NONE',  ( 0.0000000000000000000, 0.0000000000000000000, 3.000000000000000444 ) ) ;
#222 = DIRECTION ( 'NONE',  ( -1.224646799147353454E-16, -0.0000000000000000000, -1.000000000000000000 ) ) ;
#223 =( GEOMETRIC_REPRESENTATION_CONTEXT ( 3 ) GLOBAL_UNCERTAINTY_ASSIGNED_CONTEXT ( ( #20 ) ) GLOBAL_UNIT_ASSIGNED_CONTEXT ( ( #34, #255, #212 ) ) REPRESENTATION_CONTEXT ( 'NONE', 'WORKASPACE' ) );
#224 = DIRECTION ( 'NONE',  ( -1.224646799147353454E-16, -0.0000000000000000000, -1.000000000000000000 ) ) ;
#225 = DIRECTION ( 'NONE',  ( -1.000000000000000000, 0.0000000000000000000, 0.0000000000000000000 ) ) ;
#226 = CARTESIAN_POINT ( 'NONE',  ( 0.0000000000000000000, 0.0000000000000000000, 2.985000000000001208 ) ) ;
#227 = APPLICATION_CONTEXT ( 'automotive_design' ) ;
#228 = AXIS2_PLACEMENT_3D ( 'NONE', #294, #124, #251 ) ;
#229 = DIRECTION ( 'NONE',  ( -0.0000000000000000000, -0.0000000000000000000, -1.000000000000000000 ) ) ;
#230 = CARTESIAN_POINT ( 'NONE',  ( 0.0000000000000000000, 0.0000000000000000000, 3.000000000000000444 ) ) ;
#231 = ADVANCED_BREP_SHAPE_REPRESENTATION ( 'Micro_SHL-312-4X', ( #117, #42 ), #223 ) ;
#232 =( NAMED_UNIT ( * ) SI_UNIT ( $, .STERADIAN. ) SOLID_ANGLE_UNIT ( ) );
#233 = CARTESIAN_POINT ( 'NONE',  ( 2.341031285748743856E-33, 0.0000000000000000000, 1.911597113044071690E-17 ) ) ;
#234 = ADVANCED_FACE ( 'NONE', ( #73 ), #296, .T. ) ;
#235 = FILL_AREA_STYLE_COLOUR ( '', #143 ) ;
#236 = SURFACE_SIDE_STYLE ('',( #148 ) ) ;
#237 = EDGE_LOOP ( 'NONE', ( #172, #33, #57, #153 ) ) ;
#238 = APPLICATION_CONTEXT ( 'automotive_design' ) ;
#239 = CIRCLE ( 'NONE', #267, 0.1412500000000005418 ) ;
#240 = ORIENTED_EDGE ( 'NONE', *, *, #51, .F. ) ;
#241 = ORIENTED_EDGE ( 'NONE', *, *, #13, .F. ) ;
#242 = ORIENTED_EDGE ( 'NONE', *, *, #85, .F. ) ;
#243 = CARTESIAN_POINT ( 'NONE',  ( 0.1412500000000005418, 1.729813603795642744E-17, 3.000000000000000444 ) ) ;
#244 = PLANE ( 'NONE',  #228 ) ;
#245 = CARTESIAN_POINT ( 'NONE',  ( 0.0000000000000000000, 0.0000000000000000000, 3.000000000000000444 ) ) ;
#246 = PRODUCT_DEFINITION_FORMATION_WITH_SPECIFIED_SOURCE ( 'ANY', '', #127, .NOT_KNOWN. ) ;
#247 = CARTESIAN_POINT ( 'NONE',  ( -0.1560937499999999478, 0.0000000000000000000, 3.823194226088143379E-17 ) ) ;
#248 = DIRECTION ( 'NONE',  ( 1.224646799147353454E-16, 0.0000000000000000000, 1.000000000000000000 ) ) ;
#249 = DIRECTION ( 'NONE',  ( 1.000000000000000000, 0.0000000000000000000, 0.0000000000000000000 ) ) ;
#250 = MECHANICAL_DESIGN_GEOMETRIC_PRESENTATION_REPRESENTATION (  '', ( #298 ), #82 ) ;
#251 = DIRECTION ( 'NONE',  ( 1.000000000000000000, 0.0000000000000000000, -0.0000000000000000000 ) ) ;
#252 = CIRCLE ( 'NONE', #186, 0.1562500000000000000 ) ;
#253 = DIRECTION ( 'NONE',  ( 0.0000000000000000000, 0.0000000000000000000, 1.000000000000000000 ) ) ;
#254 = EDGE_LOOP ( 'NONE', ( #54, #105, #282, #240 ) ) ;
#255 =( NAMED_UNIT ( * ) PLANE_ANGLE_UNIT ( ) SI_UNIT ( $, .RADIAN. ) );
#256 = ORIENTED_EDGE ( 'NONE', *, *, #26, .T. ) ;
#257 = PRODUCT_CONTEXT ( 'NONE', #227, 'mechanical' ) ;
#258 = AXIS2_PLACEMENT_3D ( 'NONE', #183, #268, #40 ) ;
#259 = ORIENTED_EDGE ( 'NONE', *, *, #69, .T. ) ;
#260 = EDGE_LOOP ( 'NONE', ( #170, #155, #285, #241 ) ) ;
#261 = ADVANCED_FACE ( 'NONE', ( #144 ), #31, .T. ) ;
#262 = CARTESIAN_POINT ( 'NONE',  ( 0.1560937500000001144, 0.0000000000000000000, 1.125000000000000000 ) ) ;
#263 =( LENGTH_UNIT ( ) NAMED_UNIT ( * ) SI_UNIT ( $, .METRE. ) );
#264 = DIRECTION ( 'NONE',  ( -0.0000000000000000000, -0.0000000000000000000, -1.000000000000000000 ) ) ;
#265 = DIRECTION ( 'NONE',  ( 0.7071067811865546782, 8.659560562355019140E-17, -0.7071067811865402453 ) ) ;
#266 = CONICAL_SURFACE ( 'NONE', #120, 0.1560937499999999756, 0.1745329251994338082 ) ;
#267 = AXIS2_PLACEMENT_3D ( 'NONE', #164, #275, #71 ) ;
#268 = DIRECTION ( 'NONE',  ( 0.0000000000000000000, 0.0000000000000000000, -1.000000000000000000 ) ) ;
#269 = DIRECTION ( 'NONE',  ( -1.000000000000000000, 0.0000000000000000000, 0.0000000000000000000 ) ) ;
#270 = EDGE_CURVE ( 'NONE', #60, #136, #37, .T. ) ;
#271 = CYLINDRICAL_SURFACE ( 'NONE', #131, 0.1562500000000000000 ) ;
#272 = AXIS2_PLACEMENT_3D ( 'NONE', #226, #163, #249 ) ;
#273 = DIRECTION ( 'NONE',  ( -1.224646799147353454E-16, -0.0000000000000000000, -1.000000000000000000 ) ) ;
#274 = PRODUCT_DEFINITION ( 'UNKNOWN', '', #246, #137 ) ;
#275 = DIRECTION ( 'NONE',  ( 0.0000000000000000000, 0.0000000000000000000, 1.000000000000000000 ) ) ;
#276 = EDGE_CURVE ( 'NONE', #136, #12, #45, .T. ) ;
#277 = LINE ( 'NONE', #207, #4 ) ;
#278 =( GEOMETRIC_REPRESENTATION_CONTEXT ( 3 ) GLOBAL_UNCERTAINTY_ASSIGNED_CONTEXT ( ( #161 ) ) GLOBAL_UNIT_ASSIGNED_CONTEXT ( ( #63, #92, #232 ) ) REPRESENTATION_CONTEXT ( 'NONE', 'WORKASPACE' ) );
#279 = FACE_OUTER_BOUND ( 'NONE', #151, .T. ) ;
#280 = EDGE_LOOP ( 'NONE', ( #15, #211 ) ) ;
#281 = VERTEX_POINT ( 'NONE', #21 ) ;
#282 = ORIENTED_EDGE ( 'NONE', *, *, #195, .T. ) ;
#283 = CARTESIAN_POINT ( 'NONE',  ( 0.0000000000000000000, 0.0000000000000000000, 0.0000000000000000000 ) ) ;
#284 = VECTOR ( 'NONE', #265, 39.37007874015748854 ) ;
#285 = ORIENTED_EDGE ( 'NONE', *, *, #85, .T. ) ;
#286 = ORIENTED_EDGE ( 'NONE', *, *, #195, .F. ) ;
#287 = LENGTH_MEASURE_WITH_UNIT ( LENGTH_MEASURE( 0.02539999999999999897 ), #263 );
#288 = EDGE_CURVE ( 'NONE', #192, #60, #216, .T. ) ;
#289 = AXIS2_PLACEMENT_3D ( 'NONE', #2, #253, #102 ) ;
#290 = CARTESIAN_POINT ( 'NONE',  ( -0.1562500000000000000, 0.0000000000000000000, 2.985000000000001208 ) ) ;
#291 = CARTESIAN_POINT ( 'NONE',  ( 1.377727649040772882E-16, 0.0000000000000000000, 1.125000000000000000 ) ) ;
#292 = PRESENTATION_STYLE_ASSIGNMENT (( #178 ) ) ;
#293 = AXIS2_PLACEMENT_3D ( 'NONE', #96, #209, #297 ) ;
#294 = CARTESIAN_POINT ( 'NONE',  ( 0.0000000000000000000, 0.0000000000000000000, 3.000000000000000444 ) ) ;
#295 = ADVANCED_FACE ( 'NONE', ( #279 ), #56, .F. ) ;
#296 = CYLINDRICAL_SURFACE ( 'NONE', #16, 0.1560937499999999478 ) ;
#297 = DIRECTION ( 'NONE',  ( 1.000000000000000000, 0.0000000000000000000, 0.0000000000000000000 ) ) ;
#298 = STYLED_ITEM ( 'NONE', ( #149 ), #231 ) ;
#299 = VECTOR ( 'NONE', #133, 39.37007874015748143 ) ;
ENDSEC;
END-ISO-10303-21;
