ISO-10303-21;
HEADER;
FILE_DESCRIPTION (( 'STEP AP214' ),
    '1' );
FILE_NAME ('Micro_SEM-078-02X.STEP',
    '2021-09-02T00:56:57',
    ( '' ),
    ( '' ),
    'SwSTEP 2.0',
    'SolidWorks 2020',
    '' );
FILE_SCHEMA (( 'AUTOMOTIVE_DESIGN' ));
ENDSEC;

DATA;
#1 = AXIS2_PLACEMENT_3D ( 'NONE', #122, #193, #73 ) ;
#2 = CARTESIAN_POINT ( 'NONE',  ( 0.0000000000000000000, 0.0000000000000000000, 0.0000000000000000000 ) ) ;
#3 =( NAMED_UNIT ( * ) PLANE_ANGLE_UNIT ( ) SI_UNIT ( $, .RADIAN. ) );
#4 = ORIENTED_EDGE ( 'NONE', *, *, #162, .F. ) ;
#5 = MECHANICAL_DESIGN_GEOMETRIC_PRESENTATION_REPRESENTATION (  '', ( #113 ), #84 ) ;
#6 = ORIENTED_EDGE ( 'NONE', *, *, #116, .F. ) ;
#7 = VERTEX_POINT ( 'NONE', #57 ) ;
#8 = ADVANCED_FACE ( 'NONE', ( #109 ), #217, .T. ) ;
#9 = VERTEX_POINT ( 'NONE', #52 ) ;
#10 = VECTOR ( 'NONE', #161, 39.37007874015748143 ) ;
#11 = CIRCLE ( 'NONE', #61, 0.06250000000000000000 ) ;
#12 = DIRECTION ( 'NONE',  ( -1.000000000000000000, 0.0000000000000000000, 1.224646799147353700E-16 ) ) ;
#13 = LINE ( 'NONE', #114, #223 ) ;
#14 = DIRECTION ( 'NONE',  ( 1.000000000000000000, 0.0000000000000000000, 0.0000000000000000000 ) ) ;
#15 = CARTESIAN_POINT ( 'NONE',  ( -0.03901094999999998869, 6.215752999795350985E-18, 0.1559999999999999998 ) ) ;
#16 = PRODUCT_DEFINITION_FORMATION_WITH_SPECIFIED_SOURCE ( 'ANY', '', #69, .NOT_KNOWN. ) ;
#17 = DIRECTION ( 'NONE',  ( 1.224646799147353454E-16, 0.0000000000000000000, 1.000000000000000000 ) ) ;
#18 = UNCERTAINTY_MEASURE_WITH_UNIT (LENGTH_MEASURE( 1.000000000000000082E-05 ), #155, 'distance_accuracy_value', 'NONE');
#19 = SURFACE_STYLE_FILL_AREA ( #115 ) ;
#20 = AXIS2_PLACEMENT_3D ( 'NONE', #35, #111, #203 ) ;
#21 = DIRECTION ( 'NONE',  ( -1.000000000000000000, 0.0000000000000000000, 0.0000000000000000000 ) ) ;
#22 = VECTOR ( 'NONE', #139, 39.37007874015748143 ) ;
#23 = DIRECTION ( 'NONE',  ( 0.0000000000000000000, 0.0000000000000000000, -1.000000000000000000 ) ) ;
#24 = ORIENTED_EDGE ( 'NONE', *, *, #285, .F. ) ;
#25 = ADVANCED_FACE ( 'NONE', ( #30 ), #204, .T. ) ;
#26 = DIRECTION ( 'NONE',  ( 0.1736481776669313859, 0.0000000000000000000, 0.9848077530122077983 ) ) ;
#27 = AXIS2_PLACEMENT_3D ( 'NONE', #234, #106, #12 ) ;
#28 = EDGE_CURVE ( 'NONE', #9, #239, #71, .T. ) ;
#29 = DIRECTION ( 'NONE',  ( -1.224646799147353454E-16, -0.0000000000000000000, -1.000000000000000000 ) ) ;
#30 = FACE_OUTER_BOUND ( 'NONE', #192, .T. ) ;
#31 = EDGE_LOOP ( 'NONE', ( #254, #181, #190, #260 ) ) ;
#32 = EDGE_CURVE ( 'NONE', #148, #149, #50, .T. ) ;
#33 = STYLED_ITEM ( 'NONE', ( #207 ), #180 ) ;
#34 = CARTESIAN_POINT ( 'NONE',  ( 1.910449006669871395E-17, 0.0000000000000000000, 0.1559999999999999998 ) ) ;
#35 = CARTESIAN_POINT ( 'NONE',  ( 0.0000000000000000000, 0.0000000000000000000, 1.500000000000000222 ) ) ;
#36 = DIRECTION ( 'NONE',  ( 1.000000000000000000, 0.0000000000000000000, 0.0000000000000000000 ) ) ;
#37 = ADVANCED_FACE ( 'NONE', ( #258 ), #261, .T. ) ;
#38 = CIRCLE ( 'NONE', #1, 0.03901095000000000257 ) ;
#39 = CARTESIAN_POINT ( 'NONE',  ( 0.0000000000000000000, 0.0000000000000000000, 1.485000000000000764 ) ) ;
#40 = APPLICATION_PROTOCOL_DEFINITION ( 'draft international standard', 'automotive_design', 1998, #249 ) ;
#41 = FACE_OUTER_BOUND ( 'NONE', #154, .T. ) ;
#42 = ORIENTED_EDGE ( 'NONE', *, *, #28, .F. ) ;
#43 = UNCERTAINTY_MEASURE_WITH_UNIT (LENGTH_MEASURE( 1.000000000000000082E-05 ), #100, 'distance_accuracy_value', 'NONE');
#44 = CYLINDRICAL_SURFACE ( 'NONE', #276, 0.03901095000000000257 ) ;
#45 = LENGTH_MEASURE_WITH_UNIT ( LENGTH_MEASURE( 0.02539999999999999897 ), #163 );
#46 = CARTESIAN_POINT ( 'NONE',  ( 0.0000000000000000000, 0.0000000000000000000, 1.500000000000000222 ) ) ;
#47 = PRODUCT_DEFINITION ( 'UNKNOWN', '', #16, #246 ) ;
#48 = CIRCLE ( 'NONE', #279, 0.06250000000000000000 ) ;
#49 = VECTOR ( 'NONE', #142, 39.37007874015747433 ) ;
#50 = LINE ( 'NONE', #85, #236 ) ;
#51 = EDGE_CURVE ( 'NONE', #239, #9, #65, .T. ) ;
#52 = CARTESIAN_POINT ( 'NONE',  ( 0.03901095000000000257, 4.777463504919744426E-18, 0.0000000000000000000 ) ) ;
#53 = DIMENSIONAL_EXPONENTS ( 1.000000000000000000, 0.0000000000000000000, 0.0000000000000000000, 0.0000000000000000000, 0.0000000000000000000, 0.0000000000000000000, 0.0000000000000000000 ) ;
#54 = CIRCLE ( 'NONE', #107, 0.06250000000000000000 ) ;
#55 = VERTEX_POINT ( 'NONE', #219 ) ;
#56 = CARTESIAN_POINT ( 'NONE',  ( 0.0000000000000000000, 0.0000000000000000000, 0.0000000000000000000 ) ) ;
#57 = CARTESIAN_POINT ( 'NONE',  ( 0.04750000000000064587, 6.735557395310482421E-18, 1.500000000000000222 ) ) ;
#58 = ADVANCED_FACE ( 'NONE', ( #269 ), #212, .T. ) ;
#59 = ORIENTED_EDGE ( 'NONE', *, *, #88, .T. ) ;
#60 = VECTOR ( 'NONE', #264, 39.37007874015748143 ) ;
#61 = AXIS2_PLACEMENT_3D ( 'NONE', #166, #23, #296 ) ;
#62 = CARTESIAN_POINT ( 'NONE',  ( 0.06250000000000000000, 7.654042494670956004E-18, 1.500000000000000222 ) ) ;
#63 = FACE_OUTER_BOUND ( 'NONE', #274, .T. ) ;
#64 = CARTESIAN_POINT ( 'NONE',  ( -0.04750000000000064587, 0.0000000000000000000, 1.500000000000000222 ) ) ;
#65 = CIRCLE ( 'NONE', #275, 0.03901095000000000257 ) ;
#66 = DIRECTION ( 'NONE',  ( 1.000000000000000000, 0.0000000000000000000, -0.0000000000000000000 ) ) ;
#67 = ADVANCED_FACE ( 'NONE', ( #63 ), #110, .F. ) ;
#68 = UNCERTAINTY_MEASURE_WITH_UNIT (LENGTH_MEASURE( 1.000000000000000082E-05 ), #221, 'distance_accuracy_value', 'NONE');
#69 = PRODUCT ( 'Micro_SEM-078-02X', 'Micro_SEM-078-02X', '', ( #171 ) ) ;
#70 =( NAMED_UNIT ( * ) SI_UNIT ( $, .STERADIAN. ) SOLID_ANGLE_UNIT ( ) );
#71 = CIRCLE ( 'NONE', #97, 0.03901095000000000257 ) ;
#72 = VERTEX_POINT ( 'NONE', #15 ) ;
#73 = DIRECTION ( 'NONE',  ( -1.000000000000000000, 0.0000000000000000000, 0.0000000000000000000 ) ) ;
#74 = CLOSED_SHELL ( 'NONE', ( #8, #58, #298, #101, #37, #188, #243, #25, #205, #67 ) ) ;
#75 = EDGE_CURVE ( 'NONE', #165, #149, #54, .T. ) ;
#76 = DIRECTION ( 'NONE',  ( -1.000000000000000000, 0.0000000000000000000, 1.224646799147353700E-16 ) ) ;
#77 = EDGE_LOOP ( 'NONE', ( #231, #214, #24, #170 ) ) ;
#78 = MECHANICAL_DESIGN_GEOMETRIC_PRESENTATION_REPRESENTATION (  '', ( #33 ), #226 ) ;
#79 = DIRECTION ( 'NONE',  ( -1.000000000000000000, 0.0000000000000000000, 1.224646799147353700E-16 ) ) ;
#80 = ORIENTED_EDGE ( 'NONE', *, *, #175, .T. ) ;
#81 = DIMENSIONAL_EXPONENTS ( 1.000000000000000000, 0.0000000000000000000, 0.0000000000000000000, 0.0000000000000000000, 0.0000000000000000000, 0.0000000000000000000, 0.0000000000000000000 ) ;
#82 = ORIENTED_EDGE ( 'NONE', *, *, #232, .T. ) ;
#83 = CIRCLE ( 'NONE', #265, 0.04750000000000064587 ) ;
#84 =( GEOMETRIC_REPRESENTATION_CONTEXT ( 3 ) GLOBAL_UNCERTAINTY_ASSIGNED_CONTEXT ( ( #68 ) ) GLOBAL_UNIT_ASSIGNED_CONTEXT ( ( #221, #126, #178 ) ) REPRESENTATION_CONTEXT ( 'NONE', 'WORKASPACE' ) );
#85 = CARTESIAN_POINT ( 'NONE',  ( 0.03901095000000002339, 0.0000000000000000000, 0.1559999999999999998 ) ) ;
#86 = ORIENTED_EDGE ( 'NONE', *, *, #75, .T. ) ;
#87 = FACE_OUTER_BOUND ( 'NONE', #31, .T. ) ;
#88 = EDGE_CURVE ( 'NONE', #105, #7, #83, .T. ) ;
#89 = CARTESIAN_POINT ( 'NONE',  ( -0.06250000000000000000, 0.0000000000000000000, 1.485000000000000764 ) ) ;
#90 = DIRECTION ( 'NONE',  ( -0.0000000000000000000, -0.0000000000000000000, -1.000000000000000000 ) ) ;
#91 = LINE ( 'NONE', #62, #10 ) ;
#92 = CIRCLE ( 'NONE', #255, 0.03901095000000000257 ) ;
#93 = CARTESIAN_POINT ( 'NONE',  ( 3.541838019396895887E-17, 0.0000000000000000000, 0.2892130222250905436 ) ) ;
#94 = DIRECTION ( 'NONE',  ( -1.224646799147353454E-16, -0.0000000000000000000, -1.000000000000000000 ) ) ;
#95 = ORIENTED_EDGE ( 'NONE', *, *, #157, .T. ) ;
#96 = DIRECTION ( 'NONE',  ( 1.000000000000000000, 0.0000000000000000000, 0.0000000000000000000 ) ) ;
#97 = AXIS2_PLACEMENT_3D ( 'NONE', #220, #195, #79 ) ;
#98 =( GEOMETRIC_REPRESENTATION_CONTEXT ( 3 ) GLOBAL_UNCERTAINTY_ASSIGNED_CONTEXT ( ( #43 ) ) GLOBAL_UNIT_ASSIGNED_CONTEXT ( ( #100, #3, #70 ) ) REPRESENTATION_CONTEXT ( 'NONE', 'WORKASPACE' ) );
#99 = EDGE_CURVE ( 'NONE', #55, #149, #91, .T. ) ;
#100 =( CONVERSION_BASED_UNIT ( 'INCH', #45 ) LENGTH_UNIT ( ) NAMED_UNIT ( #81 ) );
#101 = ADVANCED_FACE ( 'NONE', ( #87 ), #248, .T. ) ;
#102 = CARTESIAN_POINT ( 'NONE',  ( 1.910449006669871395E-17, 0.0000000000000000000, 0.1559999999999999998 ) ) ;
#103 = PRESENTATION_LAYER_ASSIGNMENT (  '', '', ( #113 ) ) ;
#104 = ORIENTED_EDGE ( 'NONE', *, *, #51, .F. ) ;
#105 = VERTEX_POINT ( 'NONE', #64 ) ;
#106 = DIRECTION ( 'NONE',  ( -1.224646799147353454E-16, -0.0000000000000000000, -1.000000000000000000 ) ) ;
#107 = AXIS2_PLACEMENT_3D ( 'NONE', #93, #267, #227 ) ;
#108 = SURFACE_STYLE_USAGE ( .BOTH. , #218 ) ;
#109 = FACE_OUTER_BOUND ( 'NONE', #125, .T. ) ;
#110 = PLANE ( 'NONE',  #286 ) ;
#111 = DIRECTION ( 'NONE',  ( 0.0000000000000000000, 0.0000000000000000000, 1.000000000000000000 ) ) ;
#112 = AXIS2_PLACEMENT_3D ( 'NONE', #127, #282, #151 ) ;
#113 = STYLED_ITEM ( 'NONE', ( #134 ), #242 ) ;
#114 = CARTESIAN_POINT ( 'NONE',  ( -0.06250000000000000000, 0.0000000000000000000, 1.500000000000000222 ) ) ;
#115 = FILL_AREA_STYLE ('',( #137 ) ) ;
#116 = EDGE_CURVE ( 'NONE', #55, #131, #48, .T. ) ;
#117 = SURFACE_SIDE_STYLE ('',( #19 ) ) ;
#118 = DIRECTION ( 'NONE',  ( -1.224646799147353454E-16, -0.0000000000000000000, -1.000000000000000000 ) ) ;
#119 = CONICAL_SURFACE ( 'NONE', #128, 0.04750000000000064587, 0.7853981633974457255 ) ;
#120 = LINE ( 'NONE', #143, #49 ) ;
#121 = PRODUCT_DEFINITION_SHAPE ( 'NONE', 'NONE',  #47 ) ;
#122 = CARTESIAN_POINT ( 'NONE',  ( 1.910449006669871395E-17, 0.0000000000000000000, 0.1559999999999999998 ) ) ;
#123 = AXIS2_PLACEMENT_3D ( 'NONE', #56, #147, #130 ) ;
#124 = FACE_OUTER_BOUND ( 'NONE', #77, .T. ) ;
#125 = EDGE_LOOP ( 'NONE', ( #196, #259, #104, #284 ) ) ;
#126 =( NAMED_UNIT ( * ) PLANE_ANGLE_UNIT ( ) SI_UNIT ( $, .RADIAN. ) );
#127 = CARTESIAN_POINT ( 'NONE',  ( 0.0000000000000000000, 0.0000000000000000000, 1.500000000000000222 ) ) ;
#128 = AXIS2_PLACEMENT_3D ( 'NONE', #46, #273, #21 ) ;
#129 = DIRECTION ( 'NONE',  ( -1.000000000000000000, 0.0000000000000000000, 1.224646799147353700E-16 ) ) ;
#130 = DIRECTION ( 'NONE',  ( 1.000000000000000000, 0.0000000000000000000, 0.0000000000000000000 ) ) ;
#131 = VERTEX_POINT ( 'NONE', #89 ) ;
#132 = EDGE_CURVE ( 'NONE', #7, #105, #156, .T. ) ;
#133 = DIMENSIONAL_EXPONENTS ( 1.000000000000000000, 0.0000000000000000000, 0.0000000000000000000, 0.0000000000000000000, 0.0000000000000000000, 0.0000000000000000000, 0.0000000000000000000 ) ;
#134 = PRESENTATION_STYLE_ASSIGNMENT (( #108 ) ) ;
#135 = DIRECTION ( 'NONE',  ( 1.224646799147353454E-16, 0.0000000000000000000, 1.000000000000000000 ) ) ;
#136 = DIRECTION ( 'NONE',  ( 0.0000000000000000000, 0.0000000000000000000, 1.000000000000000000 ) ) ;
#137 = FILL_AREA_STYLE_COLOUR ( '', #141 ) ;
#138 = VECTOR ( 'NONE', #209, 39.37007874015748143 ) ;
#139 = DIRECTION ( 'NONE',  ( -1.224646799147353454E-16, -0.0000000000000000000, -1.000000000000000000 ) ) ;
#140 = DIRECTION ( 'NONE',  ( -1.000000000000000000, 0.0000000000000000000, 0.0000000000000000000 ) ) ;
#141 = COLOUR_RGB ( '',0.7921568627450980005, 0.8196078431372548767, 0.9333333333333333481 ) ;
#142 = DIRECTION ( 'NONE',  ( -0.1736481776669311916, 2.126576849575783316E-17, 0.9848077530122080203 ) ) ;
#143 = CARTESIAN_POINT ( 'NONE',  ( -0.03901094999999998869, 4.777463504919744426E-18, 0.1559999999999999998 ) ) ;
#144 = DIRECTION ( 'NONE',  ( 1.000000000000000000, 0.0000000000000000000, -0.0000000000000000000 ) ) ;
#145 = FACE_OUTER_BOUND ( 'NONE', #256, .T. ) ;
#146 = ORIENTED_EDGE ( 'NONE', *, *, #252, .F. ) ;
#147 = DIRECTION ( 'NONE',  ( 0.0000000000000000000, 0.0000000000000000000, 1.000000000000000000 ) ) ;
#148 = VERTEX_POINT ( 'NONE', #158 ) ;
#149 = VERTEX_POINT ( 'NONE', #241 ) ;
#150 = SHAPE_DEFINITION_REPRESENTATION ( #121, #242 ) ;
#151 = DIRECTION ( 'NONE',  ( -1.000000000000000000, 0.0000000000000000000, 0.0000000000000000000 ) ) ;
#152 = AXIS2_PLACEMENT_3D ( 'NONE', #34, #17, #36 ) ;
#153 = ORIENTED_EDGE ( 'NONE', *, *, #88, .F. ) ;
#154 = EDGE_LOOP ( 'NONE', ( #59, #210 ) ) ;
#155 =( CONVERSION_BASED_UNIT ( 'INCH', #271 ) LENGTH_UNIT ( ) NAMED_UNIT ( #53 ) );
#156 = CIRCLE ( 'NONE', #20, 0.04750000000000064587 ) ;
#157 = EDGE_CURVE ( 'NONE', #131, #165, #13, .T. ) ;
#158 = CARTESIAN_POINT ( 'NONE',  ( 0.03901095000000002339, 0.0000000000000000000, 0.1559999999999999998 ) ) ;
#159 = PLANE ( 'NONE',  #247 ) ;
#160 = CARTESIAN_POINT ( 'NONE',  ( -0.06249999999999996531, 0.0000000000000000000, 0.2892130222250905436 ) ) ;
#161 = DIRECTION ( 'NONE',  ( -0.0000000000000000000, -0.0000000000000000000, -1.000000000000000000 ) ) ;
#162 = EDGE_CURVE ( 'NONE', #148, #9, #228, .T. ) ;
#163 =( LENGTH_UNIT ( ) NAMED_UNIT ( * ) SI_UNIT ( $, .METRE. ) );
#164 = EDGE_CURVE ( 'NONE', #7, #55, #183, .T. ) ;
#165 = VERTEX_POINT ( 'NONE', #160 ) ;
#166 = CARTESIAN_POINT ( 'NONE',  ( 0.0000000000000000000, 0.0000000000000000000, 1.485000000000000764 ) ) ;
#167 = CARTESIAN_POINT ( 'NONE',  ( -0.03901095000000000257, 0.0000000000000000000, 4.777463504919745966E-18 ) ) ;
#168 = ORIENTED_EDGE ( 'NONE', *, *, #164, .F. ) ;
#169 = AXIS2_PLACEMENT_3D ( 'NONE', #102, #135, #289 ) ;
#170 = ORIENTED_EDGE ( 'NONE', *, *, #232, .F. ) ;
#171 = PRODUCT_CONTEXT ( 'NONE', #249, 'mechanical' ) ;
#172 = ORIENTED_EDGE ( 'NONE', *, *, #28, .T. ) ;
#173 = FILL_AREA_STYLE ('',( #229 ) ) ;
#174 = EDGE_LOOP ( 'NONE', ( #4, #80, #176, #42 ) ) ;
#175 = EDGE_CURVE ( 'NONE', #148, #72, #92, .T. ) ;
#176 = ORIENTED_EDGE ( 'NONE', *, *, #215, .T. ) ;
#177 = VECTOR ( 'NONE', #94, 39.37007874015748143 ) ;
#178 =( NAMED_UNIT ( * ) SI_UNIT ( $, .STERADIAN. ) SOLID_ANGLE_UNIT ( ) );
#179 = ORIENTED_EDGE ( 'NONE', *, *, #116, .T. ) ;
#180 = MANIFOLD_SOLID_BREP ( 'Cut-Revolve1', #74 ) ;
#181 = ORIENTED_EDGE ( 'NONE', *, *, #99, .T. ) ;
#182 = CARTESIAN_POINT ( 'NONE',  ( 0.04750000000000064587, 5.817072295950006528E-18, 1.500000000000000222 ) ) ;
#183 = LINE ( 'NONE', #182, #60 ) ;
#184 = CARTESIAN_POINT ( 'NONE',  ( 0.03901095000000000257, 4.777463504919744426E-18, -4.777463504919745966E-18 ) ) ;
#185 = DIRECTION ( 'NONE',  ( -1.000000000000000000, 0.0000000000000000000, 0.0000000000000000000 ) ) ;
#186 = AXIS2_PLACEMENT_3D ( 'NONE', #268, #291, #140 ) ;
#187 =( NAMED_UNIT ( * ) SI_UNIT ( $, .STERADIAN. ) SOLID_ANGLE_UNIT ( ) );
#188 = ADVANCED_FACE ( 'NONE', ( #41 ), #159, .T. ) ;
#189 = LINE ( 'NONE', #299, #138 ) ;
#190 = ORIENTED_EDGE ( 'NONE', *, *, #75, .F. ) ;
#191 = DIRECTION ( 'NONE',  ( 0.0000000000000000000, 0.0000000000000000000, -1.000000000000000000 ) ) ;
#192 = EDGE_LOOP ( 'NONE', ( #235, #198, #281, #201 ) ) ;
#193 = DIRECTION ( 'NONE',  ( -1.224646799147353454E-16, -0.0000000000000000000, -1.000000000000000000 ) ) ;
#194 = CIRCLE ( 'NONE', #280, 0.06250000000000000000 ) ;
#195 = DIRECTION ( 'NONE',  ( -1.224646799147353454E-16, -0.0000000000000000000, -1.000000000000000000 ) ) ;
#196 = ORIENTED_EDGE ( 'NONE', *, *, #197, .T. ) ;
#197 = EDGE_CURVE ( 'NONE', #72, #148, #38, .T. ) ;
#198 = ORIENTED_EDGE ( 'NONE', *, *, #175, .F. ) ;
#199 =( LENGTH_UNIT ( ) NAMED_UNIT ( * ) SI_UNIT ( $, .METRE. ) );
#200 = ORIENTED_EDGE ( 'NONE', *, *, #51, .T. ) ;
#201 = ORIENTED_EDGE ( 'NONE', *, *, #252, .T. ) ;
#202 = CARTESIAN_POINT ( 'NONE',  ( 0.0000000000000000000, 0.0000000000000000000, 0.0000000000000000000 ) ) ;
#203 = DIRECTION ( 'NONE',  ( 1.000000000000000000, 0.0000000000000000000, 0.0000000000000000000 ) ) ;
#204 = CONICAL_SURFACE ( 'NONE', #169, 0.03901095000000000257, 0.1745329251994338915 ) ;
#205 = ADVANCED_FACE ( 'NONE', ( #250 ), #44, .T. ) ;
#206 = SURFACE_STYLE_USAGE ( .BOTH. , #117 ) ;
#207 = PRESENTATION_STYLE_ASSIGNMENT (( #206 ) ) ;
#208 = PRESENTATION_LAYER_ASSIGNMENT (  '', '', ( #33 ) ) ;
#209 = DIRECTION ( 'NONE',  ( -0.7071067811865456854, 0.0000000000000000000, -0.7071067811865493491 ) ) ;
#210 = ORIENTED_EDGE ( 'NONE', *, *, #132, .T. ) ;
#211 = CARTESIAN_POINT ( 'NONE',  ( 3.541838019396895887E-17, 0.0000000000000000000, 0.2892130222250905436 ) ) ;
#212 = CONICAL_SURFACE ( 'NONE', #152, 0.03901095000000000257, 0.1745329251994338915 ) ;
#213 = COLOUR_RGB ( '',0.7921568627450980005, 0.8196078431372548767, 0.9333333333333333481 ) ;
#214 = ORIENTED_EDGE ( 'NONE', *, *, #164, .T. ) ;
#215 = EDGE_CURVE ( 'NONE', #72, #239, #253, .T. ) ;
#216 = AXIS2_PLACEMENT_3D ( 'NONE', #230, #191, #295 ) ;
#217 = CYLINDRICAL_SURFACE ( 'NONE', #27, 0.03901095000000000257 ) ;
#218 = SURFACE_SIDE_STYLE ('',( #257 ) ) ;
#219 = CARTESIAN_POINT ( 'NONE',  ( 0.06250000000000000000, 7.654042494670956004E-18, 1.485000000000000764 ) ) ;
#220 = CARTESIAN_POINT ( 'NONE',  ( 5.850705389343263536E-34, 0.0000000000000000000, 4.777463504919745966E-18 ) ) ;
#221 =( CONVERSION_BASED_UNIT ( 'INCH', #287 ) LENGTH_UNIT ( ) NAMED_UNIT ( #133 ) );
#222 = ORIENTED_EDGE ( 'NONE', *, *, #240, .T. ) ;
#223 = VECTOR ( 'NONE', #90, 39.37007874015748143 ) ;
#224 =( NAMED_UNIT ( * ) PLANE_ANGLE_UNIT ( ) SI_UNIT ( $, .RADIAN. ) );
#225 = DIRECTION ( 'NONE',  ( 0.0000000000000000000, 0.0000000000000000000, 1.000000000000000000 ) ) ;
#226 =( GEOMETRIC_REPRESENTATION_CONTEXT ( 3 ) GLOBAL_UNCERTAINTY_ASSIGNED_CONTEXT ( ( #18 ) ) GLOBAL_UNIT_ASSIGNED_CONTEXT ( ( #155, #224, #187 ) ) REPRESENTATION_CONTEXT ( 'NONE', 'WORKASPACE' ) );
#227 = DIRECTION ( 'NONE',  ( 1.000000000000000000, 0.0000000000000000000, 0.0000000000000000000 ) ) ;
#228 = LINE ( 'NONE', #184, #22 ) ;
#229 = FILL_AREA_STYLE_COLOUR ( '', #213 ) ;
#230 = CARTESIAN_POINT ( 'NONE',  ( 0.0000000000000000000, 0.0000000000000000000, 1.500000000000000222 ) ) ;
#231 = ORIENTED_EDGE ( 'NONE', *, *, #132, .F. ) ;
#232 = EDGE_CURVE ( 'NONE', #105, #131, #189, .T. ) ;
#233 = DIRECTION ( 'NONE',  ( -1.224646799147353454E-16, -0.0000000000000000000, -1.000000000000000000 ) ) ;
#234 = CARTESIAN_POINT ( 'NONE',  ( 0.0000000000000000000, 0.0000000000000000000, 0.0000000000000000000 ) ) ;
#235 = ORIENTED_EDGE ( 'NONE', *, *, #240, .F. ) ;
#236 = VECTOR ( 'NONE', #26, 39.37007874015748143 ) ;
#237 = CARTESIAN_POINT ( 'NONE',  ( 5.850705389343263536E-34, 0.0000000000000000000, 4.777463504919745966E-18 ) ) ;
#238 = ORIENTED_EDGE ( 'NONE', *, *, #197, .F. ) ;
#239 = VERTEX_POINT ( 'NONE', #272 ) ;
#240 = EDGE_CURVE ( 'NONE', #72, #165, #120, .T. ) ;
#241 = CARTESIAN_POINT ( 'NONE',  ( 0.06250000000000002776, 7.654042494670959086E-18, 0.2892130222250905436 ) ) ;
#242 = ADVANCED_BREP_SHAPE_REPRESENTATION ( 'Micro_SEM-078-02X', ( #180, #123 ), #98 ) ;
#243 = ADVANCED_FACE ( 'NONE', ( #145 ), #119, .T. ) ;
#244 = DIRECTION ( 'NONE',  ( 1.000000000000000000, 0.0000000000000000000, 0.0000000000000000000 ) ) ;
#245 = DIRECTION ( 'NONE',  ( -1.224646799147353454E-16, -0.0000000000000000000, -1.000000000000000000 ) ) ;
#246 = PRODUCT_DEFINITION_CONTEXT ( 'detailed design', #262, 'design' ) ;
#247 = AXIS2_PLACEMENT_3D ( 'NONE', #251, #277, #144 ) ;
#248 = CYLINDRICAL_SURFACE ( 'NONE', #186, 0.06250000000000000000 ) ;
#249 = APPLICATION_CONTEXT ( 'automotive_design' ) ;
#250 = FACE_OUTER_BOUND ( 'NONE', #174, .T. ) ;
#251 = CARTESIAN_POINT ( 'NONE',  ( 0.0000000000000000000, 0.0000000000000000000, 1.500000000000000222 ) ) ;
#252 = EDGE_CURVE ( 'NONE', #149, #165, #194, .T. ) ;
#253 = LINE ( 'NONE', #167, #177 ) ;
#254 = ORIENTED_EDGE ( 'NONE', *, *, #285, .T. ) ;
#255 = AXIS2_PLACEMENT_3D ( 'NONE', #294, #245, #185 ) ;
#256 = EDGE_LOOP ( 'NONE', ( #168, #153, #82, #6 ) ) ;
#257 = SURFACE_STYLE_FILL_AREA ( #173 ) ;
#258 = FACE_OUTER_BOUND ( 'NONE', #288, .T. ) ;
#259 = ORIENTED_EDGE ( 'NONE', *, *, #162, .T. ) ;
#260 = ORIENTED_EDGE ( 'NONE', *, *, #157, .F. ) ;
#261 = CYLINDRICAL_SURFACE ( 'NONE', #112, 0.06250000000000000000 ) ;
#262 = APPLICATION_CONTEXT ( 'automotive_design' ) ;
#263 = EDGE_LOOP ( 'NONE', ( #238, #222, #86, #278 ) ) ;
#264 = DIRECTION ( 'NONE',  ( 0.7071067811865456854, 8.659560562354911904E-17, -0.7071067811865493491 ) ) ;
#265 = AXIS2_PLACEMENT_3D ( 'NONE', #290, #225, #14 ) ;
#266 = PRODUCT_RELATED_PRODUCT_CATEGORY ( 'part', '', ( #69 ) ) ;
#267 = DIRECTION ( 'NONE',  ( -1.224646799147353454E-16, -0.0000000000000000000, -1.000000000000000000 ) ) ;
#268 = CARTESIAN_POINT ( 'NONE',  ( 0.0000000000000000000, 0.0000000000000000000, 1.500000000000000222 ) ) ;
#269 = FACE_OUTER_BOUND ( 'NONE', #263, .T. ) ;
#270 = CONICAL_SURFACE ( 'NONE', #216, 0.04750000000000064587, 0.7853981633974457255 ) ;
#271 = LENGTH_MEASURE_WITH_UNIT ( LENGTH_MEASURE( 0.02539999999999999897 ), #293 );
#272 = CARTESIAN_POINT ( 'NONE',  ( -0.03901095000000000257, 0.0000000000000000000, 9.554927009839491933E-18 ) ) ;
#273 = DIRECTION ( 'NONE',  ( 0.0000000000000000000, 0.0000000000000000000, -1.000000000000000000 ) ) ;
#274 = EDGE_LOOP ( 'NONE', ( #200, #172 ) ) ;
#275 = AXIS2_PLACEMENT_3D ( 'NONE', #237, #29, #129 ) ;
#276 = AXIS2_PLACEMENT_3D ( 'NONE', #2, #118, #76 ) ;
#277 = DIRECTION ( 'NONE',  ( 0.0000000000000000000, 0.0000000000000000000, 1.000000000000000000 ) ) ;
#278 = ORIENTED_EDGE ( 'NONE', *, *, #32, .F. ) ;
#279 = AXIS2_PLACEMENT_3D ( 'NONE', #39, #292, #244 ) ;
#280 = AXIS2_PLACEMENT_3D ( 'NONE', #211, #233, #96 ) ;
#281 = ORIENTED_EDGE ( 'NONE', *, *, #32, .T. ) ;
#282 = DIRECTION ( 'NONE',  ( -0.0000000000000000000, -0.0000000000000000000, -1.000000000000000000 ) ) ;
#283 = APPLICATION_PROTOCOL_DEFINITION ( 'draft international standard', 'automotive_design', 1998, #262 ) ;
#284 = ORIENTED_EDGE ( 'NONE', *, *, #215, .F. ) ;
#285 = EDGE_CURVE ( 'NONE', #131, #55, #11, .T. ) ;
#286 = AXIS2_PLACEMENT_3D ( 'NONE', #202, #136, #66 ) ;
#287 = LENGTH_MEASURE_WITH_UNIT ( LENGTH_MEASURE( 0.02539999999999999897 ), #199 );
#288 = EDGE_LOOP ( 'NONE', ( #297, #179, #95, #146 ) ) ;
#289 = DIRECTION ( 'NONE',  ( 1.000000000000000000, 0.0000000000000000000, 0.0000000000000000000 ) ) ;
#290 = CARTESIAN_POINT ( 'NONE',  ( 0.0000000000000000000, 0.0000000000000000000, 1.500000000000000222 ) ) ;
#291 = DIRECTION ( 'NONE',  ( -0.0000000000000000000, -0.0000000000000000000, -1.000000000000000000 ) ) ;
#292 = DIRECTION ( 'NONE',  ( 0.0000000000000000000, 0.0000000000000000000, -1.000000000000000000 ) ) ;
#293 =( LENGTH_UNIT ( ) NAMED_UNIT ( * ) SI_UNIT ( $, .METRE. ) );
#294 = CARTESIAN_POINT ( 'NONE',  ( 1.910449006669871395E-17, 0.0000000000000000000, 0.1559999999999999998 ) ) ;
#295 = DIRECTION ( 'NONE',  ( -1.000000000000000000, 0.0000000000000000000, 0.0000000000000000000 ) ) ;
#296 = DIRECTION ( 'NONE',  ( 1.000000000000000000, 0.0000000000000000000, 0.0000000000000000000 ) ) ;
#297 = ORIENTED_EDGE ( 'NONE', *, *, #99, .F. ) ;
#298 = ADVANCED_FACE ( 'NONE', ( #124 ), #270, .T. ) ;
#299 = CARTESIAN_POINT ( 'NONE',  ( -0.04750000000000064587, 0.0000000000000000000, 1.500000000000000222 ) ) ;
ENDSEC;
END-ISO-10303-21;
