ISO-10303-21;
HEADER;
FILE_DESCRIPTION (( 'STEP AP214' ),
    '1' );
FILE_NAME ('Micro_BEM-031-03.STEP',
    '2021-09-03T12:57:06',
    ( '' ),
    ( '' ),
    'SwSTEP 2.0',
    'SolidWorks 2020',
    '' );
FILE_SCHEMA (( 'AUTOMOTIVE_DESIGN' ));
ENDSEC;

DATA;
#1 = ORIENTED_EDGE ( 'NONE', *, *, #273, .T. ) ;
#2 = CYLINDRICAL_SURFACE ( 'NONE', #237, 0.01563435000000001560 ) ;
#3 = CARTESIAN_POINT ( 'NONE',  ( 0.0000000000000000000, 0.0000000000000000000, 1.500000000000000222 ) ) ;
#4 = SURFACE_SIDE_STYLE ('',( #157 ) ) ;
#5 = CYLINDRICAL_SURFACE ( 'NONE', #69, 0.01563435000000001560 ) ;
#6 = DIRECTION ( 'NONE',  ( -1.224646799147353700E-16, -0.0000000000000000000, -1.000000000000000000 ) ) ;
#7 = CARTESIAN_POINT ( 'NONE',  ( 0.06250000000000006939, 7.654042494670963708E-18, 0.3437883088095654016 ) ) ;
#8 = APPLICATION_CONTEXT ( 'automotive_design' ) ;
#9 = CARTESIAN_POINT ( 'NONE',  ( 9.552245033349369302E-18, 0.0000000000000000000, 0.07800000000000009703 ) ) ;
#10 = FILL_AREA_STYLE ('',( #255 ) ) ;
#11 = CIRCLE ( 'NONE', #105, 0.04750000000000064587 ) ;
#12 = EDGE_CURVE ( 'NONE', #21, #270, #124, .T. ) ;
#13 = ORIENTED_EDGE ( 'NONE', *, *, #247, .T. ) ;
#14 = CARTESIAN_POINT ( 'NONE',  ( -0.04750000000000064587, 0.0000000000000000000, 1.500000000000000222 ) ) ;
#15 = PRODUCT_RELATED_PRODUCT_CATEGORY ( 'part', '', ( #272 ) ) ;
#16 = DIRECTION ( 'NONE',  ( 0.0000000000000000000, -1.000000000000000000, 0.0000000000000000000 ) ) ;
#17 =( LENGTH_UNIT ( ) NAMED_UNIT ( * ) SI_UNIT ( $, .METRE. ) );
#18 = ORIENTED_EDGE ( 'NONE', *, *, #180, .T. ) ;
#19 = DIRECTION ( 'NONE',  ( 0.0000000000000000000, 0.0000000000000000000, 1.000000000000000000 ) ) ;
#20 = FILL_AREA_STYLE_COLOUR ( '', #275 ) ;
#21 = VERTEX_POINT ( 'NONE', #280 ) ;
#22 = CYLINDRICAL_SURFACE ( 'NONE', #37, 0.06250000000000002776 ) ;
#23 = EDGE_CURVE ( 'NONE', #122, #158, #133, .T. ) ;
#24 = CONICAL_SURFACE ( 'NONE', #185, 0.01563435000000000866, 0.1745329251994338915 ) ;
#25 = DIRECTION ( 'NONE',  ( -1.224646799147353700E-16, -0.0000000000000000000, -1.000000000000000000 ) ) ;
#26 = ORIENTED_EDGE ( 'NONE', *, *, #302, .F. ) ;
#27 = CARTESIAN_POINT ( 'NONE',  ( 0.04750000000000064587, 5.817072295950006528E-18, 1.500000000000000222 ) ) ;
#28 = ADVANCED_FACE ( 'NONE', ( #144 ), #24, .T. ) ;
#29 = DIRECTION ( 'NONE',  ( 1.224646799147353700E-16, 0.0000000000000000000, 1.000000000000000000 ) ) ;
#30 =( NAMED_UNIT ( * ) SI_UNIT ( $, .STERADIAN. ) SOLID_ANGLE_UNIT ( ) );
#31 = CARTESIAN_POINT ( 'NONE',  ( 2.871983502637414086E-18, 0.0000000000000000000, 0.0000000000000000000 ) ) ;
#32 = SURFACE_STYLE_FILL_AREA ( #10 ) ;
#33 = EDGE_LOOP ( 'NONE', ( #308, #200, #235, #282 ) ) ;
#34 = DIRECTION ( 'NONE',  ( -1.000000000000000000, 0.0000000000000000000, 1.365107116733476959E-16 ) ) ;
#35 = LINE ( 'NONE', #297, #169 ) ;
#36 = DIRECTION ( 'NONE',  ( 0.0000000000000000000, 0.0000000000000000000, -1.000000000000000000 ) ) ;
#37 = AXIS2_PLACEMENT_3D ( 'NONE', #209, #315, #152 ) ;
#38 = ORIENTED_EDGE ( 'NONE', *, *, #295, .F. ) ;
#39 = DIRECTION ( 'NONE',  ( 1.224646799147353700E-16, 0.0000000000000000000, 1.000000000000000000 ) ) ;
#40 = DIRECTION ( 'NONE',  ( 1.000000000000000000, 0.0000000000000000000, 0.0000000000000000000 ) ) ;
#41 = ADVANCED_FACE ( 'NONE', ( #167 ), #288, .T. ) ;
#42 = DIRECTION ( 'NONE',  ( -1.000000000000000000, 0.0000000000000000000, 0.0000000000000000000 ) ) ;
#43 = CIRCLE ( 'NONE', #271, 0.01563435000000001560 ) ;
#44 = ORIENTED_EDGE ( 'NONE', *, *, #214, .F. ) ;
#45 = UNCERTAINTY_MEASURE_WITH_UNIT (LENGTH_MEASURE( 1.000000000000000082E-05 ), #228, 'distance_accuracy_value', 'NONE');
#46 = AXIS2_PLACEMENT_3D ( 'NONE', #111, #262, #309 ) ;
#47 = ORIENTED_EDGE ( 'NONE', *, *, #92, .T. ) ;
#48 = DIRECTION ( 'NONE',  ( 1.000000000000000000, 0.0000000000000000000, 0.0000000000000000000 ) ) ;
#49 = CARTESIAN_POINT ( 'NONE',  ( 0.0000000000000000000, 0.0000000000000000000, 1.500000000000000222 ) ) ;
#50 = APPLICATION_PROTOCOL_DEFINITION ( 'draft international standard', 'automotive_design', 1998, #242 ) ;
#51 = DIRECTION ( 'NONE',  ( 1.000000000000000000, 0.0000000000000000000, 0.0000000000000000000 ) ) ;
#52 =( NAMED_UNIT ( * ) PLANE_ANGLE_UNIT ( ) SI_UNIT ( $, .RADIAN. ) );
#53 = ORIENTED_EDGE ( 'NONE', *, *, #229, .T. ) ;
#54 =( CONVERSION_BASED_UNIT ( 'INCH', #197 ) LENGTH_UNIT ( ) NAMED_UNIT ( #125 ) );
#55 = CARTESIAN_POINT ( 'NONE',  ( 0.0000000000000000000, 0.0000000000000000000, 0.0000000000000000000 ) ) ;
#56 = EDGE_CURVE ( 'NONE', #260, #285, #35, .T. ) ;
#57 = EDGE_LOOP ( 'NONE', ( #176, #241, #312, #318 ) ) ;
#58 = DIRECTION ( 'NONE',  ( -1.000000000000000000, 0.0000000000000000000, 0.0000000000000000000 ) ) ;
#59 = ORIENTED_EDGE ( 'NONE', *, *, #173, .T. ) ;
#60 = LINE ( 'NONE', #292, #307 ) ;
#61 = AXIS2_PLACEMENT_3D ( 'NONE', #257, #79, #82 ) ;
#62 = CIRCLE ( 'NONE', #246, 0.06250000000000002776 ) ;
#63 = ORIENTED_EDGE ( 'NONE', *, *, #214, .T. ) ;
#64 = DIRECTION ( 'NONE',  ( 0.0000000000000000000, 0.0000000000000000000, -1.000000000000000000 ) ) ;
#65 = APPLICATION_PROTOCOL_DEFINITION ( 'draft international standard', 'automotive_design', 1998, #8 ) ;
#66 = ORIENTED_EDGE ( 'NONE', *, *, #135, .T. ) ;
#67 = FACE_OUTER_BOUND ( 'NONE', #57, .T. ) ;
#68 = EDGE_LOOP ( 'NONE', ( #26, #146, #47, #18 ) ) ;
#69 = AXIS2_PLACEMENT_3D ( 'NONE', #283, #102, #251 ) ;
#70 = PRODUCT_DEFINITION ( 'UNKNOWN', '', #219, #183 ) ;
#71 = STYLED_ITEM ( 'NONE', ( #227 ), #265 ) ;
#72 = CARTESIAN_POINT ( 'NONE',  ( -0.01563435000000001213, 0.0000000000000000000, 0.01563435000000000519 ) ) ;
#73 = CIRCLE ( 'NONE', #98, 0.01563435000000000172 ) ;
#74 = DIRECTION ( 'NONE',  ( 1.224646799147353700E-16, 0.0000000000000000000, 1.000000000000000000 ) ) ;
#75 = CLOSED_SHELL ( 'NONE', ( #276, #284, #28, #277, #117, #120, #87, #238, #179, #311, #41 ) ) ;
#76 = ORIENTED_EDGE ( 'NONE', *, *, #173, .F. ) ;
#77 = DIRECTION ( 'NONE',  ( -1.000000000000000000, 0.0000000000000000000, 1.365107116733476959E-16 ) ) ;
#78 = DIRECTION ( 'NONE',  ( 1.000000000000000000, 0.0000000000000000000, -0.0000000000000000000 ) ) ;
#79 = DIRECTION ( 'NONE',  ( 1.224646799147353207E-16, 1.000000000000000000, -0.0000000000000000000 ) ) ;
#80 = FACE_OUTER_BOUND ( 'NONE', #226, .T. ) ;
#81 = FILL_AREA_STYLE ('',( #20 ) ) ;
#82 = DIRECTION ( 'NONE',  ( -1.000000000000000000, 1.224646799147353207E-16, 0.0000000000000000000 ) ) ;
#83 = VERTEX_POINT ( 'NONE', #72 ) ;
#84 = ORIENTED_EDGE ( 'NONE', *, *, #109, .F. ) ;
#85 = FACE_OUTER_BOUND ( 'NONE', #68, .T. ) ;
#86 = DIRECTION ( 'NONE',  ( 1.000000000000000000, 0.0000000000000000000, 0.0000000000000000000 ) ) ;
#87 = ADVANCED_FACE ( 'NONE', ( #223 ), #278, .T. ) ;
#88 = AXIS2_PLACEMENT_3D ( 'NONE', #212, #36, #132 ) ;
#89 = ORIENTED_EDGE ( 'NONE', *, *, #250, .T. ) ;
#90 = CARTESIAN_POINT ( 'NONE',  ( -0.01563435000000000172, 4.784349081547952189E-18, 0.07800000000000009703 ) ) ;
#91 = DIRECTION ( 'NONE',  ( -1.224646799147353700E-16, -0.0000000000000000000, -1.000000000000000000 ) ) ;
#92 = EDGE_CURVE ( 'NONE', #194, #270, #249, .T. ) ;
#93 = COLOUR_RGB ( '',0.7921568627450980005, 0.8196078431372548767, 0.9333333333333333481 ) ;
#94 = DIMENSIONAL_EXPONENTS ( 1.000000000000000000, 0.0000000000000000000, 0.0000000000000000000, 0.0000000000000000000, 0.0000000000000000000, 0.0000000000000000000, 0.0000000000000000000 ) ;
#95 = UNCERTAINTY_MEASURE_WITH_UNIT (LENGTH_MEASURE( 1.000000000000000082E-05 ), #201, 'distance_accuracy_value', 'NONE');
#96 = LINE ( 'NONE', #27, #190 ) ;
#97 = ORIENTED_EDGE ( 'NONE', *, *, #165, .F. ) ;
#98 = AXIS2_PLACEMENT_3D ( 'NONE', #236, #16, #140 ) ;
#99 = SURFACE_STYLE_USAGE ( .BOTH. , #325 ) ;
#100 = CIRCLE ( 'NONE', #46, 0.01563435000000000866 ) ;
#101 = DIRECTION ( 'NONE',  ( 0.0000000000000000000, 0.0000000000000000000, 1.000000000000000000 ) ) ;
#102 = DIRECTION ( 'NONE',  ( -1.224646799147353700E-16, -0.0000000000000000000, -1.000000000000000000 ) ) ;
#103 = ORIENTED_EDGE ( 'NONE', *, *, #128, .F. ) ;
#104 = DIRECTION ( 'NONE',  ( 0.0000000000000000000, 1.000000000000000000, 0.0000000000000000000 ) ) ;
#105 = AXIS2_PLACEMENT_3D ( 'NONE', #239, #19, #293 ) ;
#106 = DIRECTION ( 'NONE',  ( 1.000000000000000000, 0.0000000000000000000, 0.0000000000000000000 ) ) ;
#107 = VERTEX_POINT ( 'NONE', #31 ) ;
#108 = LINE ( 'NONE', #313, #163 ) ;
#109 = EDGE_CURVE ( 'NONE', #188, #83, #303, .T. ) ;
#110 = ORIENTED_EDGE ( 'NONE', *, *, #302, .T. ) ;
#111 = CARTESIAN_POINT ( 'NONE',  ( 9.552245033349369302E-18, 0.0000000000000000000, 0.07800000000000009703 ) ) ;
#112 = SURFACE_STYLE_USAGE ( .BOTH. , #4 ) ;
#113 = ORIENTED_EDGE ( 'NONE', *, *, #109, .T. ) ;
#114 = CARTESIAN_POINT ( 'NONE',  ( 0.01563435000000001560, 1.914655668424943751E-18, 0.01563434999999999825 ) ) ;
#115 = PRODUCT_DEFINITION_SHAPE ( 'NONE', 'NONE',  #70 ) ;
#116 = VECTOR ( 'NONE', #253, 39.37007874015748143 ) ;
#117 = ADVANCED_FACE ( 'NONE', ( #80 ), #136, .T. ) ;
#118 = AXIS2_PLACEMENT_3D ( 'NONE', #184, #64, #40 ) ;
#119 = AXIS2_PLACEMENT_3D ( 'NONE', #230, #104, #258 ) ;
#120 = ADVANCED_FACE ( 'NONE', ( #266 ), #22, .T. ) ;
#121 = SPHERICAL_SURFACE ( 'NONE', #298, 0.01563435000000000172 ) ;
#122 = VERTEX_POINT ( 'NONE', #14 ) ;
#123 = CARTESIAN_POINT ( 'NONE',  ( -0.01563435000000000172, 1.914655668424943366E-18, 0.07800000000000009703 ) ) ;
#124 = LINE ( 'NONE', #196, #274 ) ;
#125 = DIMENSIONAL_EXPONENTS ( 1.000000000000000000, 0.0000000000000000000, 0.0000000000000000000, 0.0000000000000000000, 0.0000000000000000000, 0.0000000000000000000, 0.0000000000000000000 ) ;
#126 = CARTESIAN_POINT ( 'NONE',  ( -0.01563435000000001560, 0.0000000000000000000, 1.914655668424944522E-18 ) ) ;
#127 = PRESENTATION_STYLE_ASSIGNMENT (( #99 ) ) ;
#128 = EDGE_CURVE ( 'NONE', #285, #270, #62, .T. ) ;
#129 = DIRECTION ( 'NONE',  ( 0.0000000000000000000, 0.0000000000000000000, 1.000000000000000000 ) ) ;
#130 = CARTESIAN_POINT ( 'NONE',  ( -0.06250000000000002776, 0.0000000000000000000, 1.485000000000000764 ) ) ;
#131 = ORIENTED_EDGE ( 'NONE', *, *, #210, .F. ) ;
#132 = DIRECTION ( 'NONE',  ( 1.000000000000000000, 0.0000000000000000000, 0.0000000000000000000 ) ) ;
#133 = CIRCLE ( 'NONE', #321, 0.04750000000000064587 ) ;
#134 = CARTESIAN_POINT ( 'NONE',  ( 0.01563435000000001907, 0.0000000000000000000, 0.07800000000000009703 ) ) ;
#135 = EDGE_CURVE ( 'NONE', #188, #194, #100, .T. ) ;
#136 = CYLINDRICAL_SURFACE ( 'NONE', #263, 0.06250000000000002776 ) ;
#137 = MECHANICAL_DESIGN_GEOMETRIC_PRESENTATION_REPRESENTATION (  '', ( #245 ), #324 ) ;
#138 = DIRECTION ( 'NONE',  ( 0.0000000000000000000, 0.0000000000000000000, 1.000000000000000000 ) ) ;
#139 = ORIENTED_EDGE ( 'NONE', *, *, #135, .F. ) ;
#140 = DIRECTION ( 'NONE',  ( 0.0000000000000000000, 0.0000000000000000000, -1.000000000000000000 ) ) ;
#141 = CIRCLE ( 'NONE', #118, 0.06250000000000002776 ) ;
#142 = EDGE_LOOP ( 'NONE', ( #131, #13, #38 ) ) ;
#143 = FACE_OUTER_BOUND ( 'NONE', #151, .T. ) ;
#144 = FACE_OUTER_BOUND ( 'NONE', #220, .T. ) ;
#145 =( NAMED_UNIT ( * ) PLANE_ANGLE_UNIT ( ) SI_UNIT ( $, .RADIAN. ) );
#146 = ORIENTED_EDGE ( 'NONE', *, *, #273, .F. ) ;
#147 = DIRECTION ( 'NONE',  ( -0.1736481776669311916, 2.126576849575783316E-17, 0.9848077530122080203 ) ) ;
#148 = EDGE_LOOP ( 'NONE', ( #290, #268, #44, #97 ) ) ;
#149 = VERTEX_POINT ( 'NONE', #114 ) ;
#150 = DIRECTION ( 'NONE',  ( -1.000000000000000000, 0.0000000000000000000, 0.0000000000000000000 ) ) ;
#151 = EDGE_LOOP ( 'NONE', ( #66, #59, #306, #84 ) ) ;
#152 = DIRECTION ( 'NONE',  ( -1.000000000000000000, 0.0000000000000000000, 0.0000000000000000000 ) ) ;
#153 = CIRCLE ( 'NONE', #248, 0.01563435000000001560 ) ;
#154 = EDGE_LOOP ( 'NONE', ( #299, #53 ) ) ;
#155 = VECTOR ( 'NONE', #6, 39.37007874015748143 ) ;
#156 = CARTESIAN_POINT ( 'NONE',  ( 0.0000000000000000000, 0.0000000000000000000, 1.500000000000000222 ) ) ;
#157 = SURFACE_STYLE_FILL_AREA ( #81 ) ;
#158 = VERTEX_POINT ( 'NONE', #189 ) ;
#159 = CARTESIAN_POINT ( 'NONE',  ( 0.0000000000000000000, 0.0000000000000000000, 1.500000000000000222 ) ) ;
#160 = LENGTH_MEASURE_WITH_UNIT ( LENGTH_MEASURE( 0.02539999999999999897 ), #17 );
#161 = ORIENTED_EDGE ( 'NONE', *, *, #92, .F. ) ;
#162 = AXIS2_PLACEMENT_3D ( 'NONE', #159, #269, #42 ) ;
#163 = VECTOR ( 'NONE', #91, 39.37007874015748143 ) ;
#164 = EDGE_CURVE ( 'NONE', #21, #260, #224, .T. ) ;
#165 = EDGE_CURVE ( 'NONE', #122, #260, #60, .T. ) ;
#166 = AXIS2_PLACEMENT_3D ( 'NONE', #175, #225, #150 ) ;
#167 = FACE_OUTER_BOUND ( 'NONE', #178, .T. ) ;
#168 = UNCERTAINTY_MEASURE_WITH_UNIT (LENGTH_MEASURE( 1.000000000000000082E-05 ), #54, 'distance_accuracy_value', 'NONE');
#169 = VECTOR ( 'NONE', #191, 39.37007874015748143 ) ;
#170 = LINE ( 'NONE', #123, #320 ) ;
#171 = DIRECTION ( 'NONE',  ( -0.0000000000000000000, -0.0000000000000000000, -1.000000000000000000 ) ) ;
#172 = CARTESIAN_POINT ( 'NONE',  ( 1.914655668424943366E-18, 0.0000000000000000000, 0.01563435000000000172 ) ) ;
#173 = EDGE_CURVE ( 'NONE', #194, #149, #108, .T. ) ;
#174 = CARTESIAN_POINT ( 'NONE',  ( 0.01563435000000001907, 0.0000000000000000000, 0.07800000000000009703 ) ) ;
#175 = CARTESIAN_POINT ( 'NONE',  ( 0.0000000000000000000, 0.0000000000000000000, 1.500000000000000222 ) ) ;
#176 = ORIENTED_EDGE ( 'NONE', *, *, #244, .F. ) ;
#177 = DIRECTION ( 'NONE',  ( 0.0000000000000000000, 1.000000000000000000, 0.0000000000000000000 ) ) ;
#178 = EDGE_LOOP ( 'NONE', ( #203, #211, #314 ) ) ;
#179 = ADVANCED_FACE ( 'NONE', ( #85 ), #222, .T. ) ;
#180 = EDGE_CURVE ( 'NONE', #270, #285, #216, .T. ) ;
#181 = PRESENTATION_LAYER_ASSIGNMENT (  '', '', ( #71 ) ) ;
#182 = DIRECTION ( 'NONE',  ( -0.0000000000000000000, -0.0000000000000000000, -1.000000000000000000 ) ) ;
#183 = PRODUCT_DEFINITION_CONTEXT ( 'detailed design', #242, 'design' ) ;
#184 = CARTESIAN_POINT ( 'NONE',  ( 0.0000000000000000000, 0.0000000000000000000, 1.485000000000000764 ) ) ;
#185 = AXIS2_PLACEMENT_3D ( 'NONE', #9, #29, #232 ) ;
#186 = CARTESIAN_POINT ( 'NONE',  ( 0.0000000000000000000, 0.0000000000000000000, 0.0000000000000000000 ) ) ;
#187 = CARTESIAN_POINT ( 'NONE',  ( 4.210192519679162135E-17, 0.0000000000000000000, 0.3437883088095654016 ) ) ;
#188 = VERTEX_POINT ( 'NONE', #90 ) ;
#189 = CARTESIAN_POINT ( 'NONE',  ( 0.04750000000000064587, 6.735557395310483192E-18, 1.500000000000000222 ) ) ;
#190 = VECTOR ( 'NONE', #193, 39.37007874015748854 ) ;
#191 = DIRECTION ( 'NONE',  ( -0.0000000000000000000, -0.0000000000000000000, -1.000000000000000000 ) ) ;
#192 = SHAPE_DEFINITION_REPRESENTATION ( #115, #265 ) ;
#193 = DIRECTION ( 'NONE',  ( 0.7071067811865462405, 8.659560562354916834E-17, -0.7071067811865486830 ) ) ;
#194 = VERTEX_POINT ( 'NONE', #134 ) ;
#195 = CARTESIAN_POINT ( 'NONE',  ( 1.914655668424943366E-18, 0.0000000000000000000, 0.01563435000000000172 ) ) ;
#196 = CARTESIAN_POINT ( 'NONE',  ( 0.06250000000000002776, 7.654042494670959086E-18, 1.500000000000000222 ) ) ;
#197 = LENGTH_MEASURE_WITH_UNIT ( LENGTH_MEASURE( 0.02539999999999999897 ), #286 );
#198 = DIRECTION ( 'NONE',  ( 1.224646799147353700E-16, 0.0000000000000000000, 1.000000000000000000 ) ) ;
#199 = DIMENSIONAL_EXPONENTS ( 1.000000000000000000, 0.0000000000000000000, 0.0000000000000000000, 0.0000000000000000000, 0.0000000000000000000, 0.0000000000000000000, 0.0000000000000000000 ) ;
#200 = ORIENTED_EDGE ( 'NONE', *, *, #164, .T. ) ;
#201 =( CONVERSION_BASED_UNIT ( 'INCH', #160 ) LENGTH_UNIT ( ) NAMED_UNIT ( #199 ) );
#202 = CARTESIAN_POINT ( 'NONE',  ( 1.914655668424943366E-18, 0.0000000000000000000, 0.01563435000000000172 ) ) ;
#203 = ORIENTED_EDGE ( 'NONE', *, *, #247, .F. ) ;
#204 = PRESENTATION_LAYER_ASSIGNMENT (  '', '', ( #245 ) ) ;
#205 = AXIS2_PLACEMENT_3D ( 'NONE', #3, #101, #78 ) ;
#206 = DIRECTION ( 'NONE',  ( -1.224646799147353700E-16, -0.0000000000000000000, -1.000000000000000000 ) ) ;
#207 = DIRECTION ( 'NONE',  ( -1.224646799147353700E-16, -0.0000000000000000000, -1.000000000000000000 ) ) ;
#208 = ORIENTED_EDGE ( 'NONE', *, *, #12, .T. ) ;
#209 = CARTESIAN_POINT ( 'NONE',  ( 0.0000000000000000000, 0.0000000000000000000, 1.500000000000000222 ) ) ;
#210 = EDGE_CURVE ( 'NONE', #107, #149, #73, .T. ) ;
#211 = ORIENTED_EDGE ( 'NONE', *, *, #210, .T. ) ;
#212 = CARTESIAN_POINT ( 'NONE',  ( 0.0000000000000000000, 0.0000000000000000000, 1.485000000000000764 ) ) ;
#213 =( GEOMETRIC_REPRESENTATION_CONTEXT ( 3 ) GLOBAL_UNCERTAINTY_ASSIGNED_CONTEXT ( ( #95 ) ) GLOBAL_UNIT_ASSIGNED_CONTEXT ( ( #201, #52, #267 ) ) REPRESENTATION_CONTEXT ( 'NONE', 'WORKASPACE' ) );
#214 = EDGE_CURVE ( 'NONE', #260, #21, #141, .T. ) ;
#215 =( GEOMETRIC_REPRESENTATION_CONTEXT ( 3 ) GLOBAL_UNCERTAINTY_ASSIGNED_CONTEXT ( ( #168 ) ) GLOBAL_UNIT_ASSIGNED_CONTEXT ( ( #54, #264, #254 ) ) REPRESENTATION_CONTEXT ( 'NONE', 'WORKASPACE' ) );
#216 = CIRCLE ( 'NONE', #304, 0.06250000000000002776 ) ;
#217 = CIRCLE ( 'NONE', #61, 0.01563435000000000172 ) ;
#218 = FACE_OUTER_BOUND ( 'NONE', #148, .T. ) ;
#219 = PRODUCT_DEFINITION_FORMATION_WITH_SPECIFIED_SOURCE ( 'ANY', '', #272, .NOT_KNOWN. ) ;
#220 = EDGE_LOOP ( 'NONE', ( #139, #110, #294, #161 ) ) ;
#221 = FACE_OUTER_BOUND ( 'NONE', #300, .T. ) ;
#222 = CONICAL_SURFACE ( 'NONE', #322, 0.01563435000000000866, 0.1745329251994338915 ) ;
#223 = FACE_OUTER_BOUND ( 'NONE', #154, .T. ) ;
#224 = CIRCLE ( 'NONE', #88, 0.06250000000000002776 ) ;
#225 = DIRECTION ( 'NONE',  ( 0.0000000000000000000, 0.0000000000000000000, -1.000000000000000000 ) ) ;
#226 = EDGE_LOOP ( 'NONE', ( #63, #208, #103, #256 ) ) ;
#227 = PRESENTATION_STYLE_ASSIGNMENT (( #112 ) ) ;
#228 =( CONVERSION_BASED_UNIT ( 'INCH', #289 ) LENGTH_UNIT ( ) NAMED_UNIT ( #94 ) );
#229 = EDGE_CURVE ( 'NONE', #158, #122, #11, .T. ) ;
#230 = CARTESIAN_POINT ( 'NONE',  ( 1.914655668424943366E-18, 0.0000000000000000000, 0.01563435000000000172 ) ) ;
#231 = CARTESIAN_POINT ( 'NONE',  ( 9.552245033349369302E-18, 0.0000000000000000000, 0.07800000000000009703 ) ) ;
#232 = DIRECTION ( 'NONE',  ( 1.000000000000000000, 0.0000000000000000000, 0.0000000000000000000 ) ) ;
#233 = CIRCLE ( 'NONE', #305, 0.01563435000000000866 ) ;
#234 = CARTESIAN_POINT ( 'NONE',  ( 9.552245033349369302E-18, 0.0000000000000000000, 0.07800000000000009703 ) ) ;
#235 = ORIENTED_EDGE ( 'NONE', *, *, #56, .T. ) ;
#236 = CARTESIAN_POINT ( 'NONE',  ( 1.914655668424943366E-18, 0.0000000000000000000, 0.01563435000000000172 ) ) ;
#237 = AXIS2_PLACEMENT_3D ( 'NONE', #55, #301, #252 ) ;
#238 = ADVANCED_FACE ( 'NONE', ( #67 ), #323, .T. ) ;
#239 = CARTESIAN_POINT ( 'NONE',  ( 0.0000000000000000000, 0.0000000000000000000, 1.500000000000000222 ) ) ;
#240 = DIRECTION ( 'NONE',  ( 1.000000000000000000, 0.0000000000000000000, 0.0000000000000000000 ) ) ;
#241 = ORIENTED_EDGE ( 'NONE', *, *, #23, .F. ) ;
#242 = APPLICATION_CONTEXT ( 'automotive_design' ) ;
#243 = DIRECTION ( 'NONE',  ( -0.7071067811865462405, 0.0000000000000000000, -0.7071067811865486830 ) ) ;
#244 = EDGE_CURVE ( 'NONE', #158, #21, #96, .T. ) ;
#245 = STYLED_ITEM ( 'NONE', ( #127 ), #316 ) ;
#246 = AXIS2_PLACEMENT_3D ( 'NONE', #291, #207, #319 ) ;
#247 = EDGE_CURVE ( 'NONE', #107, #83, #217, .T. ) ;
#248 = AXIS2_PLACEMENT_3D ( 'NONE', #202, #198, #77 ) ;
#249 = LINE ( 'NONE', #174, #116 ) ;
#250 = EDGE_CURVE ( 'NONE', #83, #149, #43, .T. ) ;
#251 = DIRECTION ( 'NONE',  ( -1.000000000000000000, 0.0000000000000000000, 1.224646799147353454E-16 ) ) ;
#252 = DIRECTION ( 'NONE',  ( -1.000000000000000000, 0.0000000000000000000, 1.224646799147353454E-16 ) ) ;
#253 = DIRECTION ( 'NONE',  ( 0.1736481776669313859, 0.0000000000000000000, 0.9848077530122077983 ) ) ;
#254 =( NAMED_UNIT ( * ) SI_UNIT ( $, .STERADIAN. ) SOLID_ANGLE_UNIT ( ) );
#255 = FILL_AREA_STYLE_COLOUR ( '', #93 ) ;
#256 = ORIENTED_EDGE ( 'NONE', *, *, #56, .F. ) ;
#257 = CARTESIAN_POINT ( 'NONE',  ( 1.914655668424943366E-18, 0.0000000000000000000, 0.01563435000000000172 ) ) ;
#258 = DIRECTION ( 'NONE',  ( 1.000000000000000000, 0.0000000000000000000, 0.0000000000000000000 ) ) ;
#259 = DIRECTION ( 'NONE',  ( -1.000000000000000000, 0.0000000000000000000, 0.0000000000000000000 ) ) ;
#260 = VERTEX_POINT ( 'NONE', #130 ) ;
#261 = CONICAL_SURFACE ( 'NONE', #166, 0.04750000000000064587, 0.7853981633974466137 ) ;
#262 = DIRECTION ( 'NONE',  ( -1.224646799147353700E-16, -0.0000000000000000000, -1.000000000000000000 ) ) ;
#263 = AXIS2_PLACEMENT_3D ( 'NONE', #156, #182, #259 ) ;
#264 =( NAMED_UNIT ( * ) PLANE_ANGLE_UNIT ( ) SI_UNIT ( $, .RADIAN. ) );
#265 = ADVANCED_BREP_SHAPE_REPRESENTATION ( 'Micro_BEM-031-03', ( #316, #296 ), #213 ) ;
#266 = FACE_OUTER_BOUND ( 'NONE', #33, .T. ) ;
#267 =( NAMED_UNIT ( * ) SI_UNIT ( $, .STERADIAN. ) SOLID_ANGLE_UNIT ( ) );
#268 = ORIENTED_EDGE ( 'NONE', *, *, #244, .T. ) ;
#269 = DIRECTION ( 'NONE',  ( 0.0000000000000000000, 0.0000000000000000000, -1.000000000000000000 ) ) ;
#270 = VERTEX_POINT ( 'NONE', #7 ) ;
#271 = AXIS2_PLACEMENT_3D ( 'NONE', #172, #74, #34 ) ;
#272 = PRODUCT ( 'Micro_BEM-031-03', 'Micro_BEM-031-03', '', ( #317 ) ) ;
#273 = EDGE_CURVE ( 'NONE', #194, #188, #233, .T. ) ;
#274 = VECTOR ( 'NONE', #171, 39.37007874015748143 ) ;
#275 = COLOUR_RGB ( '',0.7921568627450980005, 0.8196078431372548767, 0.9333333333333333481 ) ;
#276 = ADVANCED_FACE ( 'NONE', ( #281 ), #121, .T. ) ;
#277 = ADVANCED_FACE ( 'NONE', ( #218 ), #261, .T. ) ;
#278 = PLANE ( 'NONE',  #205 ) ;
#279 =( LENGTH_UNIT ( ) NAMED_UNIT ( * ) SI_UNIT ( $, .METRE. ) );
#280 = CARTESIAN_POINT ( 'NONE',  ( 0.06250000000000002776, 7.654042494670959086E-18, 1.485000000000000764 ) ) ;
#281 = FACE_OUTER_BOUND ( 'NONE', #142, .T. ) ;
#282 = ORIENTED_EDGE ( 'NONE', *, *, #180, .F. ) ;
#283 = CARTESIAN_POINT ( 'NONE',  ( 0.0000000000000000000, 0.0000000000000000000, 0.0000000000000000000 ) ) ;
#284 = ADVANCED_FACE ( 'NONE', ( #143 ), #5, .T. ) ;
#285 = VERTEX_POINT ( 'NONE', #287 ) ;
#286 =( LENGTH_UNIT ( ) NAMED_UNIT ( * ) SI_UNIT ( $, .METRE. ) );
#287 = CARTESIAN_POINT ( 'NONE',  ( -0.06249999999999997918, 0.0000000000000000000, 0.3437883088095654016 ) ) ;
#288 = SPHERICAL_SURFACE ( 'NONE', #119, 0.01563435000000000172 ) ;
#289 = LENGTH_MEASURE_WITH_UNIT ( LENGTH_MEASURE( 0.02539999999999999897 ), #279 );
#290 = ORIENTED_EDGE ( 'NONE', *, *, #229, .F. ) ;
#291 = CARTESIAN_POINT ( 'NONE',  ( 4.210192519679162135E-17, 0.0000000000000000000, 0.3437883088095654016 ) ) ;
#292 = CARTESIAN_POINT ( 'NONE',  ( -0.04750000000000064587, 0.0000000000000000000, 1.500000000000000222 ) ) ;
#293 = DIRECTION ( 'NONE',  ( 1.000000000000000000, 0.0000000000000000000, 0.0000000000000000000 ) ) ;
#294 = ORIENTED_EDGE ( 'NONE', *, *, #128, .T. ) ;
#295 = EDGE_CURVE ( 'NONE', #149, #83, #153, .T. ) ;
#296 = AXIS2_PLACEMENT_3D ( 'NONE', #186, #138, #240 ) ;
#297 = CARTESIAN_POINT ( 'NONE',  ( -0.06250000000000002776, 0.0000000000000000000, 1.500000000000000222 ) ) ;
#298 = AXIS2_PLACEMENT_3D ( 'NONE', #195, #177, #48 ) ;
#299 = ORIENTED_EDGE ( 'NONE', *, *, #23, .T. ) ;
#300 = EDGE_LOOP ( 'NONE', ( #76, #1, #113, #89 ) ) ;
#301 = DIRECTION ( 'NONE',  ( -1.224646799147353700E-16, -0.0000000000000000000, -1.000000000000000000 ) ) ;
#302 = EDGE_CURVE ( 'NONE', #188, #285, #170, .T. ) ;
#303 = LINE ( 'NONE', #126, #155 ) ;
#304 = AXIS2_PLACEMENT_3D ( 'NONE', #187, #206, #86 ) ;
#305 = AXIS2_PLACEMENT_3D ( 'NONE', #231, #25, #58 ) ;
#306 = ORIENTED_EDGE ( 'NONE', *, *, #295, .T. ) ;
#307 = VECTOR ( 'NONE', #243, 39.37007874015748854 ) ;
#308 = ORIENTED_EDGE ( 'NONE', *, *, #12, .F. ) ;
#309 = DIRECTION ( 'NONE',  ( -1.000000000000000000, 0.0000000000000000000, 0.0000000000000000000 ) ) ;
#310 = MECHANICAL_DESIGN_GEOMETRIC_PRESENTATION_REPRESENTATION (  '', ( #71 ), #215 ) ;
#311 = ADVANCED_FACE ( 'NONE', ( #221 ), #2, .T. ) ;
#312 = ORIENTED_EDGE ( 'NONE', *, *, #165, .T. ) ;
#313 = CARTESIAN_POINT ( 'NONE',  ( 0.01563435000000001560, 1.914655668424943751E-18, -1.914655668424944522E-18 ) ) ;
#314 = ORIENTED_EDGE ( 'NONE', *, *, #250, .F. ) ;
#315 = DIRECTION ( 'NONE',  ( -0.0000000000000000000, -0.0000000000000000000, -1.000000000000000000 ) ) ;
#316 = MANIFOLD_SOLID_BREP ( 'Fillet1', #75 ) ;
#317 = PRODUCT_CONTEXT ( 'NONE', #8, 'mechanical' ) ;
#318 = ORIENTED_EDGE ( 'NONE', *, *, #164, .F. ) ;
#319 = DIRECTION ( 'NONE',  ( 1.000000000000000000, 0.0000000000000000000, 0.0000000000000000000 ) ) ;
#320 = VECTOR ( 'NONE', #147, 39.37007874015747433 ) ;
#321 = AXIS2_PLACEMENT_3D ( 'NONE', #49, #129, #51 ) ;
#322 = AXIS2_PLACEMENT_3D ( 'NONE', #234, #39, #106 ) ;
#323 = CONICAL_SURFACE ( 'NONE', #162, 0.04750000000000064587, 0.7853981633974466137 ) ;
#324 =( GEOMETRIC_REPRESENTATION_CONTEXT ( 3 ) GLOBAL_UNCERTAINTY_ASSIGNED_CONTEXT ( ( #45 ) ) GLOBAL_UNIT_ASSIGNED_CONTEXT ( ( #228, #145, #30 ) ) REPRESENTATION_CONTEXT ( 'NONE', 'WORKASPACE' ) );
#325 = SURFACE_SIDE_STYLE ('',( #32 ) ) ;
ENDSEC;
END-ISO-10303-21;
