ISO-10303-21;
HEADER;
FILE_DESCRIPTION (( 'STEP AP214' ),
    '1' );
FILE_NAME ('86087.STEP',
    '2023-07-01T00:08:44',
    ( '' ),
    ( '' ),
    'SwSTEP 2.0',
    'SolidWorks 2023',
    '' );
FILE_SCHEMA (( 'AUTOMOTIVE_DESIGN' ));
ENDSEC;

DATA;
#1 =( CONVERSION_BASED_UNIT ( 'INCH', #109 ) LENGTH_UNIT ( ) NAMED_UNIT ( #101 ) );
#2 = EDGE_LOOP ( 'NONE', ( #303, #38, #222, #302 ) ) ;
#3 = ADVANCED_BREP_SHAPE_REPRESENTATION ( '86087', ( #358, #364, #134 ), #42 ) ;
#4 = DIRECTION ( 'NONE',  ( 1.228390007958548453E-16, -1.000000000000000000, 0.000000000000000000 ) ) ;
#5 = CIRCLE ( 'NONE', #357, 0.5000000000000000000 ) ;
#6 = CARTESIAN_POINT ( 'NONE',  ( 0.4999999999999995004, 7.000000000000000000, 6.123233995736761105E-17 ) ) ;
#7 = ORIENTED_EDGE ( 'NONE', *, *, #94, .T. ) ;
#8 = PLANE ( 'NONE',  #321 ) ;
#9 =( NAMED_UNIT ( * ) SI_UNIT ( $, .STERADIAN. ) SOLID_ANGLE_UNIT ( ) );
#10 = CARTESIAN_POINT ( 'NONE',  ( -3.061616997868383018E-17, 0.000000000000000000, 0.000000000000000000 ) ) ;
#11 = EDGE_CURVE ( 'NONE', #107, #190, #27, .T. ) ;
#12 = SURFACE_STYLE_FILL_AREA ( #354 ) ;
#13 = DIRECTION ( 'NONE',  ( 1.000000000000000000, 0.000000000000000000, -1.224646799147353207E-16 ) ) ;
#14 =( GEOMETRIC_REPRESENTATION_CONTEXT ( 3 ) GLOBAL_UNCERTAINTY_ASSIGNED_CONTEXT ( ( #219 ) ) GLOBAL_UNIT_ASSIGNED_CONTEXT ( ( #1, #171, #277 ) ) REPRESENTATION_CONTEXT ( 'NONE', 'WORKASPACE' ) );
#15 = PRODUCT_DEFINITION_CONTEXT ( 'detailed design', #331, 'design' ) ;
#16 = LENGTH_MEASURE_WITH_UNIT ( LENGTH_MEASURE( 0.02539999999999999897 ), #152 );
#17 = CARTESIAN_POINT ( 'NONE',  ( -1.224646799147351975E-16, 7.000000000000000000, 0.000000000000000000 ) ) ;
#18 =( NAMED_UNIT ( * ) SI_UNIT ( $, .STERADIAN. ) SOLID_ANGLE_UNIT ( ) );
#19 =( GEOMETRIC_REPRESENTATION_CONTEXT ( 3 ) GLOBAL_UNCERTAINTY_ASSIGNED_CONTEXT ( ( #56 ) ) GLOBAL_UNIT_ASSIGNED_CONTEXT ( ( #310, #144, #245 ) ) REPRESENTATION_CONTEXT ( 'NONE', 'WORKASPACE' ) );
#20 = AXIS2_PLACEMENT_3D ( 'NONE', #332, #301, #166 ) ;
#21 = DIRECTION ( 'NONE',  ( 0.000000000000000000, 0.000000000000000000, 1.000000000000000000 ) ) ;
#22 = MECHANICAL_DESIGN_GEOMETRIC_PRESENTATION_REPRESENTATION (  '', ( #208 ), #284 ) ;
#23 = PRODUCT_CONTEXT ( 'NONE', #62, 'mechanical' ) ;
#24 = PRESENTATION_STYLE_ASSIGNMENT (( #295 ) ) ;
#25 = VERTEX_POINT ( 'NONE', #86 ) ;
#26 = CARTESIAN_POINT ( 'NONE',  ( -1.224646799147351975E-16, 7.000000000000000000, 0.000000000000000000 ) ) ;
#27 = CIRCLE ( 'NONE', #153, 0.4999999999999996114 ) ;
#28 = AXIS2_PLACEMENT_3D ( 'NONE', #26, #220, #135 ) ;
#29 = DIRECTION ( 'NONE',  ( -0.000000000000000000, -1.000000000000000000, -0.000000000000000000 ) ) ;
#30 = DIMENSIONAL_EXPONENTS ( 1.000000000000000000, 0.000000000000000000, 0.000000000000000000, 0.000000000000000000, 0.000000000000000000, 0.000000000000000000, 0.000000000000000000 ) ;
#31 = ORIENTED_EDGE ( 'NONE', *, *, #44, .T. ) ;
#32 = FACE_OUTER_BOUND ( 'NONE', #167, .T. ) ;
#33 = DIRECTION ( 'NONE',  ( -1.228390007958548453E-16, 1.000000000000000000, 0.000000000000000000 ) ) ;
#34 = ORIENTED_EDGE ( 'NONE', *, *, #54, .T. ) ;
#35 = PRESENTATION_STYLE_ASSIGNMENT (( #172 ) ) ;
#36 = DIRECTION ( 'NONE',  ( -1.228390007958548453E-16, 1.000000000000000000, -0.000000000000000000 ) ) ;
#37 =( NAMED_UNIT ( * ) PLANE_ANGLE_UNIT ( ) SI_UNIT ( $, .RADIAN. ) );
#38 = ORIENTED_EDGE ( 'NONE', *, *, #323, .T. ) ;
#39 = ORIENTED_EDGE ( 'NONE', *, *, #78, .F. ) ;
#40 = DIMENSIONAL_EXPONENTS ( 1.000000000000000000, 0.000000000000000000, 0.000000000000000000, 0.000000000000000000, 0.000000000000000000, 0.000000000000000000, 0.000000000000000000 ) ;
#41 = COLOUR_RGB ( '',1.000000000000000000, 0.000000000000000000, 0.000000000000000000 ) ;
#42 =( GEOMETRIC_REPRESENTATION_CONTEXT ( 3 ) GLOBAL_UNCERTAINTY_ASSIGNED_CONTEXT ( ( #160 ) ) GLOBAL_UNIT_ASSIGNED_CONTEXT ( ( #186, #351, #9 ) ) REPRESENTATION_CONTEXT ( 'NONE', 'WORKASPACE' ) );
#43 = SURFACE_SIDE_STYLE ('',( #320 ) ) ;
#44 = EDGE_CURVE ( 'NONE', #136, #187, #58, .T. ) ;
#45 =( CONVERSION_BASED_UNIT ( 'INCH', #16 ) LENGTH_UNIT ( ) NAMED_UNIT ( #162 ) );
#46 = SURFACE_SIDE_STYLE ('',( #12 ) ) ;
#47 = DIRECTION ( 'NONE',  ( 0.000000000000000000, 0.000000000000000000, -1.000000000000000000 ) ) ;
#48 = DIRECTION ( 'NONE',  ( -1.000000000000000000, 0.000000000000000000, 0.000000000000000000 ) ) ;
#49 = VECTOR ( 'NONE', #29, 39.37007874015748143 ) ;
#50 = ORIENTED_EDGE ( 'NONE', *, *, #94, .F. ) ;
#51 = ADVANCED_FACE ( 'NONE', ( #90 ), #305, .T. ) ;
#52 = STYLED_ITEM ( 'NONE', ( #89 ), #364 ) ;
#53 = UNCERTAINTY_MEASURE_WITH_UNIT (LENGTH_MEASURE( 1.000000000000000082E-05 ), #45, 'distance_accuracy_value', 'NONE');
#54 = EDGE_CURVE ( 'NONE', #82, #195, #262, .T. ) ;
#55 = ORIENTED_EDGE ( 'NONE', *, *, #237, .F. ) ;
#56 = UNCERTAINTY_MEASURE_WITH_UNIT (LENGTH_MEASURE( 1.000000000000000082E-05 ), #310, 'distance_accuracy_value', 'NONE');
#57 = CARTESIAN_POINT ( 'NONE',  ( -0.4999999999999997224, 7.000000000000000000, 0.000000000000000000 ) ) ;
#58 = CIRCLE ( 'NONE', #146, 0.4999999999999992228 ) ;
#59 =( CONVERSION_BASED_UNIT ( 'INCH', #199 ) LENGTH_UNIT ( ) NAMED_UNIT ( #30 ) );
#60 =( GEOMETRIC_REPRESENTATION_CONTEXT ( 3 ) GLOBAL_UNCERTAINTY_ASSIGNED_CONTEXT ( ( #192 ) ) GLOBAL_UNIT_ASSIGNED_CONTEXT ( ( #59, #37, #114 ) ) REPRESENTATION_CONTEXT ( 'NONE', 'WORKASPACE' ) );
#61 = EDGE_LOOP ( 'NONE', ( #335, #306, #88, #77, #104 ) ) ;
#62 = APPLICATION_CONTEXT ( 'automotive_design' ) ;
#63 = DIRECTION ( 'NONE',  ( 0.000000000000000000, 0.000000000000000000, -1.000000000000000000 ) ) ;
#64 = CARTESIAN_POINT ( 'NONE',  ( 2.153425722738656455E-16, 4.250000000000000000, 0.000000000000000000 ) ) ;
#65 = DIRECTION ( 'NONE',  ( 0.000000000000000000, 0.000000000000000000, -1.000000000000000000 ) ) ;
#66 = FILL_AREA_STYLE_COLOUR ( '', #370 ) ;
#67 = AXIS2_PLACEMENT_3D ( 'NONE', #316, #343, #69 ) ;
#68 = PRESENTATION_LAYER_ASSIGNMENT (  '', '', ( #327 ) ) ;
#69 = DIRECTION ( 'NONE',  ( 1.000000000000000000, 0.000000000000000000, 0.000000000000000000 ) ) ;
#70 = CARTESIAN_POINT ( 'NONE',  ( 0.000000000000000000, 0.000000000000000000, 0.000000000000000000 ) ) ;
#71 =( NAMED_UNIT ( * ) PLANE_ANGLE_UNIT ( ) SI_UNIT ( $, .RADIAN. ) );
#72 = DIRECTION ( 'NONE',  ( 0.000000000000000000, 0.000000000000000000, -1.000000000000000000 ) ) ;
#73 = MECHANICAL_DESIGN_GEOMETRIC_PRESENTATION_REPRESENTATION (  '', ( #294 ), #317 ) ;
#74 = LENGTH_MEASURE_WITH_UNIT ( LENGTH_MEASURE( 0.02539999999999999897 ), #149 );
#75 = FILL_AREA_STYLE ('',( #210 ) ) ;
#76 = FILL_AREA_STYLE ('',( #97 ) ) ;
#77 = ORIENTED_EDGE ( 'NONE', *, *, #298, .F. ) ;
#78 = EDGE_CURVE ( 'NONE', #276, #82, #249, .T. ) ;
#79 = APPLICATION_PROTOCOL_DEFINITION ( 'draft international standard', 'automotive_design', 1998, #62 ) ;
#80 = CIRCLE ( 'NONE', #178, 0.5000000000000000000 ) ;
#81 =( CONVERSION_BASED_UNIT ( 'INCH', #102 ) LENGTH_UNIT ( ) NAMED_UNIT ( #40 ) );
#82 = VERTEX_POINT ( 'NONE', #313 ) ;
#83 = FACE_OUTER_BOUND ( 'NONE', #176, .T. ) ;
#84 = CARTESIAN_POINT ( 'NONE',  ( 0.000000000000000000, 0.000000000000000000, 0.000000000000000000 ) ) ;
#85 =( GEOMETRIC_REPRESENTATION_CONTEXT ( 3 ) GLOBAL_UNCERTAINTY_ASSIGNED_CONTEXT ( ( #213 ) ) GLOBAL_UNIT_ASSIGNED_CONTEXT ( ( #81, #168, #241 ) ) REPRESENTATION_CONTEXT ( 'NONE', 'WORKASPACE' ) );
#86 = CARTESIAN_POINT ( 'NONE',  ( 0.5000000000000000000, 0.5000000000000001110, 0.000000000000000000 ) ) ;
#87 =( LENGTH_UNIT ( ) NAMED_UNIT ( * ) SI_UNIT ( $, .METRE. ) );
#88 = ORIENTED_EDGE ( 'NONE', *, *, #226, .F. ) ;
#89 = PRESENTATION_STYLE_ASSIGNMENT (( #339 ) ) ;
#90 = FACE_OUTER_BOUND ( 'NONE', #243, .T. ) ;
#91 = LENGTH_MEASURE_WITH_UNIT ( LENGTH_MEASURE( 0.02539999999999999897 ), #87 );
#92 = DIRECTION ( 'NONE',  ( -0.000000000000000000, -1.000000000000000000, -0.000000000000000000 ) ) ;
#93 = PRODUCT ( '86087', '86087', '', ( #23 ) ) ;
#94 = EDGE_CURVE ( 'NONE', #187, #136, #235, .T. ) ;
#95 = CARTESIAN_POINT ( 'NONE',  ( -6.123233995736766036E-17, 0.5000000000000000000, 0.000000000000000000 ) ) ;
#96 = DIRECTION ( 'NONE',  ( -1.000000000000000000, 0.000000000000000000, 0.000000000000000000 ) ) ;
#97 = FILL_AREA_STYLE_COLOUR ( '', #123 ) ;
#98 = CIRCLE ( 'NONE', #28, 0.4999999999999996114 ) ;
#99 = DIRECTION ( 'NONE',  ( 0.000000000000000000, -0.000000000000000000, 1.000000000000000000 ) ) ;
#100 = PLANE ( 'NONE',  #236 ) ;
#101 = DIMENSIONAL_EXPONENTS ( 1.000000000000000000, 0.000000000000000000, 0.000000000000000000, 0.000000000000000000, 0.000000000000000000, 0.000000000000000000, 0.000000000000000000 ) ;
#102 = LENGTH_MEASURE_WITH_UNIT ( LENGTH_MEASURE( 0.02539999999999999897 ), #244 );
#103 = AXIS2_PLACEMENT_3D ( 'NONE', #175, #112, #65 ) ;
#104 = ORIENTED_EDGE ( 'NONE', *, *, #155, .F. ) ;
#105 = ORIENTED_EDGE ( 'NONE', *, *, #11, .F. ) ;
#106 = DIRECTION ( 'NONE',  ( -0.000000000000000000, -1.000000000000000000, -0.000000000000000000 ) ) ;
#107 = VERTEX_POINT ( 'NONE', #6 ) ;
#108 = CIRCLE ( 'NONE', #308, 0.5000000000000000000 ) ;
#109 = LENGTH_MEASURE_WITH_UNIT ( LENGTH_MEASURE( 0.02539999999999999897 ), #290 );
#110 = CARTESIAN_POINT ( 'NONE',  ( -1.224646799147351975E-16, 7.000000000000000000, 0.000000000000000000 ) ) ;
#111 = SURFACE_SIDE_STYLE ('',( #372 ) ) ;
#112 = DIRECTION ( 'NONE',  ( -0.000000000000000000, -1.000000000000000000, -0.000000000000000000 ) ) ;
#113 = DIRECTION ( 'NONE',  ( -1.000000000000000000, 0.000000000000000000, 0.000000000000000000 ) ) ;
#114 =( NAMED_UNIT ( * ) SI_UNIT ( $, .STERADIAN. ) SOLID_ANGLE_UNIT ( ) );
#115 = CARTESIAN_POINT ( 'NONE',  ( 2.153425722738656455E-16, 4.250000000000000000, 0.000000000000000000 ) ) ;
#116 = SURFACE_STYLE_FILL_AREA ( #252 ) ;
#117 =( GEOMETRIC_REPRESENTATION_CONTEXT ( 3 ) GLOBAL_UNCERTAINTY_ASSIGNED_CONTEXT ( ( #128 ) ) GLOBAL_UNIT_ASSIGNED_CONTEXT ( ( #287, #71, #18 ) ) REPRESENTATION_CONTEXT ( 'NONE', 'WORKASPACE' ) );
#118 = FACE_OUTER_BOUND ( 'NONE', #250, .T. ) ;
#119 = ADVANCED_FACE ( 'NONE', ( #118 ), #346, .T. ) ;
#120 = SURFACE_STYLE_FILL_AREA ( #255 ) ;
#121 = CARTESIAN_POINT ( 'NONE',  ( 0.000000000000000000, 0.5000000000000001110, 0.000000000000000000 ) ) ;
#122 = DIRECTION ( 'NONE',  ( -1.228390007958548453E-16, 1.000000000000000000, -0.000000000000000000 ) ) ;
#123 = COLOUR_RGB ( '',1.000000000000000000, 0.000000000000000000, 0.000000000000000000 ) ;
#124 = COLOUR_RGB ( '',0.7921568627450980005, 0.8196078431372548767, 0.9333333333333333481 ) ;
#125 =( NAMED_UNIT ( * ) PLANE_ANGLE_UNIT ( ) SI_UNIT ( $, .RADIAN. ) );
#126 = CARTESIAN_POINT ( 'NONE',  ( 0.000000000000000000, 0.5000000000000001110, 0.000000000000000000 ) ) ;
#127 =( NAMED_UNIT ( * ) SI_UNIT ( $, .STERADIAN. ) SOLID_ANGLE_UNIT ( ) );
#128 = UNCERTAINTY_MEASURE_WITH_UNIT (LENGTH_MEASURE( 1.000000000000000082E-05 ), #287, 'distance_accuracy_value', 'NONE');
#129 = ADVANCED_FACE ( 'NONE', ( #163 ), #194, .T. ) ;
#130 = PRESENTATION_LAYER_ASSIGNMENT (  '', '', ( #355 ) ) ;
#131 = DIRECTION ( 'NONE',  ( 0.000000000000000000, 0.000000000000000000, -1.000000000000000000 ) ) ;
#132 = APPLICATION_PROTOCOL_DEFINITION ( 'draft international standard', 'automotive_design', 1998, #331 ) ;
#133 = CARTESIAN_POINT ( 'NONE',  ( -0.4999999999999996114, 7.000000000000000000, 0.000000000000000000 ) ) ;
#134 = AXIS2_PLACEMENT_3D ( 'NONE', #70, #21, #325 ) ;
#135 = DIRECTION ( 'NONE',  ( -1.000000000000000000, 0.000000000000000000, 0.000000000000000000 ) ) ;
#136 = VERTEX_POINT ( 'NONE', #266 ) ;
#137 = CARTESIAN_POINT ( 'NONE',  ( 0.4999999999999994449, 7.000000000000000000, 0.000000000000000000 ) ) ;
#138 = CYLINDRICAL_SURFACE ( 'NONE', #103, 0.4999999999999997224 ) ;
#139 = AXIS2_PLACEMENT_3D ( 'NONE', #279, #180, #274 ) ;
#140 = ORIENTED_EDGE ( 'NONE', *, *, #54, .F. ) ;
#141 = FILL_AREA_STYLE_COLOUR ( '', #217 ) ;
#142 = COLOUR_RGB ( '',1.000000000000000000, 0.000000000000000000, 0.000000000000000000 ) ;
#143 =( LENGTH_UNIT ( ) NAMED_UNIT ( * ) SI_UNIT ( $, .METRE. ) );
#144 =( NAMED_UNIT ( * ) PLANE_ANGLE_UNIT ( ) SI_UNIT ( $, .RADIAN. ) );
#145 = ORIENTED_EDGE ( 'NONE', *, *, #237, .T. ) ;
#146 = AXIS2_PLACEMENT_3D ( 'NONE', #115, #36, #113 ) ;
#147 = AXIS2_PLACEMENT_3D ( 'NONE', #126, #92, #47 ) ;
#148 = FACE_OUTER_BOUND ( 'NONE', #333, .T. ) ;
#149 =( LENGTH_UNIT ( ) NAMED_UNIT ( * ) SI_UNIT ( $, .METRE. ) );
#150 = DIRECTION ( 'NONE',  ( -0.000000000000000000, -1.000000000000000000, -0.000000000000000000 ) ) ;
#151 = FACE_OUTER_BOUND ( 'NONE', #338, .T. ) ;
#152 =( LENGTH_UNIT ( ) NAMED_UNIT ( * ) SI_UNIT ( $, .METRE. ) );
#153 = AXIS2_PLACEMENT_3D ( 'NONE', #110, #336, #314 ) ;
#154 = AXIS2_PLACEMENT_3D ( 'NONE', #95, #288, #96 ) ;
#155 = EDGE_CURVE ( 'NONE', #361, #267, #239, .T. ) ;
#156 = PRESENTATION_STYLE_ASSIGNMENT (( #181 ) ) ;
#157 = CARTESIAN_POINT ( 'NONE',  ( 0.000000000000000000, 0.5000000000000001110, 0.000000000000000000 ) ) ;
#158 = EDGE_CURVE ( 'NONE', #190, #107, #98, .T. ) ;
#159 = CARTESIAN_POINT ( 'NONE',  ( 0.000000000000000000, 4.250000000000000000, 0.000000000000000000 ) ) ;
#160 = UNCERTAINTY_MEASURE_WITH_UNIT (LENGTH_MEASURE( 1.000000000000000082E-05 ), #186, 'distance_accuracy_value', 'NONE');
#161 = PRODUCT_DEFINITION_SHAPE ( 'NONE', 'NONE',  #292 ) ;
#162 = DIMENSIONAL_EXPONENTS ( 1.000000000000000000, 0.000000000000000000, 0.000000000000000000, 0.000000000000000000, 0.000000000000000000, 0.000000000000000000, 0.000000000000000000 ) ;
#163 = FACE_OUTER_BOUND ( 'NONE', #270, .T. ) ;
#164 = ORIENTED_EDGE ( 'NONE', *, *, #169, .T. ) ;
#165 = CIRCLE ( 'NONE', #246, 0.4999999999999994449 ) ;
#166 = DIRECTION ( 'NONE',  ( -1.000000000000000000, 0.000000000000000000, 0.000000000000000000 ) ) ;
#167 = EDGE_LOOP ( 'NONE', ( #174, #247 ) ) ;
#168 =( NAMED_UNIT ( * ) PLANE_ANGLE_UNIT ( ) SI_UNIT ( $, .RADIAN. ) );
#169 = EDGE_CURVE ( 'NONE', #136, #190, #359, .T. ) ;
#170 = ORIENTED_EDGE ( 'NONE', *, *, #342, .T. ) ;
#171 =( NAMED_UNIT ( * ) PLANE_ANGLE_UNIT ( ) SI_UNIT ( $, .RADIAN. ) );
#172 = SURFACE_STYLE_USAGE ( .BOTH. , #369 ) ;
#173 = PRESENTATION_LAYER_ASSIGNMENT (  '', '', ( #326 ) ) ;
#174 = ORIENTED_EDGE ( 'NONE', *, *, #158, .T. ) ;
#175 = CARTESIAN_POINT ( 'NONE',  ( 0.000000000000000000, 0.000000000000000000, 0.000000000000000000 ) ) ;
#176 = EDGE_LOOP ( 'NONE', ( #225, #50 ) ) ;
#177 = LINE ( 'NONE', #196, #185 ) ;
#178 = AXIS2_PLACEMENT_3D ( 'NONE', #121, #348, #63 ) ;
#179 = SURFACE_STYLE_FILL_AREA ( #272 ) ;
#180 = DIRECTION ( 'NONE',  ( -0.000000000000000000, -1.000000000000000000, -0.000000000000000000 ) ) ;
#181 = SURFACE_STYLE_USAGE ( .BOTH. , #46 ) ;
#182 = CARTESIAN_POINT ( 'NONE',  ( 6.123233995736761105E-17, 4.250000000000000000, 0.4999999999999994449 ) ) ;
#183 = ADVANCED_FACE ( 'NONE', ( #83 ), #100, .F. ) ;
#184 = LENGTH_MEASURE_WITH_UNIT ( LENGTH_MEASURE( 0.02539999999999999897 ), #257 );
#185 = VECTOR ( 'NONE', #315, 39.37007874015748143 ) ;
#186 =( CONVERSION_BASED_UNIT ( 'INCH', #74 ) LENGTH_UNIT ( ) NAMED_UNIT ( #296 ) );
#187 = VERTEX_POINT ( 'NONE', #232 ) ;
#188 = AXIS2_PLACEMENT_3D ( 'NONE', #84, #106, #131 ) ;
#189 = SURFACE_STYLE_USAGE ( .BOTH. , #43 ) ;
#190 = VERTEX_POINT ( 'NONE', #57 ) ;
#191 = ORIENTED_EDGE ( 'NONE', *, *, #291, .T. ) ;
#192 = UNCERTAINTY_MEASURE_WITH_UNIT (LENGTH_MEASURE( 1.000000000000000082E-05 ), #59, 'distance_accuracy_value', 'NONE');
#193 = PRESENTATION_LAYER_ASSIGNMENT (  '', '', ( #52 ) ) ;
#194 = CYLINDRICAL_SURFACE ( 'NONE', #20, 0.4999999999999994449 ) ;
#195 = VERTEX_POINT ( 'NONE', #281 ) ;
#196 = CARTESIAN_POINT ( 'NONE',  ( 0.4999999999999993339, 7.000000000000000000, 6.123233995736758640E-17 ) ) ;
#197 = DIMENSIONAL_EXPONENTS ( 1.000000000000000000, 0.000000000000000000, 0.000000000000000000, 0.000000000000000000, 0.000000000000000000, 0.000000000000000000, 0.000000000000000000 ) ;
#198 = SURFACE_STYLE_USAGE ( .BOTH. , #371 ) ;
#199 = LENGTH_MEASURE_WITH_UNIT ( LENGTH_MEASURE( 0.02539999999999999897 ), #373 );
#200 = CARTESIAN_POINT ( 'NONE',  ( 6.123233995736763571E-17, 0.000000000000000000, 0.4999999999999997224 ) ) ;
#201 = MECHANICAL_DESIGN_GEOMETRIC_PRESENTATION_REPRESENTATION (  '', ( #52 ), #117 ) ;
#202 = LENGTH_MEASURE_WITH_UNIT ( LENGTH_MEASURE( 0.02539999999999999897 ), #143 );
#203 = PRODUCT_DEFINITION_FORMATION_WITH_SPECIFIED_SOURCE ( 'ANY', '', #93, .NOT_KNOWN. ) ;
#204 =( NAMED_UNIT ( * ) SI_UNIT ( $, .STERADIAN. ) SOLID_ANGLE_UNIT ( ) );
#205 = DIRECTION ( 'NONE',  ( -1.000000000000000000, 0.000000000000000000, 0.000000000000000000 ) ) ;
#206 = PRESENTATION_LAYER_ASSIGNMENT (  '', '', ( #254 ) ) ;
#207 = CARTESIAN_POINT ( 'NONE',  ( 0.000000000000000000, 4.250000000000000000, 0.000000000000000000 ) ) ;
#208 = STYLED_ITEM ( 'NONE', ( #156 ), #367 ) ;
#209 = FACE_OUTER_BOUND ( 'NONE', #2, .T. ) ;
#210 = FILL_AREA_STYLE_COLOUR ( '', #124 ) ;
#211 = AXIS2_PLACEMENT_3D ( 'NONE', #159, #238, #72 ) ;
#212 = CARTESIAN_POINT ( 'NONE',  ( 0.000000000000000000, 0.5000000000000001110, -0.5000000000000000000 ) ) ;
#213 = UNCERTAINTY_MEASURE_WITH_UNIT (LENGTH_MEASURE( 1.000000000000000082E-05 ), #81, 'distance_accuracy_value', 'NONE');
#214 = ORIENTED_EDGE ( 'NONE', *, *, #291, .F. ) ;
#215 = SURFACE_STYLE_FILL_AREA ( #76 ) ;
#216 = MECHANICAL_DESIGN_GEOMETRIC_PRESENTATION_REPRESENTATION (  '', ( #326 ), #85 ) ;
#217 = COLOUR_RGB ( '',0.7921568627450980005, 0.8196078431372548767, 0.9333333333333333481 ) ;
#218 = ORIENTED_EDGE ( 'NONE', *, *, #226, .T. ) ;
#219 = UNCERTAINTY_MEASURE_WITH_UNIT (LENGTH_MEASURE( 1.000000000000000082E-05 ), #1, 'distance_accuracy_value', 'NONE');
#220 = DIRECTION ( 'NONE',  ( -1.228390007958548453E-16, 1.000000000000000000, -0.000000000000000000 ) ) ;
#221 = CIRCLE ( 'NONE', #154, 0.5000000000000000000 ) ;
#222 = ORIENTED_EDGE ( 'NONE', *, *, #298, .T. ) ;
#223 = DIRECTION ( 'NONE',  ( 1.000000000000000000, 1.228390007958548453E-16, 0.000000000000000000 ) ) ;
#224 = SURFACE_STYLE_USAGE ( .BOTH. , #278 ) ;
#225 = ORIENTED_EDGE ( 'NONE', *, *, #44, .F. ) ;
#226 = EDGE_CURVE ( 'NONE', #25, #82, #80, .T. ) ;
#227 = FILL_AREA_STYLE_COLOUR ( '', #41 ) ;
#228 = FACE_OUTER_BOUND ( 'NONE', #61, .T. ) ;
#229 = PRESENTATION_LAYER_ASSIGNMENT (  '', '', ( #294 ) ) ;
#230 = ORIENTED_EDGE ( 'NONE', *, *, #353, .F. ) ;
#231 = ORIENTED_EDGE ( 'NONE', *, *, #356, .F. ) ;
#232 = CARTESIAN_POINT ( 'NONE',  ( 0.4999999999999995004, 4.250000000000000000, 6.123233995736761105E-17 ) ) ;
#233 = ADVANCED_FACE ( 'NONE', ( #228 ), #138, .T. ) ;
#234 = DIRECTION ( 'NONE',  ( -0.000000000000000000, -1.000000000000000000, -0.000000000000000000 ) ) ;
#235 = CIRCLE ( 'NONE', #273, 0.4999999999999992228 ) ;
#236 = AXIS2_PLACEMENT_3D ( 'NONE', #299, #33, #312 ) ;
#237 = EDGE_CURVE ( 'NONE', #187, #107, #177, .T. ) ;
#238 = DIRECTION ( 'NONE',  ( -0.000000000000000000, -1.000000000000000000, -0.000000000000000000 ) ) ;
#239 = LINE ( 'NONE', #269, #49 ) ;
#240 = ADVANCED_FACE ( 'NONE', ( #148 ), #8, .T. ) ;
#241 =( NAMED_UNIT ( * ) SI_UNIT ( $, .STERADIAN. ) SOLID_ANGLE_UNIT ( ) );
#242 = MECHANICAL_DESIGN_GEOMETRIC_PRESENTATION_REPRESENTATION (  '', ( #254 ), #60 ) ;
#243 = EDGE_LOOP ( 'NONE', ( #34, #170, #231, #218 ) ) ;
#244 =( LENGTH_UNIT ( ) NAMED_UNIT ( * ) SI_UNIT ( $, .METRE. ) );
#245 =( NAMED_UNIT ( * ) SI_UNIT ( $, .STERADIAN. ) SOLID_ANGLE_UNIT ( ) );
#246 = AXIS2_PLACEMENT_3D ( 'NONE', #324, #150, #352 ) ;
#247 = ORIENTED_EDGE ( 'NONE', *, *, #11, .T. ) ;
#248 = FILL_AREA_STYLE ('',( #141 ) ) ;
#249 = LINE ( 'NONE', #200, #293 ) ;
#250 = EDGE_LOOP ( 'NONE', ( #39, #191, #365, #251, #140 ) ) ;
#251 = ORIENTED_EDGE ( 'NONE', *, *, #323, .F. ) ;
#252 = FILL_AREA_STYLE ('',( #345 ) ) ;
#253 = DIRECTION ( 'NONE',  ( -1.228390007958548453E-16, 1.000000000000000000, -0.000000000000000000 ) ) ;
#254 = STYLED_ITEM ( 'NONE', ( #35 ), #240 ) ;
#255 = FILL_AREA_STYLE ('',( #227 ) ) ;
#256 = CARTESIAN_POINT ( 'NONE',  ( -6.123233995736766036E-17, 0.5000000000000000000, 0.000000000000000000 ) ) ;
#257 =( LENGTH_UNIT ( ) NAMED_UNIT ( * ) SI_UNIT ( $, .METRE. ) );
#258 = DIRECTION ( 'NONE',  ( 1.224646799147353207E-16, -0.000000000000000000, 1.000000000000000000 ) ) ;
#259 = COLOUR_RGB ( '',1.000000000000000000, 0.000000000000000000, 0.000000000000000000 ) ;
#260 = CARTESIAN_POINT ( 'NONE',  ( -6.123233995736766036E-17, 0.5000000000000000000, 0.000000000000000000 ) ) ;
#261 = PLANE ( 'NONE',  #263 ) ;
#262 = CIRCLE ( 'NONE', #139, 0.5000000000000000000 ) ;
#263 = AXIS2_PLACEMENT_3D ( 'NONE', #137, #4, #223 ) ;
#264 = AXIS2_PLACEMENT_3D ( 'NONE', #260, #347, #322 ) ;
#265 = DIMENSIONAL_EXPONENTS ( 1.000000000000000000, 0.000000000000000000, 0.000000000000000000, 0.000000000000000000, 0.000000000000000000, 0.000000000000000000, 0.000000000000000000 ) ;
#266 = CARTESIAN_POINT ( 'NONE',  ( -0.4999999999999990563, 4.250000000000000000, 0.000000000000000000 ) ) ;
#267 = VERTEX_POINT ( 'NONE', #212 ) ;
#268 = VECTOR ( 'NONE', #368, 39.37007874015748143 ) ;
#269 = CARTESIAN_POINT ( 'NONE',  ( 0.000000000000000000, 0.000000000000000000, -0.4999999999999997224 ) ) ;
#270 = EDGE_LOOP ( 'NONE', ( #55, #7, #164, #105 ) ) ;
#271 = CARTESIAN_POINT ( 'NONE',  ( 0.000000000000000000, 4.250000000000000000, -0.4999999999999994449 ) ) ;
#272 = FILL_AREA_STYLE ('',( #66 ) ) ;
#273 = AXIS2_PLACEMENT_3D ( 'NONE', #64, #253, #205 ) ;
#274 = DIRECTION ( 'NONE',  ( 0.000000000000000000, 0.000000000000000000, -1.000000000000000000 ) ) ;
#275 = CIRCLE ( 'NONE', #147, 0.5000000000000000000 ) ;
#276 = VERTEX_POINT ( 'NONE', #182 ) ;
#277 =( NAMED_UNIT ( * ) SI_UNIT ( $, .STERADIAN. ) SOLID_ANGLE_UNIT ( ) );
#278 = SURFACE_SIDE_STYLE ('',( #116 ) ) ;
#279 = CARTESIAN_POINT ( 'NONE',  ( 0.000000000000000000, 0.5000000000000001110, 0.000000000000000000 ) ) ;
#280 = ADVANCED_FACE ( 'NONE', ( #151 ), #289, .T. ) ;
#281 = CARTESIAN_POINT ( 'NONE',  ( -0.5000000000000000000, 0.5000000000000001110, 6.123233995736764803E-17 ) ) ;
#282 = CLOSED_SHELL ( 'NONE', ( #51, #233, #240, #119, #367 ) ) ;
#283 = CIRCLE ( 'NONE', #211, 0.4999999999999994449 ) ;
#284 =( GEOMETRIC_REPRESENTATION_CONTEXT ( 3 ) GLOBAL_UNCERTAINTY_ASSIGNED_CONTEXT ( ( #53 ) ) GLOBAL_UNIT_ASSIGNED_CONTEXT ( ( #45, #125, #127 ) ) REPRESENTATION_CONTEXT ( 'NONE', 'WORKASPACE' ) );
#285 = SPHERICAL_SURFACE ( 'NONE', #264, 0.5000000000000000000 ) ;
#286 = DIRECTION ( 'NONE',  ( 0.000000000000000000, 1.000000000000000000, 0.000000000000000000 ) ) ;
#287 =( CONVERSION_BASED_UNIT ( 'INCH', #184 ) LENGTH_UNIT ( ) NAMED_UNIT ( #197 ) );
#288 = DIRECTION ( 'NONE',  ( 0.000000000000000000, 0.000000000000000000, -1.000000000000000000 ) ) ;
#289 = CYLINDRICAL_SURFACE ( 'NONE', #350, 0.4999999999999994449 ) ;
#290 =( LENGTH_UNIT ( ) NAMED_UNIT ( * ) SI_UNIT ( $, .METRE. ) );
#291 = EDGE_CURVE ( 'NONE', #276, #361, #165, .T. ) ;
#292 = PRODUCT_DEFINITION ( 'UNKNOWN', '', #203, #15 ) ;
#293 = VECTOR ( 'NONE', #309, 39.37007874015748143 ) ;
#294 = STYLED_ITEM ( 'NONE', ( #341 ), #233 ) ;
#295 = SURFACE_STYLE_USAGE ( .BOTH. , #297 ) ;
#296 = DIMENSIONAL_EXPONENTS ( 1.000000000000000000, 0.000000000000000000, 0.000000000000000000, 0.000000000000000000, 0.000000000000000000, 0.000000000000000000, 0.000000000000000000 ) ;
#297 = SURFACE_SIDE_STYLE ('',( #215 ) ) ;
#298 = EDGE_CURVE ( 'NONE', #267, #25, #275, .T. ) ;
#299 = CARTESIAN_POINT ( 'NONE',  ( 2.153425722738655716E-16, 4.250000000000000000, 0.000000000000000000 ) ) ;
#300 = CLOSED_SHELL ( 'NONE', ( #280, #183, #129, #360 ) ) ;
#301 = DIRECTION ( 'NONE',  ( -1.228390007958548453E-16, 1.000000000000000000, -0.000000000000000000 ) ) ;
#302 = ORIENTED_EDGE ( 'NONE', *, *, #356, .T. ) ;
#303 = ORIENTED_EDGE ( 'NONE', *, *, #342, .F. ) ;
#304 =( NAMED_UNIT ( * ) PLANE_ANGLE_UNIT ( ) SI_UNIT ( $, .RADIAN. ) );
#305 = SPHERICAL_SURFACE ( 'NONE', #67, 0.5000000000000000000 ) ;
#306 = ORIENTED_EDGE ( 'NONE', *, *, #78, .T. ) ;
#307 =( CONVERSION_BASED_UNIT ( 'INCH', #91 ) LENGTH_UNIT ( ) NAMED_UNIT ( #265 ) );
#308 = AXIS2_PLACEMENT_3D ( 'NONE', #256, #258, #13 ) ;
#309 = DIRECTION ( 'NONE',  ( -0.000000000000000000, -1.000000000000000000, -0.000000000000000000 ) ) ;
#310 =( CONVERSION_BASED_UNIT ( 'INCH', #202 ) LENGTH_UNIT ( ) NAMED_UNIT ( #311 ) );
#311 = DIMENSIONAL_EXPONENTS ( 1.000000000000000000, 0.000000000000000000, 0.000000000000000000, 0.000000000000000000, 0.000000000000000000, 0.000000000000000000, 0.000000000000000000 ) ;
#312 = DIRECTION ( 'NONE',  ( -1.000000000000000000, -1.228390007958548453E-16, 0.000000000000000000 ) ) ;
#313 = CARTESIAN_POINT ( 'NONE',  ( 6.123233995736766036E-17, 0.5000000000000001110, 0.4999999999999999445 ) ) ;
#314 = DIRECTION ( 'NONE',  ( -1.000000000000000000, 0.000000000000000000, 0.000000000000000000 ) ) ;
#315 = DIRECTION ( 'NONE',  ( -1.228390007958548453E-16, 1.000000000000000000, -0.000000000000000000 ) ) ;
#316 = CARTESIAN_POINT ( 'NONE',  ( -6.123233995736766036E-17, 0.5000000000000000000, 0.000000000000000000 ) ) ;
#317 =( GEOMETRIC_REPRESENTATION_CONTEXT ( 3 ) GLOBAL_UNCERTAINTY_ASSIGNED_CONTEXT ( ( #334 ) ) GLOBAL_UNIT_ASSIGNED_CONTEXT ( ( #307, #304, #204 ) ) REPRESENTATION_CONTEXT ( 'NONE', 'WORKASPACE' ) );
#318 = DIRECTION ( 'NONE',  ( 0.000000000000000000, 0.000000000000000000, -1.000000000000000000 ) ) ;
#319 = FILL_AREA_STYLE_COLOUR ( '', #142 ) ;
#320 = SURFACE_STYLE_FILL_AREA ( #75 ) ;
#321 = AXIS2_PLACEMENT_3D ( 'NONE', #207, #286, #99 ) ;
#322 = DIRECTION ( 'NONE',  ( 1.000000000000000000, 0.000000000000000000, 0.000000000000000000 ) ) ;
#323 = EDGE_CURVE ( 'NONE', #195, #267, #5, .T. ) ;
#324 = CARTESIAN_POINT ( 'NONE',  ( 0.000000000000000000, 4.250000000000000000, 0.000000000000000000 ) ) ;
#325 = DIRECTION ( 'NONE',  ( 1.000000000000000000, 0.000000000000000000, 0.000000000000000000 ) ) ;
#326 = STYLED_ITEM ( 'NONE', ( #24 ), #119 ) ;
#327 = STYLED_ITEM ( 'NONE', ( #366 ), #358 ) ;
#328 = PRESENTATION_LAYER_ASSIGNMENT (  '', '', ( #208 ) ) ;
#329 = VERTEX_POINT ( 'NONE', #10 ) ;
#330 = SHAPE_DEFINITION_REPRESENTATION ( #161, #3 ) ;
#331 = APPLICATION_CONTEXT ( 'automotive_design' ) ;
#332 = CARTESIAN_POINT ( 'NONE',  ( -1.224646799147351975E-16, 7.000000000000000000, 0.000000000000000000 ) ) ;
#333 = EDGE_LOOP ( 'NONE', ( #230, #214 ) ) ;
#334 = UNCERTAINTY_MEASURE_WITH_UNIT (LENGTH_MEASURE( 1.000000000000000082E-05 ), #307, 'distance_accuracy_value', 'NONE');
#335 = ORIENTED_EDGE ( 'NONE', *, *, #353, .T. ) ;
#336 = DIRECTION ( 'NONE',  ( -1.228390007958548453E-16, 1.000000000000000000, -0.000000000000000000 ) ) ;
#337 = PRODUCT_RELATED_PRODUCT_CATEGORY ( 'part', '', ( #93 ) ) ;
#338 = EDGE_LOOP ( 'NONE', ( #31, #145, #344, #363 ) ) ;
#339 = SURFACE_STYLE_USAGE ( .BOTH. , #111 ) ;
#340 = PRESENTATION_STYLE_ASSIGNMENT (( #198 ) ) ;
#341 = PRESENTATION_STYLE_ASSIGNMENT (( #224 ) ) ;
#342 = EDGE_CURVE ( 'NONE', #195, #329, #108, .T. ) ;
#343 = DIRECTION ( 'NONE',  ( 0.000000000000000000, 0.000000000000000000, 1.000000000000000000 ) ) ;
#344 = ORIENTED_EDGE ( 'NONE', *, *, #158, .F. ) ;
#345 = FILL_AREA_STYLE_COLOUR ( '', #259 ) ;
#346 = CYLINDRICAL_SURFACE ( 'NONE', #188, 0.4999999999999997224 ) ;
#347 = DIRECTION ( 'NONE',  ( 0.000000000000000000, 0.000000000000000000, 1.000000000000000000 ) ) ;
#348 = DIRECTION ( 'NONE',  ( -0.000000000000000000, -1.000000000000000000, -0.000000000000000000 ) ) ;
#349 = MECHANICAL_DESIGN_GEOMETRIC_PRESENTATION_REPRESENTATION (  '', ( #355 ), #19 ) ;
#350 = AXIS2_PLACEMENT_3D ( 'NONE', #17, #122, #48 ) ;
#351 =( NAMED_UNIT ( * ) PLANE_ANGLE_UNIT ( ) SI_UNIT ( $, .RADIAN. ) );
#352 = DIRECTION ( 'NONE',  ( 0.000000000000000000, 0.000000000000000000, -1.000000000000000000 ) ) ;
#353 = EDGE_CURVE ( 'NONE', #361, #276, #283, .T. ) ;
#354 = FILL_AREA_STYLE ('',( #319 ) ) ;
#355 = STYLED_ITEM ( 'NONE', ( #340 ), #51 ) ;
#356 = EDGE_CURVE ( 'NONE', #25, #329, #221, .T. ) ;
#357 = AXIS2_PLACEMENT_3D ( 'NONE', #157, #234, #318 ) ;
#358 = MANIFOLD_SOLID_BREP ( 'Revolve - Cutting Edge', #282 ) ;
#359 = LINE ( 'NONE', #133, #268 ) ;
#360 = ADVANCED_FACE ( 'NONE', ( #32 ), #261, .F. ) ;
#361 = VERTEX_POINT ( 'NONE', #271 ) ;
#362 = MECHANICAL_DESIGN_GEOMETRIC_PRESENTATION_REPRESENTATION (  '', ( #327 ), #14 ) ;
#363 = ORIENTED_EDGE ( 'NONE', *, *, #169, .F. ) ;
#364 = MANIFOLD_SOLID_BREP ( 'Revolve - Tool Body (Straight Shanked)', #300 ) ;
#365 = ORIENTED_EDGE ( 'NONE', *, *, #155, .T. ) ;
#366 = PRESENTATION_STYLE_ASSIGNMENT (( #189 ) ) ;
#367 = ADVANCED_FACE ( 'NONE', ( #209 ), #285, .T. ) ;
#368 = DIRECTION ( 'NONE',  ( -1.228390007958548453E-16, 1.000000000000000000, -0.000000000000000000 ) ) ;
#369 = SURFACE_SIDE_STYLE ('',( #179 ) ) ;
#370 = COLOUR_RGB ( '',1.000000000000000000, 0.000000000000000000, 0.000000000000000000 ) ;
#371 = SURFACE_SIDE_STYLE ('',( #120 ) ) ;
#372 = SURFACE_STYLE_FILL_AREA ( #248 ) ;
#373 =( LENGTH_UNIT ( ) NAMED_UNIT ( * ) SI_UNIT ( $, .METRE. ) );
ENDSEC;
END-ISO-10303-21;
