ISO-10303-21;
HEADER;
FILE_DESCRIPTION (( 'STEP AP214' ),
    '1' );
FILE_NAME ('03557.STEP',
    '2023-06-22T15:27:34',
    ( '' ),
    ( '' ),
    'SwSTEP 2.0',
    'SolidWorks 2023',
    '' );
FILE_SCHEMA (( 'AUTOMOTIVE_DESIGN' ));
ENDSEC;

DATA;
#1 =( NAMED_UNIT ( * ) SI_UNIT ( $, .STERADIAN. ) SOLID_ANGLE_UNIT ( ) );
#2 = CARTESIAN_POINT ( 'NONE',  ( 0.000000000000000000, 0.7499999999999998890, 0.000000000000000000 ) ) ;
#3 = DIRECTION ( 'NONE',  ( 1.632862398863137774E-16, 1.000000000000000000, -0.000000000000000000 ) ) ;
#4 = DIRECTION ( 'NONE',  ( 1.632862398863137774E-16, 1.000000000000000000, -0.000000000000000000 ) ) ;
#5 = CIRCLE ( 'NONE', #23, 0.3125000000000000000 ) ;
#6 = SURFACE_SIDE_STYLE ('',( #112 ) ) ;
#7 =( NAMED_UNIT ( * ) SI_UNIT ( $, .STERADIAN. ) SOLID_ANGLE_UNIT ( ) );
#8 = EDGE_CURVE ( 'NONE', #290, #189, #228, .T. ) ;
#9 = EDGE_LOOP ( 'NONE', ( #296, #207 ) ) ;
#10 = UNCERTAINTY_MEASURE_WITH_UNIT (LENGTH_MEASURE( 1.000000000000000082E-05 ), #48, 'distance_accuracy_value', 'NONE');
#11 = DIRECTION ( 'NONE',  ( 1.000000000000000000, -1.632862398863137774E-16, 0.000000000000000000 ) ) ;
#12 = CARTESIAN_POINT ( 'NONE',  ( -0.3124999999999995559, 3.000000000000000444, 0.000000000000000000 ) ) ;
#13 = COLOUR_RGB ( '',1.000000000000000000, 0.000000000000000000, 0.000000000000000000 ) ;
#14 = AXIS2_PLACEMENT_3D ( 'NONE', #2, #201, #288 ) ;
#15 =( NAMED_UNIT ( * ) PLANE_ANGLE_UNIT ( ) SI_UNIT ( $, .RADIAN. ) );
#16 = LINE ( 'NONE', #259, #229 ) ;
#17 = CARTESIAN_POINT ( 'NONE',  ( 3.673940397442060361E-16, 3.000000000000000444, 0.000000000000000000 ) ) ;
#18 = EDGE_LOOP ( 'NONE', ( #212, #137 ) ) ;
#19 = VECTOR ( 'NONE', #153, 39.37007874015748143 ) ;
#20 = DIMENSIONAL_EXPONENTS ( 1.000000000000000000, 0.000000000000000000, 0.000000000000000000, 0.000000000000000000, 0.000000000000000000, 0.000000000000000000, 0.000000000000000000 ) ;
#21 = EDGE_CURVE ( 'NONE', #280, #65, #60, .T. ) ;
#22 = PLANE ( 'NONE',  #197 ) ;
#23 = AXIS2_PLACEMENT_3D ( 'NONE', #181, #3, #140 ) ;
#24 = SURFACE_STYLE_FILL_AREA ( #238 ) ;
#25 =( LENGTH_UNIT ( ) NAMED_UNIT ( * ) SI_UNIT ( $, .METRE. ) );
#26 = EDGE_LOOP ( 'NONE', ( #35, #156, #191, #73 ) ) ;
#27 = EDGE_LOOP ( 'NONE', ( #226, #141 ) ) ;
#28 = VECTOR ( 'NONE', #162, 39.37007874015748143 ) ;
#29 = FILL_AREA_STYLE ('',( #247 ) ) ;
#30 = DIRECTION ( 'NONE',  ( 1.000000000000000000, 0.000000000000000000, 0.000000000000000000 ) ) ;
#31 = SURFACE_SIDE_STYLE ('',( #131 ) ) ;
#32 = DIRECTION ( 'NONE',  ( 0.000000000000000000, 0.000000000000000000, -1.000000000000000000 ) ) ;
#33 = AXIS2_PLACEMENT_3D ( 'NONE', #147, #49, #79 ) ;
#34 = SURFACE_STYLE_FILL_AREA ( #252 ) ;
#35 = ORIENTED_EDGE ( 'NONE', *, *, #198, .T. ) ;
#36 =( NAMED_UNIT ( * ) PLANE_ANGLE_UNIT ( ) SI_UNIT ( $, .RADIAN. ) );
#37 = FACE_OUTER_BOUND ( 'NONE', #18, .T. ) ;
#38 = CARTESIAN_POINT ( 'NONE',  ( 0.3125000000000002220, 3.000000000000000444, 3.827021247335477078E-17 ) ) ;
#39 = EDGE_CURVE ( 'NONE', #71, #280, #16, .T. ) ;
#40 = AXIS2_PLACEMENT_3D ( 'NONE', #58, #152, #157 ) ;
#41 = EDGE_LOOP ( 'NONE', ( #182, #301 ) ) ;
#42 = DIRECTION ( 'NONE',  ( -1.632862398863137774E-16, -1.000000000000000000, 0.000000000000000000 ) ) ;
#43 = ORIENTED_EDGE ( 'NONE', *, *, #294, .T. ) ;
#44 =( NAMED_UNIT ( * ) SI_UNIT ( $, .STERADIAN. ) SOLID_ANGLE_UNIT ( ) );
#45 = UNCERTAINTY_MEASURE_WITH_UNIT (LENGTH_MEASURE( 1.000000000000000082E-05 ), #100, 'distance_accuracy_value', 'NONE');
#46 =( NAMED_UNIT ( * ) PLANE_ANGLE_UNIT ( ) SI_UNIT ( $, .RADIAN. ) );
#47 = CYLINDRICAL_SURFACE ( 'NONE', #33, 0.3124999999999998890 ) ;
#48 =( CONVERSION_BASED_UNIT ( 'INCH', #63 ) LENGTH_UNIT ( ) NAMED_UNIT ( #275 ) );
#49 = DIRECTION ( 'NONE',  ( 1.632862398863137774E-16, 1.000000000000000000, -0.000000000000000000 ) ) ;
#50 =( NAMED_UNIT ( * ) PLANE_ANGLE_UNIT ( ) SI_UNIT ( $, .RADIAN. ) );
#51 = DIRECTION ( 'NONE',  ( -0.000000000000000000, -1.000000000000000000, -0.000000000000000000 ) ) ;
#52 = ADVANCED_FACE ( 'NONE', ( #232 ), #47, .T. ) ;
#53 = COLOUR_RGB ( '',0.7921568627450980005, 0.8196078431372548767, 0.9333333333333333481 ) ;
#54 = MECHANICAL_DESIGN_GEOMETRIC_PRESENTATION_REPRESENTATION (  '', ( #161 ), #77 ) ;
#55 = SURFACE_STYLE_FILL_AREA ( #180 ) ;
#56 = PLANE ( 'NONE',  #40 ) ;
#57 = CARTESIAN_POINT ( 'NONE',  ( 0.3125000000000000000, 3.000000000000000444, 3.827021247335477694E-17 ) ) ;
#58 = CARTESIAN_POINT ( 'NONE',  ( 0.000000000000000000, 0.000000000000000000, 0.000000000000000000 ) ) ;
#59 = CARTESIAN_POINT ( 'NONE',  ( 0.000000000000000000, 0.000000000000000000, 0.000000000000000000 ) ) ;
#60 = CIRCLE ( 'NONE', #81, 0.3125000000000000000 ) ;
#61 =( LENGTH_UNIT ( ) NAMED_UNIT ( * ) SI_UNIT ( $, .METRE. ) );
#62 = DIRECTION ( 'NONE',  ( -1.000000000000000000, 1.632862398863137774E-16, 0.000000000000000000 ) ) ;
#63 = LENGTH_MEASURE_WITH_UNIT ( LENGTH_MEASURE( 0.02539999999999999897 ), #148 );
#64 = PLANE ( 'NONE',  #303 ) ;
#65 = VERTEX_POINT ( 'NONE', #127 ) ;
#66 = COLOUR_RGB ( '',1.000000000000000000, 0.000000000000000000, 0.000000000000000000 ) ;
#67 = AXIS2_PLACEMENT_3D ( 'NONE', #159, #42, #11 ) ;
#68 = CYLINDRICAL_SURFACE ( 'NONE', #98, 0.3125000000000000000 ) ;
#69 = FACE_OUTER_BOUND ( 'NONE', #93, .T. ) ;
#70 = ORIENTED_EDGE ( 'NONE', *, *, #217, .F. ) ;
#71 = VERTEX_POINT ( 'NONE', #306 ) ;
#72 = CIRCLE ( 'NONE', #243, 0.3124999999999996669 ) ;
#73 = ORIENTED_EDGE ( 'NONE', *, *, #8, .F. ) ;
#74 = EDGE_CURVE ( 'NONE', #189, #188, #144, .T. ) ;
#75 = ADVANCED_BREP_SHAPE_REPRESENTATION ( '03557', ( #300, #99, #236 ), #178 ) ;
#76 = PRODUCT_RELATED_PRODUCT_CATEGORY ( 'part', '', ( #264 ) ) ;
#77 =( GEOMETRIC_REPRESENTATION_CONTEXT ( 3 ) GLOBAL_UNCERTAINTY_ASSIGNED_CONTEXT ( ( #271 ) ) GLOBAL_UNIT_ASSIGNED_CONTEXT ( ( #134, #36, #116 ) ) REPRESENTATION_CONTEXT ( 'NONE', 'WORKASPACE' ) );
#78 = FILL_AREA_STYLE ('',( #218 ) ) ;
#79 = DIRECTION ( 'NONE',  ( -1.000000000000000000, 0.000000000000000000, 0.000000000000000000 ) ) ;
#80 = APPLICATION_PROTOCOL_DEFINITION ( 'draft international standard', 'automotive_design', 1998, #96 ) ;
#81 = AXIS2_PLACEMENT_3D ( 'NONE', #166, #169, #230 ) ;
#82 = FACE_OUTER_BOUND ( 'NONE', #27, .T. ) ;
#83 = DIRECTION ( 'NONE',  ( -0.000000000000000000, -1.000000000000000000, -0.000000000000000000 ) ) ;
#84 = CARTESIAN_POINT ( 'NONE',  ( -0.3124999999999993339, 3.000000000000000444, 0.000000000000000000 ) ) ;
#85 = STYLED_ITEM ( 'NONE', ( #250 ), #155 ) ;
#86 = LENGTH_MEASURE_WITH_UNIT ( LENGTH_MEASURE( 0.02539999999999999897 ), #61 );
#87 = CARTESIAN_POINT ( 'NONE',  ( 4.165999396282938712E-33, 0.7499999999999998890, 0.000000000000000000 ) ) ;
#88 = UNCERTAINTY_MEASURE_WITH_UNIT (LENGTH_MEASURE( 1.000000000000000082E-05 ), #89, 'distance_accuracy_value', 'NONE');
#89 =( CONVERSION_BASED_UNIT ( 'INCH', #186 ) LENGTH_UNIT ( ) NAMED_UNIT ( #119 ) );
#90 = FILL_AREA_STYLE_COLOUR ( '', #187 ) ;
#91 = PRESENTATION_LAYER_ASSIGNMENT (  '', '', ( #130 ) ) ;
#92 =( CONVERSION_BASED_UNIT ( 'INCH', #278 ) LENGTH_UNIT ( ) NAMED_UNIT ( #20 ) );
#93 = EDGE_LOOP ( 'NONE', ( #70, #267, #202, #163 ) ) ;
#94 = VERTEX_POINT ( 'NONE', #143 ) ;
#95 = MECHANICAL_DESIGN_GEOMETRIC_PRESENTATION_REPRESENTATION (  '', ( #235 ), #115 ) ;
#96 = APPLICATION_CONTEXT ( 'automotive_design' ) ;
#97 =( NAMED_UNIT ( * ) SI_UNIT ( $, .STERADIAN. ) SOLID_ANGLE_UNIT ( ) );
#98 = AXIS2_PLACEMENT_3D ( 'NONE', #284, #51, #105 ) ;
#99 = MANIFOLD_SOLID_BREP ( 'Revolve - Tool Body (Straight Shanked)', #177 ) ;
#100 =( CONVERSION_BASED_UNIT ( 'INCH', #224 ) LENGTH_UNIT ( ) NAMED_UNIT ( #282 ) );
#101 = CARTESIAN_POINT ( 'NONE',  ( 0.000000000000000000, 0.000000000000000000, -0.3125000000000000000 ) ) ;
#102 = MECHANICAL_DESIGN_GEOMETRIC_PRESENTATION_REPRESENTATION (  '', ( #286 ), #268 ) ;
#103 = DIRECTION ( 'NONE',  ( 0.000000000000000000, 0.000000000000000000, -1.000000000000000000 ) ) ;
#104 = PRODUCT_DEFINITION_FORMATION_WITH_SPECIFIED_SOURCE ( 'ANY', '', #264, .NOT_KNOWN. ) ;
#105 = DIRECTION ( 'NONE',  ( 0.000000000000000000, 0.000000000000000000, -1.000000000000000000 ) ) ;
#106 = SURFACE_SIDE_STYLE ('',( #176 ) ) ;
#107 = FILL_AREA_STYLE_COLOUR ( '', #66 ) ;
#108 = ADVANCED_FACE ( 'NONE', ( #265 ), #22, .F. ) ;
#109 = SURFACE_SIDE_STYLE ('',( #55 ) ) ;
#110 = AXIS2_PLACEMENT_3D ( 'NONE', #285, #4, #270 ) ;
#111 = FILL_AREA_STYLE_COLOUR ( '', #13 ) ;
#112 = SURFACE_STYLE_FILL_AREA ( #293 ) ;
#113 = ORIENTED_EDGE ( 'NONE', *, *, #291, .T. ) ;
#114 = UNCERTAINTY_MEASURE_WITH_UNIT (LENGTH_MEASURE( 1.000000000000000082E-05 ), #149, 'distance_accuracy_value', 'NONE');
#115 =( GEOMETRIC_REPRESENTATION_CONTEXT ( 3 ) GLOBAL_UNCERTAINTY_ASSIGNED_CONTEXT ( ( #194 ) ) GLOBAL_UNIT_ASSIGNED_CONTEXT ( ( #92, #15, #44 ) ) REPRESENTATION_CONTEXT ( 'NONE', 'WORKASPACE' ) );
#116 =( NAMED_UNIT ( * ) SI_UNIT ( $, .STERADIAN. ) SOLID_ANGLE_UNIT ( ) );
#117 = CYLINDRICAL_SURFACE ( 'NONE', #219, 0.3124999999999998890 ) ;
#118 = EDGE_LOOP ( 'NONE', ( #43, #261, #256, #221 ) ) ;
#119 = DIMENSIONAL_EXPONENTS ( 1.000000000000000000, 0.000000000000000000, 0.000000000000000000, 0.000000000000000000, 0.000000000000000000, 0.000000000000000000, 0.000000000000000000 ) ;
#120 = LINE ( 'NONE', #38, #28 ) ;
#121 = EDGE_CURVE ( 'NONE', #71, #210, #216, .T. ) ;
#122 = DIMENSIONAL_EXPONENTS ( 1.000000000000000000, 0.000000000000000000, 0.000000000000000000, 0.000000000000000000, 0.000000000000000000, 0.000000000000000000, 0.000000000000000000 ) ;
#123 = PRESENTATION_LAYER_ASSIGNMENT (  '', '', ( #85 ) ) ;
#124 = PRODUCT_DEFINITION_CONTEXT ( 'detailed design', #195, 'design' ) ;
#125 =( LENGTH_UNIT ( ) NAMED_UNIT ( * ) SI_UNIT ( $, .METRE. ) );
#126 = SURFACE_SIDE_STYLE ('',( #24 ) ) ;
#127 = CARTESIAN_POINT ( 'NONE',  ( 0.000000000000000000, 0.000000000000000000, -0.3125000000000000000 ) ) ;
#128 = CARTESIAN_POINT ( 'NONE',  ( 3.827021247335478926E-17, 0.000000000000000000, 0.3125000000000000000 ) ) ;
#129 = EDGE_CURVE ( 'NONE', #94, #290, #295, .T. ) ;
#130 = STYLED_ITEM ( 'NONE', ( #185 ), #99 ) ;
#131 = SURFACE_STYLE_FILL_AREA ( #29 ) ;
#132 =( CONVERSION_BASED_UNIT ( 'INCH', #242 ) LENGTH_UNIT ( ) NAMED_UNIT ( #262 ) );
#133 = SURFACE_STYLE_USAGE ( .BOTH. , #31 ) ;
#134 =( CONVERSION_BASED_UNIT ( 'INCH', #86 ) LENGTH_UNIT ( ) NAMED_UNIT ( #122 ) );
#135 = CLOSED_SHELL ( 'NONE', ( #155, #233, #249, #299 ) ) ;
#136 = PRODUCT_CONTEXT ( 'NONE', #96, 'mechanical' ) ;
#137 = ORIENTED_EDGE ( 'NONE', *, *, #121, .F. ) ;
#138 = PRESENTATION_STYLE_ASSIGNMENT (( #298 ) ) ;
#139 = DIRECTION ( 'NONE',  ( -0.000000000000000000, -1.000000000000000000, -0.000000000000000000 ) ) ;
#140 = DIRECTION ( 'NONE',  ( -1.000000000000000000, 0.000000000000000000, 0.000000000000000000 ) ) ;
#141 = ORIENTED_EDGE ( 'NONE', *, *, #21, .T. ) ;
#142 = MECHANICAL_DESIGN_GEOMETRIC_PRESENTATION_REPRESENTATION (  '', ( #130 ), #200 ) ;
#143 = CARTESIAN_POINT ( 'NONE',  ( 0.3125000000000000000, 0.7499999999999998890, 3.827021247335477694E-17 ) ) ;
#144 = CIRCLE ( 'NONE', #258, 0.3124999999999996669 ) ;
#145 = FILL_AREA_STYLE_COLOUR ( '', #193 ) ;
#146 = MECHANICAL_DESIGN_GEOMETRIC_PRESENTATION_REPRESENTATION (  '', ( #172 ), #184 ) ;
#147 = CARTESIAN_POINT ( 'NONE',  ( 3.673940397442060361E-16, 3.000000000000000444, 0.000000000000000000 ) ) ;
#148 =( LENGTH_UNIT ( ) NAMED_UNIT ( * ) SI_UNIT ( $, .METRE. ) );
#149 =( CONVERSION_BASED_UNIT ( 'INCH', #283 ) LENGTH_UNIT ( ) NAMED_UNIT ( #302 ) );
#150 =( NAMED_UNIT ( * ) SI_UNIT ( $, .STERADIAN. ) SOLID_ANGLE_UNIT ( ) );
#151 = FACE_OUTER_BOUND ( 'NONE', #118, .T. ) ;
#152 = DIRECTION ( 'NONE',  ( 0.000000000000000000, -1.000000000000000000, -0.000000000000000000 ) ) ;
#153 = DIRECTION ( 'NONE',  ( -0.000000000000000000, -1.000000000000000000, -0.000000000000000000 ) ) ;
#154 = CARTESIAN_POINT ( 'NONE',  ( 0.000000000000000000, 0.7499999999999998890, 0.000000000000000000 ) ) ;
#155 = ADVANCED_FACE ( 'NONE', ( #151 ), #248, .T. ) ;
#156 = ORIENTED_EDGE ( 'NONE', *, *, #217, .T. ) ;
#157 = DIRECTION ( 'NONE',  ( 0.000000000000000000, 0.000000000000000000, -1.000000000000000000 ) ) ;
#158 = SURFACE_STYLE_USAGE ( .BOTH. , #109 ) ;
#159 = CARTESIAN_POINT ( 'NONE',  ( 0.3125000000000000000, 3.000000000000000444, 0.000000000000000000 ) ) ;
#160 = CIRCLE ( 'NONE', #171, 0.3125000000000000000 ) ;
#161 = STYLED_ITEM ( 'NONE', ( #269 ), #300 ) ;
#162 = DIRECTION ( 'NONE',  ( 1.632862398863137774E-16, 1.000000000000000000, -0.000000000000000000 ) ) ;
#163 = ORIENTED_EDGE ( 'NONE', *, *, #213, .F. ) ;
#164 = UNCERTAINTY_MEASURE_WITH_UNIT (LENGTH_MEASURE( 1.000000000000000082E-05 ), #132, 'distance_accuracy_value', 'NONE');
#165 = FACE_OUTER_BOUND ( 'NONE', #215, .T. ) ;
#166 = CARTESIAN_POINT ( 'NONE',  ( 0.000000000000000000, 0.000000000000000000, 0.000000000000000000 ) ) ;
#167 = PRODUCT_DEFINITION_SHAPE ( 'NONE', 'NONE',  #308 ) ;
#168 = DIRECTION ( 'NONE',  ( -1.000000000000000000, 0.000000000000000000, 0.000000000000000000 ) ) ;
#169 = DIRECTION ( 'NONE',  ( -0.000000000000000000, -1.000000000000000000, -0.000000000000000000 ) ) ;
#170 = EDGE_CURVE ( 'NONE', #65, #280, #160, .T. ) ;
#171 = AXIS2_PLACEMENT_3D ( 'NONE', #289, #83, #266 ) ;
#172 = STYLED_ITEM ( 'NONE', ( #304 ), #299 ) ;
#173 = DIRECTION ( 'NONE',  ( 0.000000000000000000, -0.000000000000000000, 1.000000000000000000 ) ) ;
#174 =( GEOMETRIC_REPRESENTATION_CONTEXT ( 3 ) GLOBAL_UNCERTAINTY_ASSIGNED_CONTEXT ( ( #45 ) ) GLOBAL_UNIT_ASSIGNED_CONTEXT ( ( #100, #204, #1 ) ) REPRESENTATION_CONTEXT ( 'NONE', 'WORKASPACE' ) );
#175 = PRESENTATION_LAYER_ASSIGNMENT (  '', '', ( #161 ) ) ;
#176 = SURFACE_STYLE_FILL_AREA ( #78 ) ;
#177 = CLOSED_SHELL ( 'NONE', ( #52, #108, #199, #241 ) ) ;
#178 =( GEOMETRIC_REPRESENTATION_CONTEXT ( 3 ) GLOBAL_UNCERTAINTY_ASSIGNED_CONTEXT ( ( #10 ) ) GLOBAL_UNIT_ASSIGNED_CONTEXT ( ( #48, #50, #305 ) ) REPRESENTATION_CONTEXT ( 'NONE', 'WORKASPACE' ) );
#179 =( NAMED_UNIT ( * ) PLANE_ANGLE_UNIT ( ) SI_UNIT ( $, .RADIAN. ) );
#180 = FILL_AREA_STYLE ('',( #107 ) ) ;
#181 = CARTESIAN_POINT ( 'NONE',  ( 0.000000000000000000, 0.7499999999999998890, 0.000000000000000000 ) ) ;
#182 = ORIENTED_EDGE ( 'NONE', *, *, #74, .T. ) ;
#183 = DIRECTION ( 'NONE',  ( -0.000000000000000000, -1.000000000000000000, -0.000000000000000000 ) ) ;
#184 =( GEOMETRIC_REPRESENTATION_CONTEXT ( 3 ) GLOBAL_UNCERTAINTY_ASSIGNED_CONTEXT ( ( #114 ) ) GLOBAL_UNIT_ASSIGNED_CONTEXT ( ( #149, #46, #97 ) ) REPRESENTATION_CONTEXT ( 'NONE', 'WORKASPACE' ) );
#185 = PRESENTATION_STYLE_ASSIGNMENT (( #245 ) ) ;
#186 = LENGTH_MEASURE_WITH_UNIT ( LENGTH_MEASURE( 0.02539999999999999897 ), #257 );
#187 = COLOUR_RGB ( '',1.000000000000000000, 0.000000000000000000, 0.000000000000000000 ) ;
#188 = VERTEX_POINT ( 'NONE', #57 ) ;
#189 = VERTEX_POINT ( 'NONE', #84 ) ;
#190 = PRESENTATION_STYLE_ASSIGNMENT (( #255 ) ) ;
#191 = ORIENTED_EDGE ( 'NONE', *, *, #74, .F. ) ;
#192 = PRESENTATION_LAYER_ASSIGNMENT (  '', '', ( #235 ) ) ;
#193 = COLOUR_RGB ( '',1.000000000000000000, 0.000000000000000000, 0.000000000000000000 ) ;
#194 = UNCERTAINTY_MEASURE_WITH_UNIT (LENGTH_MEASURE( 1.000000000000000082E-05 ), #92, 'distance_accuracy_value', 'NONE');
#195 = APPLICATION_CONTEXT ( 'automotive_design' ) ;
#196 = CARTESIAN_POINT ( 'NONE',  ( 3.673940397442060361E-16, 3.000000000000000444, 0.000000000000000000 ) ) ;
#197 = AXIS2_PLACEMENT_3D ( 'NONE', #87, #307, #62 ) ;
#198 = EDGE_CURVE ( 'NONE', #290, #94, #5, .T. ) ;
#199 = ADVANCED_FACE ( 'NONE', ( #69 ), #117, .T. ) ;
#200 =( GEOMETRIC_REPRESENTATION_CONTEXT ( 3 ) GLOBAL_UNCERTAINTY_ASSIGNED_CONTEXT ( ( #164 ) ) GLOBAL_UNIT_ASSIGNED_CONTEXT ( ( #132, #179, #150 ) ) REPRESENTATION_CONTEXT ( 'NONE', 'WORKASPACE' ) );
#201 = DIRECTION ( 'NONE',  ( -0.000000000000000000, -1.000000000000000000, -0.000000000000000000 ) ) ;
#202 = ORIENTED_EDGE ( 'NONE', *, *, #8, .T. ) ;
#203 = CARTESIAN_POINT ( 'NONE',  ( 0.000000000000000000, 0.000000000000000000, 0.000000000000000000 ) ) ;
#204 =( NAMED_UNIT ( * ) PLANE_ANGLE_UNIT ( ) SI_UNIT ( $, .RADIAN. ) );
#205 = AXIS2_PLACEMENT_3D ( 'NONE', #203, #223, #103 ) ;
#206 = DIRECTION ( 'NONE',  ( 1.632862398863137774E-16, 1.000000000000000000, -0.000000000000000000 ) ) ;
#207 = ORIENTED_EDGE ( 'NONE', *, *, #129, .F. ) ;
#208 = APPLICATION_PROTOCOL_DEFINITION ( 'draft international standard', 'automotive_design', 1998, #195 ) ;
#209 =( LENGTH_UNIT ( ) NAMED_UNIT ( * ) SI_UNIT ( $, .METRE. ) );
#210 = VERTEX_POINT ( 'NONE', #254 ) ;
#211 = FACE_OUTER_BOUND ( 'NONE', #41, .T. ) ;
#212 = ORIENTED_EDGE ( 'NONE', *, *, #294, .F. ) ;
#213 = EDGE_CURVE ( 'NONE', #188, #189, #72, .T. ) ;
#214 =( NAMED_UNIT ( * ) PLANE_ANGLE_UNIT ( ) SI_UNIT ( $, .RADIAN. ) );
#215 = EDGE_LOOP ( 'NONE', ( #253, #246, #113, #274 ) ) ;
#216 = CIRCLE ( 'NONE', #251, 0.3125000000000000000 ) ;
#217 = EDGE_CURVE ( 'NONE', #94, #188, #120, .T. ) ;
#218 = FILL_AREA_STYLE_COLOUR ( '', #53 ) ;
#219 = AXIS2_PLACEMENT_3D ( 'NONE', #17, #206, #168 ) ;
#220 = SURFACE_STYLE_USAGE ( .BOTH. , #126 ) ;
#221 = ORIENTED_EDGE ( 'NONE', *, *, #291, .F. ) ;
#222 = LINE ( 'NONE', #101, #19 ) ;
#223 = DIRECTION ( 'NONE',  ( -0.000000000000000000, -1.000000000000000000, -0.000000000000000000 ) ) ;
#224 = LENGTH_MEASURE_WITH_UNIT ( LENGTH_MEASURE( 0.02539999999999999897 ), #25 );
#225 = SHAPE_DEFINITION_REPRESENTATION ( #167, #75 ) ;
#226 = ORIENTED_EDGE ( 'NONE', *, *, #170, .T. ) ;
#227 = PLANE ( 'NONE',  #67 ) ;
#228 = LINE ( 'NONE', #12, #292 ) ;
#229 = VECTOR ( 'NONE', #139, 39.37007874015748143 ) ;
#230 = DIRECTION ( 'NONE',  ( 0.000000000000000000, 0.000000000000000000, -1.000000000000000000 ) ) ;
#231 = DIRECTION ( 'NONE',  ( 1.632862398863137774E-16, 1.000000000000000000, -0.000000000000000000 ) ) ;
#232 = FACE_OUTER_BOUND ( 'NONE', #26, .T. ) ;
#233 = ADVANCED_FACE ( 'NONE', ( #37 ), #64, .T. ) ;
#234 = DIRECTION ( 'NONE',  ( -1.000000000000000000, 0.000000000000000000, 0.000000000000000000 ) ) ;
#235 = STYLED_ITEM ( 'NONE', ( #190 ), #249 ) ;
#236 = AXIS2_PLACEMENT_3D ( 'NONE', #59, #244, #30 ) ;
#237 = PRESENTATION_LAYER_ASSIGNMENT (  '', '', ( #286 ) ) ;
#238 = FILL_AREA_STYLE ('',( #145 ) ) ;
#239 = CARTESIAN_POINT ( 'NONE',  ( -0.3125000000000000000, 0.7499999999999998890, 0.000000000000000000 ) ) ;
#240 =( LENGTH_UNIT ( ) NAMED_UNIT ( * ) SI_UNIT ( $, .METRE. ) );
#241 = ADVANCED_FACE ( 'NONE', ( #211 ), #227, .F. ) ;
#242 = LENGTH_MEASURE_WITH_UNIT ( LENGTH_MEASURE( 0.02539999999999999897 ), #240 );
#243 = AXIS2_PLACEMENT_3D ( 'NONE', #272, #231, #276 ) ;
#244 = DIRECTION ( 'NONE',  ( 0.000000000000000000, 0.000000000000000000, 1.000000000000000000 ) ) ;
#245 = SURFACE_STYLE_USAGE ( .BOTH. , #106 ) ;
#246 = ORIENTED_EDGE ( 'NONE', *, *, #121, .T. ) ;
#247 = FILL_AREA_STYLE_COLOUR ( '', #260 ) ;
#248 = CYLINDRICAL_SURFACE ( 'NONE', #205, 0.3125000000000000000 ) ;
#249 = ADVANCED_FACE ( 'NONE', ( #165 ), #68, .T. ) ;
#250 = PRESENTATION_STYLE_ASSIGNMENT (( #158 ) ) ;
#251 = AXIS2_PLACEMENT_3D ( 'NONE', #154, #183, #32 ) ;
#252 = FILL_AREA_STYLE ('',( #90 ) ) ;
#253 = ORIENTED_EDGE ( 'NONE', *, *, #39, .F. ) ;
#254 = CARTESIAN_POINT ( 'NONE',  ( 0.000000000000000000, 0.7499999999999998890, -0.3125000000000000000 ) ) ;
#255 = SURFACE_STYLE_USAGE ( .BOTH. , #297 ) ;
#256 = ORIENTED_EDGE ( 'NONE', *, *, #170, .F. ) ;
#257 =( LENGTH_UNIT ( ) NAMED_UNIT ( * ) SI_UNIT ( $, .METRE. ) );
#258 = AXIS2_PLACEMENT_3D ( 'NONE', #196, #281, #234 ) ;
#259 = CARTESIAN_POINT ( 'NONE',  ( 3.827021247335478926E-17, 0.000000000000000000, 0.3125000000000000000 ) ) ;
#260 = COLOUR_RGB ( '',0.7921568627450980005, 0.8196078431372548767, 0.9333333333333333481 ) ;
#261 = ORIENTED_EDGE ( 'NONE', *, *, #39, .T. ) ;
#262 = DIMENSIONAL_EXPONENTS ( 1.000000000000000000, 0.000000000000000000, 0.000000000000000000, 0.000000000000000000, 0.000000000000000000, 0.000000000000000000, 0.000000000000000000 ) ;
#263 = MECHANICAL_DESIGN_GEOMETRIC_PRESENTATION_REPRESENTATION (  '', ( #85 ), #174 ) ;
#264 = PRODUCT ( '03557', '03557', '', ( #136 ) ) ;
#265 = FACE_OUTER_BOUND ( 'NONE', #9, .T. ) ;
#266 = DIRECTION ( 'NONE',  ( 0.000000000000000000, 0.000000000000000000, -1.000000000000000000 ) ) ;
#267 = ORIENTED_EDGE ( 'NONE', *, *, #129, .T. ) ;
#268 =( GEOMETRIC_REPRESENTATION_CONTEXT ( 3 ) GLOBAL_UNCERTAINTY_ASSIGNED_CONTEXT ( ( #88 ) ) GLOBAL_UNIT_ASSIGNED_CONTEXT ( ( #89, #214, #7 ) ) REPRESENTATION_CONTEXT ( 'NONE', 'WORKASPACE' ) );
#269 = PRESENTATION_STYLE_ASSIGNMENT (( #133 ) ) ;
#270 = DIRECTION ( 'NONE',  ( -1.000000000000000000, 0.000000000000000000, 0.000000000000000000 ) ) ;
#271 = UNCERTAINTY_MEASURE_WITH_UNIT (LENGTH_MEASURE( 1.000000000000000082E-05 ), #134, 'distance_accuracy_value', 'NONE');
#272 = CARTESIAN_POINT ( 'NONE',  ( 3.673940397442060361E-16, 3.000000000000000444, 0.000000000000000000 ) ) ;
#273 = DIRECTION ( 'NONE',  ( 0.000000000000000000, 1.000000000000000000, 0.000000000000000000 ) ) ;
#274 = ORIENTED_EDGE ( 'NONE', *, *, #21, .F. ) ;
#275 = DIMENSIONAL_EXPONENTS ( 1.000000000000000000, 0.000000000000000000, 0.000000000000000000, 0.000000000000000000, 0.000000000000000000, 0.000000000000000000, 0.000000000000000000 ) ;
#276 = DIRECTION ( 'NONE',  ( -1.000000000000000000, 0.000000000000000000, 0.000000000000000000 ) ) ;
#277 = DIRECTION ( 'NONE',  ( 1.632862398863137774E-16, 1.000000000000000000, -0.000000000000000000 ) ) ;
#278 = LENGTH_MEASURE_WITH_UNIT ( LENGTH_MEASURE( 0.02539999999999999897 ), #209 );
#279 = CARTESIAN_POINT ( 'NONE',  ( 0.000000000000000000, 0.7499999999999998890, 0.000000000000000000 ) ) ;
#280 = VERTEX_POINT ( 'NONE', #128 ) ;
#281 = DIRECTION ( 'NONE',  ( 1.632862398863137774E-16, 1.000000000000000000, -0.000000000000000000 ) ) ;
#282 = DIMENSIONAL_EXPONENTS ( 1.000000000000000000, 0.000000000000000000, 0.000000000000000000, 0.000000000000000000, 0.000000000000000000, 0.000000000000000000, 0.000000000000000000 ) ;
#283 = LENGTH_MEASURE_WITH_UNIT ( LENGTH_MEASURE( 0.02539999999999999897 ), #125 );
#284 = CARTESIAN_POINT ( 'NONE',  ( 0.000000000000000000, 0.000000000000000000, 0.000000000000000000 ) ) ;
#285 = CARTESIAN_POINT ( 'NONE',  ( 0.000000000000000000, 0.7499999999999998890, 0.000000000000000000 ) ) ;
#286 = STYLED_ITEM ( 'NONE', ( #138 ), #233 ) ;
#287 = PRESENTATION_LAYER_ASSIGNMENT (  '', '', ( #172 ) ) ;
#288 = DIRECTION ( 'NONE',  ( 0.000000000000000000, 0.000000000000000000, -1.000000000000000000 ) ) ;
#289 = CARTESIAN_POINT ( 'NONE',  ( 0.000000000000000000, 0.000000000000000000, 0.000000000000000000 ) ) ;
#290 = VERTEX_POINT ( 'NONE', #239 ) ;
#291 = EDGE_CURVE ( 'NONE', #210, #65, #222, .T. ) ;
#292 = VECTOR ( 'NONE', #277, 39.37007874015748143 ) ;
#293 = FILL_AREA_STYLE ('',( #111 ) ) ;
#294 = EDGE_CURVE ( 'NONE', #210, #71, #309, .T. ) ;
#295 = CIRCLE ( 'NONE', #110, 0.3125000000000000000 ) ;
#296 = ORIENTED_EDGE ( 'NONE', *, *, #198, .F. ) ;
#297 = SURFACE_SIDE_STYLE ('',( #34 ) ) ;
#298 = SURFACE_STYLE_USAGE ( .BOTH. , #6 ) ;
#299 = ADVANCED_FACE ( 'NONE', ( #82 ), #56, .T. ) ;
#300 = MANIFOLD_SOLID_BREP ( 'Revolve - Cutting Edge', #135 ) ;
#301 = ORIENTED_EDGE ( 'NONE', *, *, #213, .T. ) ;
#302 = DIMENSIONAL_EXPONENTS ( 1.000000000000000000, 0.000000000000000000, 0.000000000000000000, 0.000000000000000000, 0.000000000000000000, 0.000000000000000000, 0.000000000000000000 ) ;
#303 = AXIS2_PLACEMENT_3D ( 'NONE', #279, #273, #173 ) ;
#304 = PRESENTATION_STYLE_ASSIGNMENT (( #220 ) ) ;
#305 =( NAMED_UNIT ( * ) SI_UNIT ( $, .STERADIAN. ) SOLID_ANGLE_UNIT ( ) );
#306 = CARTESIAN_POINT ( 'NONE',  ( 3.827021247335478926E-17, 0.7499999999999998890, 0.3125000000000000000 ) ) ;
#307 = DIRECTION ( 'NONE',  ( 1.632862398863137774E-16, 1.000000000000000000, -0.000000000000000000 ) ) ;
#308 = PRODUCT_DEFINITION ( 'UNKNOWN', '', #104, #124 ) ;
#309 = CIRCLE ( 'NONE', #14, 0.3125000000000000000 ) ;
ENDSEC;
END-ISO-10303-21;
