ISO-10303-21;
HEADER;
FILE_DESCRIPTION (( 'STEP AP214' ),
    '1' );
FILE_NAME ('59443.STEP',
    '2023-06-30T22:17:27',
    ( '' ),
    ( '' ),
    'SwSTEP 2.0',
    'SolidWorks 2023',
    '' );
FILE_SCHEMA (( 'AUTOMOTIVE_DESIGN' ));
ENDSEC;

DATA;
#1 =( CONVERSION_BASED_UNIT ( 'INCH', #322 ) LENGTH_UNIT ( ) NAMED_UNIT ( #247 ) );
#2 =( CONVERSION_BASED_UNIT ( 'INCH', #175 ) LENGTH_UNIT ( ) NAMED_UNIT ( #339 ) );
#3 = SURFACE_STYLE_USAGE ( .BOTH. , #281 ) ;
#4 = MECHANICAL_DESIGN_GEOMETRIC_PRESENTATION_REPRESENTATION (  '', ( #29 ), #229 ) ;
#5 = CIRCLE ( 'NONE', #225, 0.1874999999999998890 ) ;
#6 = FILL_AREA_STYLE ('',( #166 ) ) ;
#7 =( CONVERSION_BASED_UNIT ( 'INCH', #293 ) LENGTH_UNIT ( ) NAMED_UNIT ( #135 ) );
#8 = CLOSED_SHELL ( 'NONE', ( #71, #232, #241, #218, #250 ) ) ;
#9 = PRESENTATION_LAYER_ASSIGNMENT (  '', '', ( #242 ) ) ;
#10 =( LENGTH_UNIT ( ) NAMED_UNIT ( * ) SI_UNIT ( $, .METRE. ) );
#11 = DIRECTION ( 'NONE',  ( -0.000000000000000000, -1.000000000000000000, -0.000000000000000000 ) ) ;
#12 = DIRECTION ( 'NONE',  ( -1.000000000000000000, 0.000000000000000000, 0.000000000000000000 ) ) ;
#13 =( LENGTH_UNIT ( ) NAMED_UNIT ( * ) SI_UNIT ( $, .METRE. ) );
#14 = CARTESIAN_POINT ( 'NONE',  ( -1.148106374200643863E-17, 0.000000000000000000, 0.000000000000000000 ) ) ;
#15 = CLOSED_SHELL ( 'NONE', ( #33, #19, #158, #176 ) ) ;
#16 = SURFACE_STYLE_FILL_AREA ( #96 ) ;
#17 =( CONVERSION_BASED_UNIT ( 'INCH', #152 ) LENGTH_UNIT ( ) NAMED_UNIT ( #363 ) );
#18 = ORIENTED_EDGE ( 'NONE', *, *, #317, .T. ) ;
#19 = ADVANCED_FACE ( 'NONE', ( #55 ), #226, .F. ) ;
#20 = DIRECTION ( 'NONE',  ( 0.000000000000000000, 0.000000000000000000, -1.000000000000000000 ) ) ;
#21 = AXIS2_PLACEMENT_3D ( 'NONE', #51, #58, #164 ) ;
#22 = CARTESIAN_POINT ( 'NONE',  ( 1.224646799147353207E-16, 1.000000000000000000, 0.000000000000000000 ) ) ;
#23 = SURFACE_STYLE_FILL_AREA ( #187 ) ;
#24 = ORIENTED_EDGE ( 'NONE', *, *, #323, .T. ) ;
#25 = PRODUCT_DEFINITION_SHAPE ( 'NONE', 'NONE',  #92 ) ;
#26 = UNCERTAINTY_MEASURE_WITH_UNIT (LENGTH_MEASURE( 1.000000000000000082E-05 ), #102, 'distance_accuracy_value', 'NONE');
#27 = ORIENTED_EDGE ( 'NONE', *, *, #222, .T. ) ;
#28 = FACE_OUTER_BOUND ( 'NONE', #344, .T. ) ;
#29 = STYLED_ITEM ( 'NONE', ( #120 ), #172 ) ;
#30 = ORIENTED_EDGE ( 'NONE', *, *, #139, .T. ) ;
#31 = SURFACE_STYLE_USAGE ( .BOTH. , #288 ) ;
#32 =( CONVERSION_BASED_UNIT ( 'INCH', #357 ) LENGTH_UNIT ( ) NAMED_UNIT ( #189 ) );
#33 = ADVANCED_FACE ( 'NONE', ( #100 ), #52, .T. ) ;
#34 =( NAMED_UNIT ( * ) PLANE_ANGLE_UNIT ( ) SI_UNIT ( $, .RADIAN. ) );
#35 = LENGTH_MEASURE_WITH_UNIT ( LENGTH_MEASURE( 0.02539999999999999897 ), #10 );
#36 = CARTESIAN_POINT ( 'NONE',  ( 0.000000000000000000, 0.000000000000000000, -0.1874999999999999167 ) ) ;
#37 = SPHERICAL_SURFACE ( 'NONE', #245, 0.1875000000000000278 ) ;
#38 = DIRECTION ( 'NONE',  ( 0.000000000000000000, 0.000000000000000000, 1.000000000000000000 ) ) ;
#39 = CARTESIAN_POINT ( 'NONE',  ( -0.1875000000000000278, 3.000000000000000444, 0.000000000000000000 ) ) ;
#40 = FILL_AREA_STYLE_COLOUR ( '', #184 ) ;
#41 = DIRECTION ( 'NONE',  ( -0.000000000000000000, -1.000000000000000000, -0.000000000000000000 ) ) ;
#42 = DIRECTION ( 'NONE',  ( -0.000000000000000000, -1.000000000000000000, -0.000000000000000000 ) ) ;
#43 = APPLICATION_PROTOCOL_DEFINITION ( 'draft international standard', 'automotive_design', 1998, #234 ) ;
#44 = EDGE_CURVE ( 'NONE', #313, #79, #309, .T. ) ;
#45 = DIRECTION ( 'NONE',  ( 0.000000000000000000, 0.000000000000000000, -1.000000000000000000 ) ) ;
#46 = LINE ( 'NONE', #278, #78 ) ;
#47 = AXIS2_PLACEMENT_3D ( 'NONE', #53, #347, #82 ) ;
#48 = UNCERTAINTY_MEASURE_WITH_UNIT (LENGTH_MEASURE( 1.000000000000000082E-05 ), #268, 'distance_accuracy_value', 'NONE');
#49 = DIRECTION ( 'NONE',  ( -1.000000000000000000, 0.000000000000000000, 0.000000000000000000 ) ) ;
#50 = EDGE_LOOP ( 'NONE', ( #121, #27, #140, #130 ) ) ;
#51 = CARTESIAN_POINT ( 'NONE',  ( -1.224646799147353700E-16, 3.000000000000000444, 0.000000000000000000 ) ) ;
#52 = CYLINDRICAL_SURFACE ( 'NONE', #285, 0.1874999999999998890 ) ;
#53 = CARTESIAN_POINT ( 'NONE',  ( 0.000000000000000000, 1.000000000000000000, 0.000000000000000000 ) ) ;
#54 = MECHANICAL_DESIGN_GEOMETRIC_PRESENTATION_REPRESENTATION (  '', ( #242 ), #370 ) ;
#55 = FACE_OUTER_BOUND ( 'NONE', #103, .T. ) ;
#56 = SURFACE_STYLE_FILL_AREA ( #6 ) ;
#57 = FILL_AREA_STYLE_COLOUR ( '', #369 ) ;
#58 = DIRECTION ( 'NONE',  ( -1.224646799147353454E-16, 1.000000000000000000, -0.000000000000000000 ) ) ;
#59 = DIRECTION ( 'NONE',  ( -0.000000000000000000, -1.000000000000000000, -0.000000000000000000 ) ) ;
#60 =( GEOMETRIC_REPRESENTATION_CONTEXT ( 3 ) GLOBAL_UNCERTAINTY_ASSIGNED_CONTEXT ( ( #296 ) ) GLOBAL_UNIT_ASSIGNED_CONTEXT ( ( #7, #294, #334 ) ) REPRESENTATION_CONTEXT ( 'NONE', 'WORKASPACE' ) );
#61 = EDGE_CURVE ( 'NONE', #318, #306, #179, .T. ) ;
#62 = CARTESIAN_POINT ( 'NONE',  ( 0.000000000000000000, 1.000000000000000000, 0.000000000000000000 ) ) ;
#63 = CARTESIAN_POINT ( 'NONE',  ( -0.1875000000000001388, 3.000000000000000444, 0.000000000000000000 ) ) ;
#64 = CARTESIAN_POINT ( 'NONE',  ( -2.296212748401287726E-17, 0.1875000000000000278, 0.000000000000000000 ) ) ;
#65 = COLOUR_RGB ( '',0.7921568627450980005, 0.8196078431372548767, 0.9333333333333333481 ) ;
#66 = PRESENTATION_LAYER_ASSIGNMENT (  '', '', ( #98 ) ) ;
#67 = SURFACE_SIDE_STYLE ('',( #168 ) ) ;
#68 = APPLICATION_CONTEXT ( 'automotive_design' ) ;
#69 = PRESENTATION_STYLE_ASSIGNMENT (( #99 ) ) ;
#70 = PRESENTATION_LAYER_ASSIGNMENT (  '', '', ( #105 ) ) ;
#71 = ADVANCED_FACE ( 'NONE', ( #223 ), #301, .T. ) ;
#72 = EDGE_LOOP ( 'NONE', ( #367, #133 ) ) ;
#73 =( LENGTH_UNIT ( ) NAMED_UNIT ( * ) SI_UNIT ( $, .METRE. ) );
#74 = DIMENSIONAL_EXPONENTS ( 1.000000000000000000, 0.000000000000000000, 0.000000000000000000, 0.000000000000000000, 0.000000000000000000, 0.000000000000000000, 0.000000000000000000 ) ;
#75 = DIRECTION ( 'NONE',  ( -1.224646799147353454E-16, 1.000000000000000000, -0.000000000000000000 ) ) ;
#76 = SURFACE_SIDE_STYLE ('',( #23 ) ) ;
#77 = ORIENTED_EDGE ( 'NONE', *, *, #131, .F. ) ;
#78 = VECTOR ( 'NONE', #249, 39.37007874015748143 ) ;
#79 = VERTEX_POINT ( 'NONE', #157 ) ;
#80 = DIRECTION ( 'NONE',  ( -1.224646799147353454E-16, 1.000000000000000000, 0.000000000000000000 ) ) ;
#81 = ORIENTED_EDGE ( 'NONE', *, *, #233, .T. ) ;
#82 = DIRECTION ( 'NONE',  ( 0.000000000000000000, -0.000000000000000000, 1.000000000000000000 ) ) ;
#83 =( GEOMETRIC_REPRESENTATION_CONTEXT ( 3 ) GLOBAL_UNCERTAINTY_ASSIGNED_CONTEXT ( ( #191 ) ) GLOBAL_UNIT_ASSIGNED_CONTEXT ( ( #32, #150, #143 ) ) REPRESENTATION_CONTEXT ( 'NONE', 'WORKASPACE' ) );
#84 = AXIS2_PLACEMENT_3D ( 'NONE', #304, #361, #337 ) ;
#85 = CARTESIAN_POINT ( 'NONE',  ( -2.296212748401287726E-17, 0.1875000000000000278, 0.000000000000000000 ) ) ;
#86 =( NAMED_UNIT ( * ) SI_UNIT ( $, .STERADIAN. ) SOLID_ANGLE_UNIT ( ) );
#87 = CIRCLE ( 'NONE', #21, 0.1875000000000000278 ) ;
#88 = PRESENTATION_STYLE_ASSIGNMENT (( #263 ) ) ;
#89 = FILL_AREA_STYLE ('',( #40 ) ) ;
#90 = DIRECTION ( 'NONE',  ( -1.224646799147353454E-16, 1.000000000000000000, -0.000000000000000000 ) ) ;
#91 = SURFACE_STYLE_USAGE ( .BOTH. , #328 ) ;
#92 = PRODUCT_DEFINITION ( 'UNKNOWN', '', #271, #279 ) ;
#93 = PRODUCT_CONTEXT ( 'NONE', #234, 'mechanical' ) ;
#94 =( LENGTH_UNIT ( ) NAMED_UNIT ( * ) SI_UNIT ( $, .METRE. ) );
#95 = EDGE_CURVE ( 'NONE', #364, #277, #136, .T. ) ;
#96 = FILL_AREA_STYLE ('',( #273 ) ) ;
#97 = PRESENTATION_LAYER_ASSIGNMENT (  '', '', ( #262 ) ) ;
#98 = STYLED_ITEM ( 'NONE', ( #320 ), #232 ) ;
#99 = SURFACE_STYLE_USAGE ( .BOTH. , #275 ) ;
#100 = FACE_OUTER_BOUND ( 'NONE', #50, .T. ) ;
#101 = DIMENSIONAL_EXPONENTS ( 1.000000000000000000, 0.000000000000000000, 0.000000000000000000, 0.000000000000000000, 0.000000000000000000, 0.000000000000000000, 0.000000000000000000 ) ;
#102 =( CONVERSION_BASED_UNIT ( 'INCH', #366 ) LENGTH_UNIT ( ) NAMED_UNIT ( #74 ) );
#103 = EDGE_LOOP ( 'NONE', ( #216, #315 ) ) ;
#104 = ORIENTED_EDGE ( 'NONE', *, *, #289, .T. ) ;
#105 = STYLED_ITEM ( 'NONE', ( #186 ), #174 ) ;
#106 = CARTESIAN_POINT ( 'NONE',  ( 0.000000000000000000, 0.000000000000000000, 0.000000000000000000 ) ) ;
#107 = VECTOR ( 'NONE', #41, 39.37007874015748143 ) ;
#108 = VERTEX_POINT ( 'NONE', #182 ) ;
#109 = FILL_AREA_STYLE_COLOUR ( '', #292 ) ;
#110 = FACE_OUTER_BOUND ( 'NONE', #284, .T. ) ;
#111 = AXIS2_PLACEMENT_3D ( 'NONE', #227, #188, #45 ) ;
#112 = CIRCLE ( 'NONE', #332, 0.1875000000000000278 ) ;
#113 = DIRECTION ( 'NONE',  ( -0.000000000000000000, -1.000000000000000000, -0.000000000000000000 ) ) ;
#114 = CIRCLE ( 'NONE', #286, 0.1874999999999999722 ) ;
#115 = UNCERTAINTY_MEASURE_WITH_UNIT (LENGTH_MEASURE( 1.000000000000000082E-05 ), #162, 'distance_accuracy_value', 'NONE');
#116 = SURFACE_STYLE_FILL_AREA ( #207 ) ;
#117 = DIRECTION ( 'NONE',  ( 1.000000000000000000, 0.000000000000000000, -1.224646799147353207E-16 ) ) ;
#118 = DIRECTION ( 'NONE',  ( 0.000000000000000000, 0.000000000000000000, -1.000000000000000000 ) ) ;
#119 = EDGE_LOOP ( 'NONE', ( #81, #30, #134, #163 ) ) ;
#120 = PRESENTATION_STYLE_ASSIGNMENT (( #212 ) ) ;
#121 = ORIENTED_EDGE ( 'NONE', *, *, #350, .T. ) ;
#122 = MECHANICAL_DESIGN_GEOMETRIC_PRESENTATION_REPRESENTATION (  '', ( #148 ), #310 ) ;
#123 = DIRECTION ( 'NONE',  ( 0.000000000000000000, 0.000000000000000000, 1.000000000000000000 ) ) ;
#124 = FACE_OUTER_BOUND ( 'NONE', #72, .T. ) ;
#125 =( NAMED_UNIT ( * ) SI_UNIT ( $, .STERADIAN. ) SOLID_ANGLE_UNIT ( ) );
#126 = ORIENTED_EDGE ( 'NONE', *, *, #365, .F. ) ;
#127 = ADVANCED_BREP_SHAPE_REPRESENTATION ( '59443', ( #172, #174, #287 ), #60 ) ;
#128 = AXIS2_PLACEMENT_3D ( 'NONE', #326, #235, #118 ) ;
#129 = DIMENSIONAL_EXPONENTS ( 1.000000000000000000, 0.000000000000000000, 0.000000000000000000, 0.000000000000000000, 0.000000000000000000, 0.000000000000000000, 0.000000000000000000 ) ;
#130 = ORIENTED_EDGE ( 'NONE', *, *, #335, .F. ) ;
#131 = EDGE_CURVE ( 'NONE', #248, #346, #330, .T. ) ;
#132 = FACE_OUTER_BOUND ( 'NONE', #197, .T. ) ;
#133 = ORIENTED_EDGE ( 'NONE', *, *, #61, .T. ) ;
#134 = ORIENTED_EDGE ( 'NONE', *, *, #341, .F. ) ;
#135 = DIMENSIONAL_EXPONENTS ( 1.000000000000000000, 0.000000000000000000, 0.000000000000000000, 0.000000000000000000, 0.000000000000000000, 0.000000000000000000, 0.000000000000000000 ) ;
#136 = CIRCLE ( 'NONE', #259, 0.1874999999999997780 ) ;
#137 = CARTESIAN_POINT ( 'NONE',  ( -0.1874999999999996392, 1.000000000000000000, 0.000000000000000000 ) ) ;
#138 =( GEOMETRIC_REPRESENTATION_CONTEXT ( 3 ) GLOBAL_UNCERTAINTY_ASSIGNED_CONTEXT ( ( #154 ) ) GLOBAL_UNIT_ASSIGNED_CONTEXT ( ( #17, #243, #125 ) ) REPRESENTATION_CONTEXT ( 'NONE', 'WORKASPACE' ) );
#139 = EDGE_CURVE ( 'NONE', #108, #161, #193, .T. ) ;
#140 = ORIENTED_EDGE ( 'NONE', *, *, #244, .F. ) ;
#141 =( LENGTH_UNIT ( ) NAMED_UNIT ( * ) SI_UNIT ( $, .METRE. ) );
#142 =( NAMED_UNIT ( * ) SI_UNIT ( $, .STERADIAN. ) SOLID_ANGLE_UNIT ( ) );
#143 =( NAMED_UNIT ( * ) SI_UNIT ( $, .STERADIAN. ) SOLID_ANGLE_UNIT ( ) );
#144 = PRESENTATION_STYLE_ASSIGNMENT (( #3 ) ) ;
#145 = MECHANICAL_DESIGN_GEOMETRIC_PRESENTATION_REPRESENTATION (  '', ( #167 ), #237 ) ;
#146 =( NAMED_UNIT ( * ) PLANE_ANGLE_UNIT ( ) SI_UNIT ( $, .RADIAN. ) );
#147 = PRESENTATION_STYLE_ASSIGNMENT (( #91 ) ) ;
#148 = STYLED_ITEM ( 'NONE', ( #88 ), #250 ) ;
#149 = CARTESIAN_POINT ( 'NONE',  ( -2.296212748401287726E-17, 0.1875000000000000278, 0.000000000000000000 ) ) ;
#150 =( NAMED_UNIT ( * ) PLANE_ANGLE_UNIT ( ) SI_UNIT ( $, .RADIAN. ) );
#151 = VERTEX_POINT ( 'NONE', #269 ) ;
#152 = LENGTH_MEASURE_WITH_UNIT ( LENGTH_MEASURE( 0.02539999999999999897 ), #94 );
#153 = AXIS2_PLACEMENT_3D ( 'NONE', #321, #333, #355 ) ;
#154 = UNCERTAINTY_MEASURE_WITH_UNIT (LENGTH_MEASURE( 1.000000000000000082E-05 ), #17, 'distance_accuracy_value', 'NONE');
#155 = DIRECTION ( 'NONE',  ( 1.000000000000000000, 0.000000000000000000, 0.000000000000000000 ) ) ;
#156 = CARTESIAN_POINT ( 'NONE',  ( 0.000000000000000000, 0.1875000000000000555, 0.000000000000000000 ) ) ;
#157 = CARTESIAN_POINT ( 'NONE',  ( 2.296212748401287109E-17, 0.1875000000000000555, 0.1874999999999999722 ) ) ;
#158 = ADVANCED_FACE ( 'NONE', ( #290 ), #239, .T. ) ;
#159 = CIRCLE ( 'NONE', #270, 0.1874999999999997780 ) ;
#160 =( NAMED_UNIT ( * ) PLANE_ANGLE_UNIT ( ) SI_UNIT ( $, .RADIAN. ) );
#161 = VERTEX_POINT ( 'NONE', #14 ) ;
#162 =( CONVERSION_BASED_UNIT ( 'INCH', #291 ) LENGTH_UNIT ( ) NAMED_UNIT ( #101 ) );
#163 = ORIENTED_EDGE ( 'NONE', *, *, #44, .T. ) ;
#164 = DIRECTION ( 'NONE',  ( -1.000000000000000000, 0.000000000000000000, 0.000000000000000000 ) ) ;
#165 = DIRECTION ( 'NONE',  ( -1.000000000000000000, 0.000000000000000000, 0.000000000000000000 ) ) ;
#166 = FILL_AREA_STYLE_COLOUR ( '', #325 ) ;
#167 = STYLED_ITEM ( 'NONE', ( #69 ), #218 ) ;
#168 = SURFACE_STYLE_FILL_AREA ( #170 ) ;
#169 =( LENGTH_UNIT ( ) NAMED_UNIT ( * ) SI_UNIT ( $, .METRE. ) );
#170 = FILL_AREA_STYLE ('',( #57 ) ) ;
#171 = CYLINDRICAL_SURFACE ( 'NONE', #298, 0.1874999999999999167 ) ;
#172 = MANIFOLD_SOLID_BREP ( 'Revolve - Cutting Edge', #8 ) ;
#173 = DIRECTION ( 'NONE',  ( -1.224646799147353454E-16, 1.000000000000000000, -0.000000000000000000 ) ) ;
#174 = MANIFOLD_SOLID_BREP ( 'Revolve - Tool Body (Straight Shanked)', #15 ) ;
#175 = LENGTH_MEASURE_WITH_UNIT ( LENGTH_MEASURE( 0.02539999999999999897 ), #141 );
#176 = ADVANCED_FACE ( 'NONE', ( #124 ), #272, .F. ) ;
#177 = LINE ( 'NONE', #36, #349 ) ;
#178 = DIRECTION ( 'NONE',  ( -1.224646799147353454E-16, 1.000000000000000000, -0.000000000000000000 ) ) ;
#179 = CIRCLE ( 'NONE', #214, 0.1875000000000000278 ) ;
#180 = MECHANICAL_DESIGN_GEOMETRIC_PRESENTATION_REPRESENTATION (  '', ( #98 ), #210 ) ;
#181 = CARTESIAN_POINT ( 'NONE',  ( 2.296212748401286185E-17, 0.000000000000000000, 0.1874999999999999167 ) ) ;
#182 = CARTESIAN_POINT ( 'NONE',  ( -0.1875000000000000278, 0.1875000000000000555, 2.296212748401287109E-17 ) ) ;
#183 = SHAPE_DEFINITION_REPRESENTATION ( #25, #127 ) ;
#184 = COLOUR_RGB ( '',1.000000000000000000, 0.000000000000000000, 0.000000000000000000 ) ;
#185 = PRESENTATION_LAYER_ASSIGNMENT (  '', '', ( #167 ) ) ;
#186 = PRESENTATION_STYLE_ASSIGNMENT (( #305 ) ) ;
#187 = FILL_AREA_STYLE ('',( #336 ) ) ;
#188 = DIRECTION ( 'NONE',  ( -0.000000000000000000, -1.000000000000000000, -0.000000000000000000 ) ) ;
#189 = DIMENSIONAL_EXPONENTS ( 1.000000000000000000, 0.000000000000000000, 0.000000000000000000, 0.000000000000000000, 0.000000000000000000, 0.000000000000000000, 0.000000000000000000 ) ;
#190 = CARTESIAN_POINT ( 'NONE',  ( 0.000000000000000000, 0.000000000000000000, 0.000000000000000000 ) ) ;
#191 = UNCERTAINTY_MEASURE_WITH_UNIT (LENGTH_MEASURE( 1.000000000000000082E-05 ), #32, 'distance_accuracy_value', 'NONE');
#192 = CARTESIAN_POINT ( 'NONE',  ( -1.224646799147353700E-16, 3.000000000000000444, 0.000000000000000000 ) ) ;
#193 = CIRCLE ( 'NONE', #224, 0.1875000000000000278 ) ;
#194 = PRODUCT ( '59443', '59443', '', ( #93 ) ) ;
#195 = AXIS2_PLACEMENT_3D ( 'NONE', #156, #42, #20 ) ;
#196 = EDGE_LOOP ( 'NONE', ( #340, #77 ) ) ;
#197 = EDGE_LOOP ( 'NONE', ( #126, #373, #24, #246, #220 ) ) ;
#198 =( NAMED_UNIT ( * ) PLANE_ANGLE_UNIT ( ) SI_UNIT ( $, .RADIAN. ) );
#199 = DIRECTION ( 'NONE',  ( -1.224646799147353454E-16, 1.000000000000000000, -0.000000000000000000 ) ) ;
#200 = PRESENTATION_LAYER_ASSIGNMENT (  '', '', ( #148 ) ) ;
#201 = CARTESIAN_POINT ( 'NONE',  ( 0.000000000000000000, 0.1875000000000000555, 0.000000000000000000 ) ) ;
#202 = CARTESIAN_POINT ( 'NONE',  ( 1.224646799147353454E-16, 1.000000000000000000, 0.000000000000000000 ) ) ;
#203 =( NAMED_UNIT ( * ) PLANE_ANGLE_UNIT ( ) SI_UNIT ( $, .RADIAN. ) );
#204 = DIRECTION ( 'NONE',  ( -0.000000000000000000, -1.000000000000000000, -0.000000000000000000 ) ) ;
#205 = MECHANICAL_DESIGN_GEOMETRIC_PRESENTATION_REPRESENTATION (  '', ( #105 ), #138 ) ;
#206 = CARTESIAN_POINT ( 'NONE',  ( 1.224646799147353454E-16, 1.000000000000000000, 0.000000000000000000 ) ) ;
#207 = FILL_AREA_STYLE ('',( #109 ) ) ;
#208 = SURFACE_SIDE_STYLE ('',( #116 ) ) ;
#209 = DIRECTION ( 'NONE',  ( 0.000000000000000000, 0.000000000000000000, -1.000000000000000000 ) ) ;
#210 =( GEOMETRIC_REPRESENTATION_CONTEXT ( 3 ) GLOBAL_UNCERTAINTY_ASSIGNED_CONTEXT ( ( #252 ) ) GLOBAL_UNIT_ASSIGNED_CONTEXT ( ( #1, #34, #142 ) ) REPRESENTATION_CONTEXT ( 'NONE', 'WORKASPACE' ) );
#211 = EDGE_CURVE ( 'NONE', #108, #151, #254, .T. ) ;
#212 = SURFACE_STYLE_USAGE ( .BOTH. , #67 ) ;
#213 = CYLINDRICAL_SURFACE ( 'NONE', #264, 0.1874999999999999167 ) ;
#214 = AXIS2_PLACEMENT_3D ( 'NONE', #343, #199, #49 ) ;
#215 = CIRCLE ( 'NONE', #128, 0.1874999999999999722 ) ;
#216 = ORIENTED_EDGE ( 'NONE', *, *, #350, .F. ) ;
#217 = CARTESIAN_POINT ( 'NONE',  ( 0.000000000000000000, 0.000000000000000000, 0.000000000000000000 ) ) ;
#218 = ADVANCED_FACE ( 'NONE', ( #132 ), #213, .T. ) ;
#219 = ORIENTED_EDGE ( 'NONE', *, *, #365, .T. ) ;
#220 = ORIENTED_EDGE ( 'NONE', *, *, #233, .F. ) ;
#221 = DIRECTION ( 'NONE',  ( -0.000000000000000000, -1.000000000000000000, -0.000000000000000000 ) ) ;
#222 = EDGE_CURVE ( 'NONE', #364, #318, #46, .T. ) ;
#223 = FACE_OUTER_BOUND ( 'NONE', #119, .T. ) ;
#224 = AXIS2_PLACEMENT_3D ( 'NONE', #64, #299, #117 ) ;
#225 = AXIS2_PLACEMENT_3D ( 'NONE', #62, #204, #356 ) ;
#226 = PLANE ( 'NONE',  #303 ) ;
#227 = CARTESIAN_POINT ( 'NONE',  ( 0.000000000000000000, 0.1875000000000000555, 0.000000000000000000 ) ) ;
#228 = FACE_OUTER_BOUND ( 'NONE', #196, .T. ) ;
#229 =( GEOMETRIC_REPRESENTATION_CONTEXT ( 3 ) GLOBAL_UNCERTAINTY_ASSIGNED_CONTEXT ( ( #329 ) ) GLOBAL_UNIT_ASSIGNED_CONTEXT ( ( #2, #203, #295 ) ) REPRESENTATION_CONTEXT ( 'NONE', 'WORKASPACE' ) );
#230 = COLOUR_RGB ( '',1.000000000000000000, 0.000000000000000000, 0.000000000000000000 ) ;
#231 =( LENGTH_UNIT ( ) NAMED_UNIT ( * ) SI_UNIT ( $, .METRE. ) );
#232 = ADVANCED_FACE ( 'NONE', ( #110 ), #171, .T. ) ;
#233 = EDGE_CURVE ( 'NONE', #79, #108, #114, .T. ) ;
#234 = APPLICATION_CONTEXT ( 'automotive_design' ) ;
#235 = DIRECTION ( 'NONE',  ( -0.000000000000000000, -1.000000000000000000, -0.000000000000000000 ) ) ;
#236 = AXIS2_PLACEMENT_3D ( 'NONE', #85, #38, #348 ) ;
#237 =( GEOMETRIC_REPRESENTATION_CONTEXT ( 3 ) GLOBAL_UNCERTAINTY_ASSIGNED_CONTEXT ( ( #26 ) ) GLOBAL_UNIT_ASSIGNED_CONTEXT ( ( #102, #160, #302 ) ) REPRESENTATION_CONTEXT ( 'NONE', 'WORKASPACE' ) );
#238 = CARTESIAN_POINT ( 'NONE',  ( -2.296212748401287726E-17, 0.1875000000000000278, 0.000000000000000000 ) ) ;
#239 = CYLINDRICAL_SURFACE ( 'NONE', #153, 0.1874999999999998890 ) ;
#240 = DIRECTION ( 'NONE',  ( 1.000000000000000000, 0.000000000000000000, 0.000000000000000000 ) ) ;
#241 = ADVANCED_FACE ( 'NONE', ( #228 ), #372, .T. ) ;
#242 = STYLED_ITEM ( 'NONE', ( #144 ), #241 ) ;
#243 =( NAMED_UNIT ( * ) PLANE_ANGLE_UNIT ( ) SI_UNIT ( $, .RADIAN. ) );
#244 = EDGE_CURVE ( 'NONE', #306, #318, #87, .T. ) ;
#245 = AXIS2_PLACEMENT_3D ( 'NONE', #238, #354, #240 ) ;
#246 = ORIENTED_EDGE ( 'NONE', *, *, #211, .F. ) ;
#247 = DIMENSIONAL_EXPONENTS ( 1.000000000000000000, 0.000000000000000000, 0.000000000000000000, 0.000000000000000000, 0.000000000000000000, 0.000000000000000000, 0.000000000000000000 ) ;
#248 = VERTEX_POINT ( 'NONE', #283 ) ;
#249 = DIRECTION ( 'NONE',  ( -1.224646799147353454E-16, 1.000000000000000000, -0.000000000000000000 ) ) ;
#250 = ADVANCED_FACE ( 'NONE', ( #28 ), #37, .T. ) ;
#251 = ORIENTED_EDGE ( 'NONE', *, *, #139, .F. ) ;
#252 = UNCERTAINTY_MEASURE_WITH_UNIT (LENGTH_MEASURE( 1.000000000000000082E-05 ), #1, 'distance_accuracy_value', 'NONE');
#253 = ORIENTED_EDGE ( 'NONE', *, *, #341, .T. ) ;
#254 = CIRCLE ( 'NONE', #195, 0.1874999999999999722 ) ;
#255 = ORIENTED_EDGE ( 'NONE', *, *, #61, .F. ) ;
#256 =( NAMED_UNIT ( * ) SI_UNIT ( $, .STERADIAN. ) SOLID_ANGLE_UNIT ( ) );
#257 = DIRECTION ( 'NONE',  ( 0.000000000000000000, 0.000000000000000000, -1.000000000000000000 ) ) ;
#258 = SURFACE_STYLE_FILL_AREA ( #89 ) ;
#259 = AXIS2_PLACEMENT_3D ( 'NONE', #202, #178, #12 ) ;
#260 = DIRECTION ( 'NONE',  ( 0.000000000000000000, 0.000000000000000000, -1.000000000000000000 ) ) ;
#261 = DIRECTION ( 'NONE',  ( -1.000000000000000000, 0.000000000000000000, 0.000000000000000000 ) ) ;
#262 = STYLED_ITEM ( 'NONE', ( #147 ), #71 ) ;
#263 = SURFACE_STYLE_USAGE ( .BOTH. , #208 ) ;
#264 = AXIS2_PLACEMENT_3D ( 'NONE', #190, #221, #308 ) ;
#265 = CARTESIAN_POINT ( 'NONE',  ( 0.000000000000000000, 1.000000000000000000, 0.000000000000000000 ) ) ;
#266 = DIRECTION ( 'NONE',  ( 0.000000000000000000, 0.000000000000000000, -1.000000000000000000 ) ) ;
#267 = PRODUCT_RELATED_PRODUCT_CATEGORY ( 'part', '', ( #194 ) ) ;
#268 =( CONVERSION_BASED_UNIT ( 'INCH', #35 ) LENGTH_UNIT ( ) NAMED_UNIT ( #129 ) );
#269 = CARTESIAN_POINT ( 'NONE',  ( 0.000000000000000000, 0.1875000000000000555, -0.1874999999999999722 ) ) ;
#270 = AXIS2_PLACEMENT_3D ( 'NONE', #206, #90, #261 ) ;
#271 = PRODUCT_DEFINITION_FORMATION_WITH_SPECIFIED_SOURCE ( 'ANY', '', #194, .NOT_KNOWN. ) ;
#272 = PLANE ( 'NONE',  #84 ) ;
#273 = FILL_AREA_STYLE_COLOUR ( '', #230 ) ;
#274 = ORIENTED_EDGE ( 'NONE', *, *, #95, .T. ) ;
#275 = SURFACE_SIDE_STYLE ('',( #16 ) ) ;
#276 = VECTOR ( 'NONE', #173, 39.37007874015748143 ) ;
#277 = VERTEX_POINT ( 'NONE', #137 ) ;
#278 = CARTESIAN_POINT ( 'NONE',  ( 0.1874999999999997502, 3.000000000000000444, 2.296212748401285877E-17 ) ) ;
#279 = PRODUCT_DEFINITION_CONTEXT ( 'detailed design', #68, 'design' ) ;
#280 = ORIENTED_EDGE ( 'NONE', *, *, #44, .F. ) ;
#281 = SURFACE_SIDE_STYLE ('',( #314 ) ) ;
#282 = ORIENTED_EDGE ( 'NONE', *, *, #222, .F. ) ;
#283 = CARTESIAN_POINT ( 'NONE',  ( 2.296212748401285877E-17, 1.000000000000000000, 0.1874999999999998890 ) ) ;
#284 = EDGE_LOOP ( 'NONE', ( #104, #219, #280, #362, #368 ) ) ;
#285 = AXIS2_PLACEMENT_3D ( 'NONE', #192, #75, #165 ) ;
#286 = AXIS2_PLACEMENT_3D ( 'NONE', #201, #312, #257 ) ;
#287 = AXIS2_PLACEMENT_3D ( 'NONE', #217, #123, #155 ) ;
#288 = SURFACE_SIDE_STYLE ('',( #56 ) ) ;
#289 = EDGE_CURVE ( 'NONE', #346, #248, #5, .T. ) ;
#290 = FACE_OUTER_BOUND ( 'NONE', #371, .T. ) ;
#291 = LENGTH_MEASURE_WITH_UNIT ( LENGTH_MEASURE( 0.02539999999999999897 ), #231 );
#292 = COLOUR_RGB ( '',1.000000000000000000, 0.000000000000000000, 0.000000000000000000 ) ;
#293 = LENGTH_MEASURE_WITH_UNIT ( LENGTH_MEASURE( 0.02539999999999999897 ), #13 );
#294 =( NAMED_UNIT ( * ) PLANE_ANGLE_UNIT ( ) SI_UNIT ( $, .RADIAN. ) );
#295 =( NAMED_UNIT ( * ) SI_UNIT ( $, .STERADIAN. ) SOLID_ANGLE_UNIT ( ) );
#296 = UNCERTAINTY_MEASURE_WITH_UNIT (LENGTH_MEASURE( 1.000000000000000082E-05 ), #7, 'distance_accuracy_value', 'NONE');
#297 = LINE ( 'NONE', #39, #276 ) ;
#298 = AXIS2_PLACEMENT_3D ( 'NONE', #106, #113, #260 ) ;
#299 = DIRECTION ( 'NONE',  ( 1.224646799147353207E-16, -0.000000000000000000, 1.000000000000000000 ) ) ;
#300 = DIRECTION ( 'NONE',  ( -1.000000000000000000, 0.000000000000000000, 0.000000000000000000 ) ) ;
#301 = SPHERICAL_SURFACE ( 'NONE', #236, 0.1875000000000000278 ) ;
#302 =( NAMED_UNIT ( * ) SI_UNIT ( $, .STERADIAN. ) SOLID_ANGLE_UNIT ( ) );
#303 = AXIS2_PLACEMENT_3D ( 'NONE', #22, #80, #311 ) ;
#304 = CARTESIAN_POINT ( 'NONE',  ( 0.1874999999999998890, 3.000000000000000444, 0.000000000000000000 ) ) ;
#305 = SURFACE_STYLE_USAGE ( .BOTH. , #76 ) ;
#306 = VERTEX_POINT ( 'NONE', #63 ) ;
#307 = APPLICATION_PROTOCOL_DEFINITION ( 'draft international standard', 'automotive_design', 1998, #68 ) ;
#308 = DIRECTION ( 'NONE',  ( 0.000000000000000000, 0.000000000000000000, -1.000000000000000000 ) ) ;
#309 = CIRCLE ( 'NONE', #111, 0.1874999999999999722 ) ;
#310 =( GEOMETRIC_REPRESENTATION_CONTEXT ( 3 ) GLOBAL_UNCERTAINTY_ASSIGNED_CONTEXT ( ( #48 ) ) GLOBAL_UNIT_ASSIGNED_CONTEXT ( ( #268, #146, #86 ) ) REPRESENTATION_CONTEXT ( 'NONE', 'WORKASPACE' ) );
#311 = DIRECTION ( 'NONE',  ( -1.000000000000000000, -1.224646799147353454E-16, 0.000000000000000000 ) ) ;
#312 = DIRECTION ( 'NONE',  ( -0.000000000000000000, -1.000000000000000000, -0.000000000000000000 ) ) ;
#313 = VERTEX_POINT ( 'NONE', #324 ) ;
#314 = SURFACE_STYLE_FILL_AREA ( #316 ) ;
#315 = ORIENTED_EDGE ( 'NONE', *, *, #95, .F. ) ;
#316 = FILL_AREA_STYLE ('',( #345 ) ) ;
#317 = EDGE_CURVE ( 'NONE', #151, #313, #215, .T. ) ;
#318 = VERTEX_POINT ( 'NONE', #351 ) ;
#319 = COLOUR_RGB ( '',1.000000000000000000, 0.000000000000000000, 0.000000000000000000 ) ;
#320 = PRESENTATION_STYLE_ASSIGNMENT (( #31 ) ) ;
#321 = CARTESIAN_POINT ( 'NONE',  ( -1.224646799147353700E-16, 3.000000000000000444, 0.000000000000000000 ) ) ;
#322 = LENGTH_MEASURE_WITH_UNIT ( LENGTH_MEASURE( 0.02539999999999999897 ), #169 );
#323 = EDGE_CURVE ( 'NONE', #346, #151, #177, .T. ) ;
#324 = CARTESIAN_POINT ( 'NONE',  ( 0.1874999999999999722, 0.1875000000000000555, 0.000000000000000000 ) ) ;
#325 = COLOUR_RGB ( '',1.000000000000000000, 0.000000000000000000, 0.000000000000000000 ) ;
#326 = CARTESIAN_POINT ( 'NONE',  ( 0.000000000000000000, 0.1875000000000000555, 0.000000000000000000 ) ) ;
#327 = LINE ( 'NONE', #181, #107 ) ;
#328 = SURFACE_SIDE_STYLE ('',( #258 ) ) ;
#329 = UNCERTAINTY_MEASURE_WITH_UNIT (LENGTH_MEASURE( 1.000000000000000082E-05 ), #2, 'distance_accuracy_value', 'NONE');
#330 = CIRCLE ( 'NONE', #352, 0.1874999999999998890 ) ;
#331 = CARTESIAN_POINT ( 'NONE',  ( 0.1874999999999999167, 1.000000000000000000, 2.296212748401286801E-17 ) ) ;
#332 = AXIS2_PLACEMENT_3D ( 'NONE', #149, #266, #300 ) ;
#333 = DIRECTION ( 'NONE',  ( -1.224646799147353454E-16, 1.000000000000000000, -0.000000000000000000 ) ) ;
#334 =( NAMED_UNIT ( * ) SI_UNIT ( $, .STERADIAN. ) SOLID_ANGLE_UNIT ( ) );
#335 = EDGE_CURVE ( 'NONE', #277, #306, #297, .T. ) ;
#336 = FILL_AREA_STYLE_COLOUR ( '', #65 ) ;
#337 = DIRECTION ( 'NONE',  ( 1.000000000000000000, 1.224646799147353454E-16, 0.000000000000000000 ) ) ;
#338 = PRESENTATION_LAYER_ASSIGNMENT (  '', '', ( #29 ) ) ;
#339 = DIMENSIONAL_EXPONENTS ( 1.000000000000000000, 0.000000000000000000, 0.000000000000000000, 0.000000000000000000, 0.000000000000000000, 0.000000000000000000, 0.000000000000000000 ) ;
#340 = ORIENTED_EDGE ( 'NONE', *, *, #289, .F. ) ;
#341 = EDGE_CURVE ( 'NONE', #313, #161, #112, .T. ) ;
#342 = ORIENTED_EDGE ( 'NONE', *, *, #211, .T. ) ;
#343 = CARTESIAN_POINT ( 'NONE',  ( -1.224646799147353700E-16, 3.000000000000000444, 0.000000000000000000 ) ) ;
#344 = EDGE_LOOP ( 'NONE', ( #251, #342, #18, #253 ) ) ;
#345 = FILL_AREA_STYLE_COLOUR ( '', #319 ) ;
#346 = VERTEX_POINT ( 'NONE', #353 ) ;
#347 = DIRECTION ( 'NONE',  ( 0.000000000000000000, 1.000000000000000000, 0.000000000000000000 ) ) ;
#348 = DIRECTION ( 'NONE',  ( 1.000000000000000000, 0.000000000000000000, 0.000000000000000000 ) ) ;
#349 = VECTOR ( 'NONE', #59, 39.37007874015748143 ) ;
#350 = EDGE_CURVE ( 'NONE', #277, #364, #159, .T. ) ;
#351 = CARTESIAN_POINT ( 'NONE',  ( 0.1874999999999998890, 3.000000000000000444, 2.296212748401286801E-17 ) ) ;
#352 = AXIS2_PLACEMENT_3D ( 'NONE', #265, #11, #209 ) ;
#353 = CARTESIAN_POINT ( 'NONE',  ( 0.000000000000000000, 1.000000000000000000, -0.1874999999999998890 ) ) ;
#354 = DIRECTION ( 'NONE',  ( 0.000000000000000000, 0.000000000000000000, 1.000000000000000000 ) ) ;
#355 = DIRECTION ( 'NONE',  ( -1.000000000000000000, 0.000000000000000000, 0.000000000000000000 ) ) ;
#356 = DIRECTION ( 'NONE',  ( 0.000000000000000000, 0.000000000000000000, -1.000000000000000000 ) ) ;
#357 = LENGTH_MEASURE_WITH_UNIT ( LENGTH_MEASURE( 0.02539999999999999897 ), #360 );
#358 = ORIENTED_EDGE ( 'NONE', *, *, #335, .T. ) ;
#359 = MECHANICAL_DESIGN_GEOMETRIC_PRESENTATION_REPRESENTATION (  '', ( #262 ), #83 ) ;
#360 =( LENGTH_UNIT ( ) NAMED_UNIT ( * ) SI_UNIT ( $, .METRE. ) );
#361 = DIRECTION ( 'NONE',  ( 1.224646799147353454E-16, -1.000000000000000000, 0.000000000000000000 ) ) ;
#362 = ORIENTED_EDGE ( 'NONE', *, *, #317, .F. ) ;
#363 = DIMENSIONAL_EXPONENTS ( 1.000000000000000000, 0.000000000000000000, 0.000000000000000000, 0.000000000000000000, 0.000000000000000000, 0.000000000000000000, 0.000000000000000000 ) ;
#364 = VERTEX_POINT ( 'NONE', #331 ) ;
#365 = EDGE_CURVE ( 'NONE', #248, #79, #327, .T. ) ;
#366 = LENGTH_MEASURE_WITH_UNIT ( LENGTH_MEASURE( 0.02539999999999999897 ), #73 );
#367 = ORIENTED_EDGE ( 'NONE', *, *, #244, .T. ) ;
#368 = ORIENTED_EDGE ( 'NONE', *, *, #323, .F. ) ;
#369 = COLOUR_RGB ( '',0.7921568627450980005, 0.8196078431372548767, 0.9333333333333333481 ) ;
#370 =( GEOMETRIC_REPRESENTATION_CONTEXT ( 3 ) GLOBAL_UNCERTAINTY_ASSIGNED_CONTEXT ( ( #115 ) ) GLOBAL_UNIT_ASSIGNED_CONTEXT ( ( #162, #198, #256 ) ) REPRESENTATION_CONTEXT ( 'NONE', 'WORKASPACE' ) );
#371 = EDGE_LOOP ( 'NONE', ( #282, #274, #358, #255 ) ) ;
#372 = PLANE ( 'NONE',  #47 ) ;
#373 = ORIENTED_EDGE ( 'NONE', *, *, #131, .T. ) ;
ENDSEC;
END-ISO-10303-21;
