ISO-10303-21;
HEADER;
FILE_DESCRIPTION (( 'STEP AP214' ),
    '1' );
FILE_NAME ('Micro_SPD-375-082.STEP',
    '2021-09-03T21:20:53',
    ( '' ),
    ( '' ),
    'SwSTEP 2.0',
    'SolidWorks 2020',
    '' );
FILE_SCHEMA (( 'AUTOMOTIVE_DESIGN' ));
ENDSEC;

DATA;
#1 = DIRECTION ( 'NONE',  ( 0.0000000000000000000, 0.0000000000000000000, 1.000000000000000000 ) ) ;
#2 = CIRCLE ( 'NONE', #113, 0.1875000000000000278 ) ;
#3 = DIRECTION ( 'NONE',  ( -0.7071067811865385799, 0.0000000000000000000, -0.7071067811865563435 ) ) ;
#4 = PRODUCT_DEFINITION_FORMATION_WITH_SPECIFIED_SOURCE ( 'ANY', '', #72, .NOT_KNOWN. ) ;
#5 = AXIS2_PLACEMENT_3D ( 'NONE', #12, #307, #34 ) ;
#6 = CARTESIAN_POINT ( 'NONE',  ( 0.0000000000000000000, 0.0000000000000000000, 2.500000000000000000 ) ) ;
#7 = FACE_OUTER_BOUND ( 'NONE', #99, .T. ) ;
#8 = CARTESIAN_POINT ( 'NONE',  ( 0.02800000000000000405, 0.0000000000000000000, 0.0000000000000000000 ) ) ;
#9 = CIRCLE ( 'NONE', #316, 0.1724999999999995981 ) ;
#10 = ORIENTED_EDGE ( 'NONE', *, *, #41, .T. ) ;
#11 = VECTOR ( 'NONE', #255, 39.37007874015748143 ) ;
#12 = CARTESIAN_POINT ( 'NONE',  ( 0.0000000000000000000, 0.0000000000000000000, 1.000049999999999883 ) ) ;
#13 = ORIENTED_EDGE ( 'NONE', *, *, #253, .T. ) ;
#14 = LINE ( 'NONE', #36, #11 ) ;
#15 = ORIENTED_EDGE ( 'NONE', *, *, #88, .F. ) ;
#16 = SURFACE_STYLE_FILL_AREA ( #44 ) ;
#17 = AXIS2_PLACEMENT_3D ( 'NONE', #6, #230, #95 ) ;
#18 = APPLICATION_PROTOCOL_DEFINITION ( 'draft international standard', 'automotive_design', 1998, #332 ) ;
#19 = VERTEX_POINT ( 'NONE', #339 ) ;
#20 = EDGE_CURVE ( 'NONE', #86, #260, #2, .T. ) ;
#21 = ORIENTED_EDGE ( 'NONE', *, *, #244, .F. ) ;
#22 = ORIENTED_EDGE ( 'NONE', *, *, #169, .F. ) ;
#23 = LENGTH_MEASURE_WITH_UNIT ( LENGTH_MEASURE( 0.02539999999999999897 ), #269 );
#24 = CARTESIAN_POINT ( 'NONE',  ( 0.0000000000000000000, 0.0000000000000000000, 0.1834262425313892275 ) ) ;
#25 = CYLINDRICAL_SURFACE ( 'NONE', #142, 0.1874500000000000610 ) ;
#26 = CIRCLE ( 'NONE', #263, 0.1874500000000001165 ) ;
#27 = DIRECTION ( 'NONE',  ( -1.000000000000000000, 0.0000000000000000000, 0.0000000000000000000 ) ) ;
#28 = ADVANCED_BREP_SHAPE_REPRESENTATION ( 'Micro_SPD-375-082', ( #63, #156 ), #167 ) ;
#29 = CARTESIAN_POINT ( 'NONE',  ( 0.0000000000000000000, 0.0000000000000000000, 0.0000000000000000000 ) ) ;
#30 = VERTEX_POINT ( 'NONE', #289 ) ;
#31 = DIRECTION ( 'NONE',  ( -1.000000000000000000, 0.0000000000000000000, 0.0000000000000000000 ) ) ;
#32 = CLOSED_SHELL ( 'NONE', ( #135, #215, #293, #286, #83, #207, #336, #202, #70, #187, #306, #117 ) ) ;
#33 = CARTESIAN_POINT ( 'NONE',  ( 0.0000000000000000000, 0.0000000000000000000, 0.1834262425313892275 ) ) ;
#34 = DIRECTION ( 'NONE',  ( 1.000000000000000000, 0.0000000000000000000, 0.0000000000000000000 ) ) ;
#35 = PRODUCT_RELATED_PRODUCT_CATEGORY ( 'part', '', ( #72 ) ) ;
#36 = CARTESIAN_POINT ( 'NONE',  ( 0.02800000000000000405, 0.0000000000000000000, 0.0000000000000000000 ) ) ;
#37 = ORIENTED_EDGE ( 'NONE', *, *, #225, .T. ) ;
#38 = DIRECTION ( 'NONE',  ( -0.0000000000000000000, -0.0000000000000000000, -1.000000000000000000 ) ) ;
#39 = AXIS2_PLACEMENT_3D ( 'NONE', #283, #196, #204 ) ;
#40 = ORIENTED_EDGE ( 'NONE', *, *, #158, .F. ) ;
#41 = EDGE_CURVE ( 'NONE', #171, #313, #157, .T. ) ;
#42 = CARTESIAN_POINT ( 'NONE',  ( -0.1874500000000001165, 2.295600425001714852E-17, 1.000000000000000000 ) ) ;
#43 = ORIENTED_EDGE ( 'NONE', *, *, #100, .F. ) ;
#44 = FILL_AREA_STYLE ('',( #261 ) ) ;
#45 = DIRECTION ( 'NONE',  ( 1.000000000000000000, 0.0000000000000000000, 0.0000000000000000000 ) ) ;
#46 = VECTOR ( 'NONE', #62, 39.37007874015748143 ) ;
#47 = AXIS2_PLACEMENT_3D ( 'NONE', #168, #92, #278 ) ;
#48 = APPLICATION_PROTOCOL_DEFINITION ( 'draft international standard', 'automotive_design', 1998, #166 ) ;
#49 = DIRECTION ( 'NONE',  ( -1.000000000000000000, 0.0000000000000000000, 0.0000000000000000000 ) ) ;
#50 = ORIENTED_EDGE ( 'NONE', *, *, #57, .T. ) ;
#51 = COLOUR_RGB ( '',0.7921568627450980005, 0.8196078431372548767, 0.9333333333333333481 ) ;
#52 = CONICAL_SURFACE ( 'NONE', #73, 0.02800000000000000405, 0.7155849933176771094 ) ;
#53 = EDGE_CURVE ( 'NONE', #19, #206, #347, .T. ) ;
#54 = ORIENTED_EDGE ( 'NONE', *, *, #114, .T. ) ;
#55 = CARTESIAN_POINT ( 'NONE',  ( 0.1874500000000001165, 0.0000000000000000000, 1.000000000000000000 ) ) ;
#56 = FACE_OUTER_BOUND ( 'NONE', #341, .T. ) ;
#57 = EDGE_CURVE ( 'NONE', #290, #309, #203, .T. ) ;
#58 =( GEOMETRIC_REPRESENTATION_CONTEXT ( 3 ) GLOBAL_UNCERTAINTY_ASSIGNED_CONTEXT ( ( #80 ) ) GLOBAL_UNIT_ASSIGNED_CONTEXT ( ( #237, #267, #148 ) ) REPRESENTATION_CONTEXT ( 'NONE', 'WORKASPACE' ) );
#59 = CARTESIAN_POINT ( 'NONE',  ( 0.0000000000000000000, 0.0000000000000000000, 0.0000000000000000000 ) ) ;
#60 = ORIENTED_EDGE ( 'NONE', *, *, #300, .F. ) ;
#61 = DIRECTION ( 'NONE',  ( -0.0000000000000000000, -0.0000000000000000000, -1.000000000000000000 ) ) ;
#62 = DIRECTION ( 'NONE',  ( -0.0000000000000000000, -0.0000000000000000000, -1.000000000000000000 ) ) ;
#63 = MANIFOLD_SOLID_BREP ( 'Cut-Revolve2', #32 ) ;
#64 = AXIS2_PLACEMENT_3D ( 'NONE', #105, #1, #195 ) ;
#65 = CARTESIAN_POINT ( 'NONE',  ( 0.0000000000000000000, 0.0000000000000000000, 0.0000000000000000000 ) ) ;
#66 = AXIS2_PLACEMENT_3D ( 'NONE', #200, #170, #174 ) ;
#67 = CARTESIAN_POINT ( 'NONE',  ( -0.1875000000000000278, 0.0000000000000000000, 2.500000000000000000 ) ) ;
#68 = ORIENTED_EDGE ( 'NONE', *, *, #225, .F. ) ;
#69 = CARTESIAN_POINT ( 'NONE',  ( -0.02800000000000000405, 1.319250764381486341E-17, 0.0000000000000000000 ) ) ;
#70 = ADVANCED_FACE ( 'NONE', ( #249 ), #221, .T. ) ;
#71 = LINE ( 'NONE', #42, #137 ) ;
#72 = PRODUCT ( 'Micro_SPD-375-082', 'Micro_SPD-375-082', '', ( #76 ) ) ;
#73 = AXIS2_PLACEMENT_3D ( 'NONE', #259, #94, #199 ) ;
#74 = CYLINDRICAL_SURFACE ( 'NONE', #47, 0.1875000000000000278 ) ;
#75 = ORIENTED_EDGE ( 'NONE', *, *, #349, .T. ) ;
#76 = PRODUCT_CONTEXT ( 'NONE', #332, 'mechanical' ) ;
#77 = AXIS2_PLACEMENT_3D ( 'NONE', #272, #299, #27 ) ;
#78 = CIRCLE ( 'NONE', #104, 0.1724999999999995981 ) ;
#79 = PRESENTATION_STYLE_ASSIGNMENT (( #317 ) ) ;
#80 = UNCERTAINTY_MEASURE_WITH_UNIT (LENGTH_MEASURE( 1.000000000000000082E-05 ), #237, 'distance_accuracy_value', 'NONE');
#81 = ORIENTED_EDGE ( 'NONE', *, *, #158, .T. ) ;
#82 = ORIENTED_EDGE ( 'NONE', *, *, #53, .T. ) ;
#83 = ADVANCED_FACE ( 'NONE', ( #112 ), #134, .T. ) ;
#84 = PRODUCT_DEFINITION_CONTEXT ( 'detailed design', #166, 'design' ) ;
#85 = DIRECTION ( 'NONE',  ( -1.000000000000000000, 0.0000000000000000000, 0.0000000000000000000 ) ) ;
#86 = VERTEX_POINT ( 'NONE', #223 ) ;
#87 =( NAMED_UNIT ( * ) SI_UNIT ( $, .STERADIAN. ) SOLID_ANGLE_UNIT ( ) );
#88 = EDGE_CURVE ( 'NONE', #171, #206, #220, .T. ) ;
#89 = DIRECTION ( 'NONE',  ( 0.0000000000000000000, 0.0000000000000000000, 1.000000000000000000 ) ) ;
#90 = PRODUCT_DEFINITION_SHAPE ( 'NONE', 'NONE',  #340 ) ;
#91 = CIRCLE ( 'NONE', #77, 0.02800000000000000405 ) ;
#92 = DIRECTION ( 'NONE',  ( -0.0000000000000000000, -0.0000000000000000000, -1.000000000000000000 ) ) ;
#93 = CONICAL_SURFACE ( 'NONE', #310, 0.1874500000000001165, 0.7853981633974491672 ) ;
#94 = DIRECTION ( 'NONE',  ( 0.0000000000000000000, 0.0000000000000000000, 1.000000000000000000 ) ) ;
#95 = DIRECTION ( 'NONE',  ( -1.000000000000000000, 0.0000000000000000000, 0.0000000000000000000 ) ) ;
#96 = DIRECTION ( 'NONE',  ( -1.000000000000000000, 0.0000000000000000000, 0.0000000000000000000 ) ) ;
#97 = MECHANICAL_DESIGN_GEOMETRIC_PRESENTATION_REPRESENTATION (  '', ( #217 ), #173 ) ;
#98 = ORIENTED_EDGE ( 'NONE', *, *, #253, .F. ) ;
#99 = EDGE_LOOP ( 'NONE', ( #180, #178, #292, #205 ) ) ;
#100 = EDGE_CURVE ( 'NONE', #245, #30, #9, .T. ) ;
#101 = DIRECTION ( 'NONE',  ( -0.0000000000000000000, -0.0000000000000000000, -1.000000000000000000 ) ) ;
#102 = DIRECTION ( 'NONE',  ( -0.0000000000000000000, -0.0000000000000000000, -1.000000000000000000 ) ) ;
#103 = VECTOR ( 'NONE', #296, 39.37007874015748143 ) ;
#104 = AXIS2_PLACEMENT_3D ( 'NONE', #335, #89, #279 ) ;
#105 = CARTESIAN_POINT ( 'NONE',  ( 0.0000000000000000000, 0.0000000000000000000, 1.000000000000000000 ) ) ;
#106 = ORIENTED_EDGE ( 'NONE', *, *, #281, .F. ) ;
#107 = CARTESIAN_POINT ( 'NONE',  ( 0.0000000000000000000, 0.0000000000000000000, 2.500000000000000000 ) ) ;
#108 = PRESENTATION_LAYER_ASSIGNMENT (  '', '', ( #119 ) ) ;
#109 = EDGE_CURVE ( 'NONE', #140, #19, #275, .T. ) ;
#110 = FACE_OUTER_BOUND ( 'NONE', #333, .T. ) ;
#111 = DIRECTION ( 'NONE',  ( -0.0000000000000000000, -0.0000000000000000000, -1.000000000000000000 ) ) ;
#112 = FACE_OUTER_BOUND ( 'NONE', #193, .T. ) ;
#113 = AXIS2_PLACEMENT_3D ( 'NONE', #183, #266, #45 ) ;
#114 = EDGE_CURVE ( 'NONE', #30, #86, #136, .T. ) ;
#115 = LINE ( 'NONE', #224, #124 ) ;
#116 = CARTESIAN_POINT ( 'NONE',  ( 0.0000000000000000000, 0.0000000000000000000, 1.000000000000000000 ) ) ;
#117 = ADVANCED_FACE ( 'NONE', ( #110 ), #276, .F. ) ;
#118 = FACE_OUTER_BOUND ( 'NONE', #318, .T. ) ;
#119 = STYLED_ITEM ( 'NONE', ( #123 ), #28 ) ;
#120 = PLANE ( 'NONE',  #144 ) ;
#121 = DIRECTION ( 'NONE',  ( 1.000000000000000000, 0.0000000000000000000, 0.0000000000000000000 ) ) ;
#122 = VERTEX_POINT ( 'NONE', #219 ) ;
#123 = PRESENTATION_STYLE_ASSIGNMENT (( #185 ) ) ;
#124 = VECTOR ( 'NONE', #240, 39.37007874015748854 ) ;
#125 = ORIENTED_EDGE ( 'NONE', *, *, #349, .F. ) ;
#126 = EDGE_CURVE ( 'NONE', #206, #19, #297, .T. ) ;
#127 = DIRECTION ( 'NONE',  ( 0.7071067811865481278, 0.0000000000000000000, 0.7071067811865469066 ) ) ;
#128 = SURFACE_STYLE_FILL_AREA ( #154 ) ;
#129 = EDGE_LOOP ( 'NONE', ( #343, #60, #10, #37 ) ) ;
#130 = AXIS2_PLACEMENT_3D ( 'NONE', #132, #101, #49 ) ;
#131 =( CONVERSION_BASED_UNIT ( 'INCH', #23 ) LENGTH_UNIT ( ) NAMED_UNIT ( #175 ) );
#132 = CARTESIAN_POINT ( 'NONE',  ( 0.0000000000000000000, 0.0000000000000000000, 0.0000000000000000000 ) ) ;
#133 = AXIS2_PLACEMENT_3D ( 'NONE', #188, #294, #165 ) ;
#134 = CYLINDRICAL_SURFACE ( 'NONE', #303, 0.1875000000000000278 ) ;
#135 = ADVANCED_FACE ( 'NONE', ( #56 ), #327, .T. ) ;
#136 = LINE ( 'NONE', #160, #248 ) ;
#137 = VECTOR ( 'NONE', #146, 39.37007874015748143 ) ;
#138 = DIRECTION ( 'NONE',  ( 0.0000000000000000000, 0.0000000000000000000, 1.000000000000000000 ) ) ;
#139 = CARTESIAN_POINT ( 'NONE',  ( 0.1874500000000000333, 2.295600425001713927E-17, 0.1834262425313892275 ) ) ;
#140 = VERTEX_POINT ( 'NONE', #246 ) ;
#141 = CARTESIAN_POINT ( 'NONE',  ( 0.1724999999999995981, 2.204364238465233357E-17, 2.500000000000000000 ) ) ;
#142 = AXIS2_PLACEMENT_3D ( 'NONE', #29, #61, #31 ) ;
#143 = FACE_OUTER_BOUND ( 'NONE', #338, .T. ) ;
#144 = AXIS2_PLACEMENT_3D ( 'NONE', #282, #138, #257 ) ;
#145 = ORIENTED_EDGE ( 'NONE', *, *, #20, .F. ) ;
#146 = DIRECTION ( 'NONE',  ( -0.7071067811865481278, 8.659560562354940254E-17, 0.7071067811865469066 ) ) ;
#147 = ORIENTED_EDGE ( 'NONE', *, *, #191, .F. ) ;
#148 =( NAMED_UNIT ( * ) SI_UNIT ( $, .STERADIAN. ) SOLID_ANGLE_UNIT ( ) );
#149 = EDGE_LOOP ( 'NONE', ( #151, #287, #262, #68 ) ) ;
#150 =( LENGTH_UNIT ( ) NAMED_UNIT ( * ) SI_UNIT ( $, .METRE. ) );
#151 = ORIENTED_EDGE ( 'NONE', *, *, #176, .F. ) ;
#152 = LENGTH_MEASURE_WITH_UNIT ( LENGTH_MEASURE( 0.02539999999999999897 ), #213 );
#153 = ORIENTED_EDGE ( 'NONE', *, *, #281, .T. ) ;
#154 = FILL_AREA_STYLE ('',( #210 ) ) ;
#155 = AXIS2_PLACEMENT_3D ( 'NONE', #24, #102, #315 ) ;
#156 = AXIS2_PLACEMENT_3D ( 'NONE', #234, #243, #179 ) ;
#157 = LINE ( 'NONE', #264, #233 ) ;
#158 = EDGE_CURVE ( 'NONE', #309, #290, #91, .T. ) ;
#159 = LINE ( 'NONE', #162, #330 ) ;
#160 = CARTESIAN_POINT ( 'NONE',  ( -0.1724999999999995981, 0.0000000000000000000, 2.500000000000000000 ) ) ;
#161 = AXIS2_PLACEMENT_3D ( 'NONE', #65, #38, #96 ) ;
#162 = CARTESIAN_POINT ( 'NONE',  ( 0.1875000000000000278, 2.296212748401287726E-17, 2.500000000000000000 ) ) ;
#163 = ORIENTED_EDGE ( 'NONE', *, *, #109, .T. ) ;
#164 = EDGE_CURVE ( 'NONE', #309, #19, #325, .T. ) ;
#165 = DIRECTION ( 'NONE',  ( 1.000000000000000000, 0.0000000000000000000, 0.0000000000000000000 ) ) ;
#166 = APPLICATION_CONTEXT ( 'automotive_design' ) ;
#167 =( GEOMETRIC_REPRESENTATION_CONTEXT ( 3 ) GLOBAL_UNCERTAINTY_ASSIGNED_CONTEXT ( ( #319 ) ) GLOBAL_UNIT_ASSIGNED_CONTEXT ( ( #314, #239, #320 ) ) REPRESENTATION_CONTEXT ( 'NONE', 'WORKASPACE' ) );
#168 = CARTESIAN_POINT ( 'NONE',  ( 0.0000000000000000000, 0.0000000000000000000, 2.500000000000000000 ) ) ;
#169 = EDGE_CURVE ( 'NONE', #260, #86, #288, .T. ) ;
#170 = DIRECTION ( 'NONE',  ( 0.0000000000000000000, 0.0000000000000000000, -1.000000000000000000 ) ) ;
#171 = VERTEX_POINT ( 'NONE', #55 ) ;
#172 = CARTESIAN_POINT ( 'NONE',  ( 0.0000000000000000000, 0.0000000000000000000, 1.000000000000000000 ) ) ;
#173 =( GEOMETRIC_REPRESENTATION_CONTEXT ( 3 ) GLOBAL_UNCERTAINTY_ASSIGNED_CONTEXT ( ( #184 ) ) GLOBAL_UNIT_ASSIGNED_CONTEXT ( ( #131, #324, #87 ) ) REPRESENTATION_CONTEXT ( 'NONE', 'WORKASPACE' ) );
#174 = DIRECTION ( 'NONE',  ( -1.000000000000000000, 0.0000000000000000000, 0.0000000000000000000 ) ) ;
#175 = DIMENSIONAL_EXPONENTS ( 1.000000000000000000, 0.0000000000000000000, 0.0000000000000000000, 0.0000000000000000000, 0.0000000000000000000, 0.0000000000000000000, 0.0000000000000000000 ) ;
#176 = EDGE_CURVE ( 'NONE', #260, #313, #159, .T. ) ;
#177 = LINE ( 'NONE', #67, #277 ) ;
#178 = ORIENTED_EDGE ( 'NONE', *, *, #88, .T. ) ;
#179 = DIRECTION ( 'NONE',  ( 1.000000000000000000, 0.0000000000000000000, 0.0000000000000000000 ) ) ;
#180 = ORIENTED_EDGE ( 'NONE', *, *, #191, .T. ) ;
#181 = CIRCLE ( 'NONE', #39, 0.1874500000000001165 ) ;
#182 = AXIS2_PLACEMENT_3D ( 'NONE', #198, #229, #305 ) ;
#183 = CARTESIAN_POINT ( 'NONE',  ( 0.0000000000000000000, 0.0000000000000000000, 2.484999999999999432 ) ) ;
#184 = UNCERTAINTY_MEASURE_WITH_UNIT (LENGTH_MEASURE( 1.000000000000000082E-05 ), #131, 'distance_accuracy_value', 'NONE');
#185 = SURFACE_STYLE_USAGE ( .BOTH. , #337 ) ;
#186 = ORIENTED_EDGE ( 'NONE', *, *, #126, .F. ) ;
#187 = ADVANCED_FACE ( 'NONE', ( #271 ), #25, .T. ) ;
#188 = CARTESIAN_POINT ( 'NONE',  ( 0.0000000000000000000, 0.0000000000000000000, 2.484999999999999432 ) ) ;
#189 = DIRECTION ( 'NONE',  ( -0.0000000000000000000, -0.0000000000000000000, -1.000000000000000000 ) ) ;
#190 = DIRECTION ( 'NONE',  ( 1.000000000000000000, 0.0000000000000000000, 0.0000000000000000000 ) ) ;
#191 = EDGE_CURVE ( 'NONE', #140, #171, #181, .T. ) ;
#192 = COLOUR_RGB ( '',0.7921568627450980005, 0.8196078431372548767, 0.9333333333333333481 ) ;
#193 = EDGE_LOOP ( 'NONE', ( #238, #258, #106, #21 ) ) ;
#194 = DIRECTION ( 'NONE',  ( 1.000000000000000000, 0.0000000000000000000, 0.0000000000000000000 ) ) ;
#195 = DIRECTION ( 'NONE',  ( 1.000000000000000000, 0.0000000000000000000, 0.0000000000000000000 ) ) ;
#196 = DIRECTION ( 'NONE',  ( -0.0000000000000000000, -0.0000000000000000000, -1.000000000000000000 ) ) ;
#197 = VECTOR ( 'NONE', #111, 39.37007874015748143 ) ;
#198 = CARTESIAN_POINT ( 'NONE',  ( 0.0000000000000000000, 0.0000000000000000000, 1.000049999999999883 ) ) ;
#199 = DIRECTION ( 'NONE',  ( 1.000000000000000000, 0.0000000000000000000, 0.0000000000000000000 ) ) ;
#200 = CARTESIAN_POINT ( 'NONE',  ( 0.0000000000000000000, 0.0000000000000000000, 2.500000000000000000 ) ) ;
#201 = ORIENTED_EDGE ( 'NONE', *, *, #236, .F. ) ;
#202 = ADVANCED_FACE ( 'NONE', ( #311 ), #273, .T. ) ;
#203 = CIRCLE ( 'NONE', #130, 0.02800000000000000405 ) ;
#204 = DIRECTION ( 'NONE',  ( -1.000000000000000000, 0.0000000000000000000, 0.0000000000000000000 ) ) ;
#205 = ORIENTED_EDGE ( 'NONE', *, *, #109, .F. ) ;
#206 = VERTEX_POINT ( 'NONE', #139 ) ;
#207 = ADVANCED_FACE ( 'NONE', ( #226 ), #74, .T. ) ;
#208 = AXIS2_PLACEMENT_3D ( 'NONE', #59, #326, #345 ) ;
#209 = CIRCLE ( 'NONE', #5, 0.1875000000000000278 ) ;
#210 = FILL_AREA_STYLE_COLOUR ( '', #51 ) ;
#211 = LENGTH_MEASURE_WITH_UNIT ( LENGTH_MEASURE( 0.02539999999999999897 ), #150 );
#212 = ORIENTED_EDGE ( 'NONE', *, *, #114, .F. ) ;
#213 =( LENGTH_UNIT ( ) NAMED_UNIT ( * ) SI_UNIT ( $, .METRE. ) );
#214 = SURFACE_SIDE_STYLE ('',( #128 ) ) ;
#215 = ADVANCED_FACE ( 'NONE', ( #7 ), #302, .T. ) ;
#216 = CARTESIAN_POINT ( 'NONE',  ( -0.02800000000000000405, 3.429011037612589091E-18, 0.0000000000000000000 ) ) ;
#217 = STYLED_ITEM ( 'NONE', ( #79 ), #63 ) ;
#218 = CARTESIAN_POINT ( 'NONE',  ( 0.0000000000000000000, 0.0000000000000000000, 0.0000000000000000000 ) ) ;
#219 = CARTESIAN_POINT ( 'NONE',  ( -0.1875000000000000278, 0.0000000000000000000, 1.000049999999999883 ) ) ;
#220 = LINE ( 'NONE', #348, #197 ) ;
#221 = CONICAL_SURFACE ( 'NONE', #64, 0.1874500000000001165, 0.7853981633974491672 ) ;
#222 = DIMENSIONAL_EXPONENTS ( 1.000000000000000000, 0.0000000000000000000, 0.0000000000000000000, 0.0000000000000000000, 0.0000000000000000000, 0.0000000000000000000, 0.0000000000000000000 ) ;
#223 = CARTESIAN_POINT ( 'NONE',  ( -0.1875000000000000278, 0.0000000000000000000, 2.484999999999999432 ) ) ;
#224 = CARTESIAN_POINT ( 'NONE',  ( 0.1724999999999995981, 2.112515728529179297E-17, 2.500000000000000000 ) ) ;
#225 = EDGE_CURVE ( 'NONE', #313, #122, #322, .T. ) ;
#226 = FACE_OUTER_BOUND ( 'NONE', #149, .T. ) ;
#227 = DIMENSIONAL_EXPONENTS ( 1.000000000000000000, 0.0000000000000000000, 0.0000000000000000000, 0.0000000000000000000, 0.0000000000000000000, 0.0000000000000000000, 0.0000000000000000000 ) ;
#228 = EDGE_LOOP ( 'NONE', ( #43, #75, #145, #212 ) ) ;
#229 = DIRECTION ( 'NONE',  ( -0.0000000000000000000, -0.0000000000000000000, -1.000000000000000000 ) ) ;
#230 = DIRECTION ( 'NONE',  ( 0.0000000000000000000, 0.0000000000000000000, -1.000000000000000000 ) ) ;
#231 = CARTESIAN_POINT ( 'NONE',  ( 0.1875000000000000278, 2.296212748401287726E-17, 1.000049999999999883 ) ) ;
#232 = ORIENTED_EDGE ( 'NONE', *, *, #164, .T. ) ;
#233 = VECTOR ( 'NONE', #127, 39.37007874015748143 ) ;
#234 = CARTESIAN_POINT ( 'NONE',  ( 0.0000000000000000000, 0.0000000000000000000, 0.0000000000000000000 ) ) ;
#235 = ORIENTED_EDGE ( 'NONE', *, *, #164, .F. ) ;
#236 = EDGE_CURVE ( 'NONE', #290, #206, #14, .T. ) ;
#237 =( CONVERSION_BASED_UNIT ( 'INCH', #211 ) LENGTH_UNIT ( ) NAMED_UNIT ( #227 ) );
#238 = ORIENTED_EDGE ( 'NONE', *, *, #20, .T. ) ;
#239 =( NAMED_UNIT ( * ) PLANE_ANGLE_UNIT ( ) SI_UNIT ( $, .RADIAN. ) );
#240 = DIRECTION ( 'NONE',  ( 0.7071067811865385799, 8.659560562354823157E-17, -0.7071067811865563435 ) ) ;
#241 = AXIS2_PLACEMENT_3D ( 'NONE', #218, #295, #194 ) ;
#242 = ORIENTED_EDGE ( 'NONE', *, *, #100, .T. ) ;
#243 = DIRECTION ( 'NONE',  ( 0.0000000000000000000, 0.0000000000000000000, 1.000000000000000000 ) ) ;
#244 = EDGE_CURVE ( 'NONE', #86, #122, #177, .T. ) ;
#245 = VERTEX_POINT ( 'NONE', #141 ) ;
#246 = CARTESIAN_POINT ( 'NONE',  ( -0.1874500000000001165, 2.295906586701500980E-17, 1.000000000000000000 ) ) ;
#247 = DIRECTION ( 'NONE',  ( -1.000000000000000000, 0.0000000000000000000, 0.0000000000000000000 ) ) ;
#248 = VECTOR ( 'NONE', #3, 39.37007874015748854 ) ;
#249 = FACE_OUTER_BOUND ( 'NONE', #129, .T. ) ;
#250 = DIRECTION ( 'NONE',  ( 0.0000000000000000000, 0.0000000000000000000, 1.000000000000000000 ) ) ;
#251 = PRESENTATION_LAYER_ASSIGNMENT (  '', '', ( #217 ) ) ;
#252 = FACE_OUTER_BOUND ( 'NONE', #228, .T. ) ;
#253 = EDGE_CURVE ( 'NONE', #30, #245, #78, .T. ) ;
#254 = DIRECTION ( 'NONE',  ( -0.0000000000000000000, -0.0000000000000000000, -1.000000000000000000 ) ) ;
#255 = DIRECTION ( 'NONE',  ( 0.6560590289905088301, 0.0000000000000000000, 0.7547095802227706818 ) ) ;
#256 = ORIENTED_EDGE ( 'NONE', *, *, #346, .T. ) ;
#257 = DIRECTION ( 'NONE',  ( 1.000000000000000000, 0.0000000000000000000, -0.0000000000000000000 ) ) ;
#258 = ORIENTED_EDGE ( 'NONE', *, *, #176, .T. ) ;
#259 = CARTESIAN_POINT ( 'NONE',  ( 0.0000000000000000000, 0.0000000000000000000, 0.0000000000000000000 ) ) ;
#260 = VERTEX_POINT ( 'NONE', #331 ) ;
#261 = FILL_AREA_STYLE_COLOUR ( '', #192 ) ;
#262 = ORIENTED_EDGE ( 'NONE', *, *, #244, .T. ) ;
#263 = AXIS2_PLACEMENT_3D ( 'NONE', #172, #254, #308 ) ;
#264 = CARTESIAN_POINT ( 'NONE',  ( 0.1874500000000001165, 0.0000000000000000000, 1.000000000000000000 ) ) ;
#265 = SHAPE_DEFINITION_REPRESENTATION ( #90, #28 ) ;
#266 = DIRECTION ( 'NONE',  ( 0.0000000000000000000, 0.0000000000000000000, -1.000000000000000000 ) ) ;
#267 =( NAMED_UNIT ( * ) PLANE_ANGLE_UNIT ( ) SI_UNIT ( $, .RADIAN. ) );
#268 = CONICAL_SURFACE ( 'NONE', #17, 0.1724999999999995981, 0.7853981633974357335 ) ;
#269 =( LENGTH_UNIT ( ) NAMED_UNIT ( * ) SI_UNIT ( $, .METRE. ) );
#270 = EDGE_LOOP ( 'NONE', ( #125, #98, #54, #22 ) ) ;
#271 = FACE_OUTER_BOUND ( 'NONE', #291, .T. ) ;
#272 = CARTESIAN_POINT ( 'NONE',  ( 0.0000000000000000000, 0.0000000000000000000, 0.0000000000000000000 ) ) ;
#273 = CONICAL_SURFACE ( 'NONE', #66, 0.1724999999999995981, 0.7853981633974357335 ) ;
#274 = DIRECTION ( 'NONE',  ( -0.0000000000000000000, -0.0000000000000000000, -1.000000000000000000 ) ) ;
#275 = LINE ( 'NONE', #301, #46 ) ;
#276 = PLANE ( 'NONE',  #208 ) ;
#277 = VECTOR ( 'NONE', #334, 39.37007874015748143 ) ;
#278 = DIRECTION ( 'NONE',  ( -1.000000000000000000, 0.0000000000000000000, 0.0000000000000000000 ) ) ;
#279 = DIRECTION ( 'NONE',  ( 1.000000000000000000, 0.0000000000000000000, 0.0000000000000000000 ) ) ;
#280 = ORIENTED_EDGE ( 'NONE', *, *, #300, .T. ) ;
#281 = EDGE_CURVE ( 'NONE', #122, #313, #209, .T. ) ;
#282 = CARTESIAN_POINT ( 'NONE',  ( 0.0000000000000000000, 0.0000000000000000000, 2.500000000000000000 ) ) ;
#283 = CARTESIAN_POINT ( 'NONE',  ( 0.0000000000000000000, 0.0000000000000000000, 1.000000000000000000 ) ) ;
#284 = ORIENTED_EDGE ( 'NONE', *, *, #126, .T. ) ;
#285 = DIRECTION ( 'NONE',  ( 0.0000000000000000000, 0.0000000000000000000, 1.000000000000000000 ) ) ;
#286 = ADVANCED_FACE ( 'NONE', ( #252 ), #268, .T. ) ;
#287 = ORIENTED_EDGE ( 'NONE', *, *, #169, .T. ) ;
#288 = CIRCLE ( 'NONE', #133, 0.1875000000000000278 ) ;
#289 = CARTESIAN_POINT ( 'NONE',  ( -0.1724999999999995981, 0.0000000000000000000, 2.500000000000000000 ) ) ;
#290 = VERTEX_POINT ( 'NONE', #8 ) ;
#291 = EDGE_LOOP ( 'NONE', ( #15, #280, #163, #186 ) ) ;
#292 = ORIENTED_EDGE ( 'NONE', *, *, #53, .F. ) ;
#293 = ADVANCED_FACE ( 'NONE', ( #143 ), #93, .T. ) ;
#294 = DIRECTION ( 'NONE',  ( 0.0000000000000000000, 0.0000000000000000000, -1.000000000000000000 ) ) ;
#295 = DIRECTION ( 'NONE',  ( 0.0000000000000000000, 0.0000000000000000000, 1.000000000000000000 ) ) ;
#296 = DIRECTION ( 'NONE',  ( -0.6560590289905088301, 8.034405899049472288E-17, 0.7547095802227706818 ) ) ;
#297 = CIRCLE ( 'NONE', #342, 0.1874500000000000333 ) ;
#298 = ORIENTED_EDGE ( 'NONE', *, *, #57, .F. ) ;
#299 = DIRECTION ( 'NONE',  ( -0.0000000000000000000, -0.0000000000000000000, -1.000000000000000000 ) ) ;
#300 = EDGE_CURVE ( 'NONE', #171, #140, #26, .T. ) ;
#301 = CARTESIAN_POINT ( 'NONE',  ( -0.1874500000000000610, 0.0000000000000000000, 0.0000000000000000000 ) ) ;
#302 = CYLINDRICAL_SURFACE ( 'NONE', #161, 0.1874500000000000610 ) ;
#303 = AXIS2_PLACEMENT_3D ( 'NONE', #107, #189, #247 ) ;
#304 = MECHANICAL_DESIGN_GEOMETRIC_PRESENTATION_REPRESENTATION (  '', ( #119 ), #58 ) ;
#305 = DIRECTION ( 'NONE',  ( 1.000000000000000000, 0.0000000000000000000, 0.0000000000000000000 ) ) ;
#306 = ADVANCED_FACE ( 'NONE', ( #118 ), #52, .T. ) ;
#307 = DIRECTION ( 'NONE',  ( -0.0000000000000000000, -0.0000000000000000000, -1.000000000000000000 ) ) ;
#308 = DIRECTION ( 'NONE',  ( -1.000000000000000000, 0.0000000000000000000, 0.0000000000000000000 ) ) ;
#309 = VERTEX_POINT ( 'NONE', #69 ) ;
#310 = AXIS2_PLACEMENT_3D ( 'NONE', #116, #285, #121 ) ;
#311 = FACE_OUTER_BOUND ( 'NONE', #270, .T. ) ;
#312 = ORIENTED_EDGE ( 'NONE', *, *, #236, .T. ) ;
#313 = VERTEX_POINT ( 'NONE', #231 ) ;
#314 =( CONVERSION_BASED_UNIT ( 'INCH', #152 ) LENGTH_UNIT ( ) NAMED_UNIT ( #222 ) );
#315 = DIRECTION ( 'NONE',  ( -1.000000000000000000, 0.0000000000000000000, 0.0000000000000000000 ) ) ;
#316 = AXIS2_PLACEMENT_3D ( 'NONE', #328, #250, #190 ) ;
#317 = SURFACE_STYLE_USAGE ( .BOTH. , #214 ) ;
#318 = EDGE_LOOP ( 'NONE', ( #235, #298, #312, #284 ) ) ;
#319 = UNCERTAINTY_MEASURE_WITH_UNIT (LENGTH_MEASURE( 1.000000000000000082E-05 ), #314, 'distance_accuracy_value', 'NONE');
#320 =( NAMED_UNIT ( * ) SI_UNIT ( $, .STERADIAN. ) SOLID_ANGLE_UNIT ( ) );
#321 = ORIENTED_EDGE ( 'NONE', *, *, #41, .F. ) ;
#322 = CIRCLE ( 'NONE', #182, 0.1875000000000000278 ) ;
#323 = DIRECTION ( 'NONE',  ( -0.0000000000000000000, -0.0000000000000000000, -1.000000000000000000 ) ) ;
#324 =( NAMED_UNIT ( * ) PLANE_ANGLE_UNIT ( ) SI_UNIT ( $, .RADIAN. ) );
#325 = LINE ( 'NONE', #216, #103 ) ;
#326 = DIRECTION ( 'NONE',  ( 0.0000000000000000000, 0.0000000000000000000, 1.000000000000000000 ) ) ;
#327 = CONICAL_SURFACE ( 'NONE', #241, 0.02800000000000000405, 0.7155849933176771094 ) ;
#328 = CARTESIAN_POINT ( 'NONE',  ( 0.0000000000000000000, 0.0000000000000000000, 2.500000000000000000 ) ) ;
#329 = FACE_OUTER_BOUND ( 'NONE', #344, .T. ) ;
#330 = VECTOR ( 'NONE', #274, 39.37007874015748143 ) ;
#331 = CARTESIAN_POINT ( 'NONE',  ( 0.1875000000000000278, 2.296212748401287726E-17, 2.484999999999999432 ) ) ;
#332 = APPLICATION_CONTEXT ( 'automotive_design' ) ;
#333 = EDGE_LOOP ( 'NONE', ( #50, #81 ) ) ;
#334 = DIRECTION ( 'NONE',  ( -0.0000000000000000000, -0.0000000000000000000, -1.000000000000000000 ) ) ;
#335 = CARTESIAN_POINT ( 'NONE',  ( 0.0000000000000000000, 0.0000000000000000000, 2.500000000000000000 ) ) ;
#336 = ADVANCED_FACE ( 'NONE', ( #329 ), #120, .T. ) ;
#337 = SURFACE_SIDE_STYLE ('',( #16 ) ) ;
#338 = EDGE_LOOP ( 'NONE', ( #147, #256, #153, #321 ) ) ;
#339 = CARTESIAN_POINT ( 'NONE',  ( -0.1874500000000000333, 0.0000000000000000000, 0.1834262425313892275 ) ) ;
#340 = PRODUCT_DEFINITION ( 'UNKNOWN', '', #4, #84 ) ;
#341 = EDGE_LOOP ( 'NONE', ( #40, #232, #82, #201 ) ) ;
#342 = AXIS2_PLACEMENT_3D ( 'NONE', #33, #323, #85 ) ;
#343 = ORIENTED_EDGE ( 'NONE', *, *, #346, .F. ) ;
#344 = EDGE_LOOP ( 'NONE', ( #13, #242 ) ) ;
#345 = DIRECTION ( 'NONE',  ( 1.000000000000000000, 0.0000000000000000000, -0.0000000000000000000 ) ) ;
#346 = EDGE_CURVE ( 'NONE', #140, #122, #71, .T. ) ;
#347 = CIRCLE ( 'NONE', #155, 0.1874500000000000333 ) ;
#348 = CARTESIAN_POINT ( 'NONE',  ( 0.1874500000000000610, 2.295600425001714235E-17, 0.0000000000000000000 ) ) ;
#349 = EDGE_CURVE ( 'NONE', #245, #260, #115, .T. ) ;
ENDSEC;
END-ISO-10303-21;
