ISO-10303-21;
HEADER;
FILE_DESCRIPTION (( 'STEP AP214' ),
    '1' );
FILE_NAME ('05142.STEP',
    '2023-06-22T15:53:54',
    ( '' ),
    ( '' ),
    'SwSTEP 2.0',
    'SolidWorks 2023',
    '' );
FILE_SCHEMA (( 'AUTOMOTIVE_DESIGN' ));
ENDSEC;

DATA;
#1 = SURFACE_SIDE_STYLE ('',( #213 ) ) ;
#2 = CARTESIAN_POINT ( 'NONE',  ( 0.000000000000000000, 0.7500000000000001110, 0.000000000000000000 ) ) ;
#3 = EDGE_LOOP ( 'NONE', ( #207, #8, #194, #51 ) ) ;
#4 = PRESENTATION_STYLE_ASSIGNMENT (( #185 ) ) ;
#5 = ORIENTED_EDGE ( 'NONE', *, *, #283, .T. ) ;
#6 = FILL_AREA_STYLE_COLOUR ( '', #226 ) ;
#7 = CARTESIAN_POINT ( 'NONE',  ( 0.000000000000000000, 0.7500000000000001110, -0.1250000000000000278 ) ) ;
#8 = ORIENTED_EDGE ( 'NONE', *, *, #265, .T. ) ;
#9 = VECTOR ( 'NONE', #240, 39.37007874015748143 ) ;
#10 = MANIFOLD_SOLID_BREP ( 'Revolve - Tool Body (Straight Shanked)', #292 ) ;
#11 = DIRECTION ( 'NONE',  ( -0.000000000000000000, -1.000000000000000000, -0.000000000000000000 ) ) ;
#12 = EDGE_CURVE ( 'NONE', #142, #95, #224, .T. ) ;
#13 = VERTEX_POINT ( 'NONE', #202 ) ;
#14 = CYLINDRICAL_SURFACE ( 'NONE', #193, 0.1250000000000000278 ) ;
#15 = PLANE ( 'NONE',  #77 ) ;
#16 = LENGTH_MEASURE_WITH_UNIT ( LENGTH_MEASURE( 0.02539999999999999897 ), #227 );
#17 = COLOUR_RGB ( '',0.7921568627450980005, 0.8196078431372548767, 0.9333333333333333481 ) ;
#18 = AXIS2_PLACEMENT_3D ( 'NONE', #154, #137, #50 ) ;
#19 = FILL_AREA_STYLE_COLOUR ( '', #231 ) ;
#20 = LINE ( 'NONE', #266, #297 ) ;
#21 = LENGTH_MEASURE_WITH_UNIT ( LENGTH_MEASURE( 0.02539999999999999897 ), #267 );
#22 = DIRECTION ( 'NONE',  ( -0.000000000000000000, -1.000000000000000000, -0.000000000000000000 ) ) ;
#23 = CARTESIAN_POINT ( 'NONE',  ( 0.000000000000000000, 0.000000000000000000, 0.000000000000000000 ) ) ;
#24 = CIRCLE ( 'NONE', #182, 0.1250000000000000555 ) ;
#25 = MECHANICAL_DESIGN_GEOMETRIC_PRESENTATION_REPRESENTATION (  '', ( #258 ), #58 ) ;
#26 = SURFACE_STYLE_FILL_AREA ( #116 ) ;
#27 = ADVANCED_FACE ( 'NONE', ( #298 ), #14, .T. ) ;
#28 = ORIENTED_EDGE ( 'NONE', *, *, #12, .T. ) ;
#29 = CARTESIAN_POINT ( 'NONE',  ( -6.123233995736766036E-17, 2.500000000000000000, 0.000000000000000000 ) ) ;
#30 = DIRECTION ( 'NONE',  ( -3.498990854706722745E-17, 1.000000000000000000, -0.000000000000000000 ) ) ;
#31 = AXIS2_PLACEMENT_3D ( 'NONE', #305, #122, #123 ) ;
#32 = CARTESIAN_POINT ( 'NONE',  ( 0.000000000000000000, 0.000000000000000000, 0.000000000000000000 ) ) ;
#33 = DIMENSIONAL_EXPONENTS ( 1.000000000000000000, 0.000000000000000000, 0.000000000000000000, 0.000000000000000000, 0.000000000000000000, 0.000000000000000000, 0.000000000000000000 ) ;
#34 = VERTEX_POINT ( 'NONE', #61 ) ;
#35 = EDGE_CURVE ( 'NONE', #34, #40, #24, .T. ) ;
#36 =( NAMED_UNIT ( * ) PLANE_ANGLE_UNIT ( ) SI_UNIT ( $, .RADIAN. ) );
#37 = CLOSED_SHELL ( 'NONE', ( #290, #83, #229, #255 ) ) ;
#38 = EDGE_LOOP ( 'NONE', ( #84, #288, #28, #192 ) ) ;
#39 = CIRCLE ( 'NONE', #209, 0.1250000000000000278 ) ;
#40 = VERTEX_POINT ( 'NONE', #250 ) ;
#41 = ORIENTED_EDGE ( 'NONE', *, *, #210, .T. ) ;
#42 =( NAMED_UNIT ( * ) PLANE_ANGLE_UNIT ( ) SI_UNIT ( $, .RADIAN. ) );
#43 = ORIENTED_EDGE ( 'NONE', *, *, #186, .F. ) ;
#44 = SURFACE_SIDE_STYLE ('',( #87 ) ) ;
#45 =( CONVERSION_BASED_UNIT ( 'INCH', #16 ) LENGTH_UNIT ( ) NAMED_UNIT ( #220 ) );
#46 = AXIS2_PLACEMENT_3D ( 'NONE', #152, #138, #119 ) ;
#47 = AXIS2_PLACEMENT_3D ( 'NONE', #223, #169, #99 ) ;
#48 = FACE_OUTER_BOUND ( 'NONE', #109, .T. ) ;
#49 =( NAMED_UNIT ( * ) PLANE_ANGLE_UNIT ( ) SI_UNIT ( $, .RADIAN. ) );
#50 = DIRECTION ( 'NONE',  ( 0.000000000000000000, 0.000000000000000000, -1.000000000000000000 ) ) ;
#51 = ORIENTED_EDGE ( 'NONE', *, *, #283, .F. ) ;
#52 = AXIS2_PLACEMENT_3D ( 'NONE', #156, #257, #234 ) ;
#53 = DIRECTION ( 'NONE',  ( -0.000000000000000000, -1.000000000000000000, -0.000000000000000000 ) ) ;
#54 = DIRECTION ( 'NONE',  ( 0.000000000000000000, 0.000000000000000000, -1.000000000000000000 ) ) ;
#55 = CIRCLE ( 'NONE', #52, 0.1250000000000000278 ) ;
#56 = ORIENTED_EDGE ( 'NONE', *, *, #12, .F. ) ;
#57 =( LENGTH_UNIT ( ) NAMED_UNIT ( * ) SI_UNIT ( $, .METRE. ) );
#58 =( GEOMETRIC_REPRESENTATION_CONTEXT ( 3 ) GLOBAL_UNCERTAINTY_ASSIGNED_CONTEXT ( ( #184 ) ) GLOBAL_UNIT_ASSIGNED_CONTEXT ( ( #284, #112, #278 ) ) REPRESENTATION_CONTEXT ( 'NONE', 'WORKASPACE' ) );
#59 = DIMENSIONAL_EXPONENTS ( 1.000000000000000000, 0.000000000000000000, 0.000000000000000000, 0.000000000000000000, 0.000000000000000000, 0.000000000000000000, 0.000000000000000000 ) ;
#60 = FILL_AREA_STYLE ('',( #79 ) ) ;
#61 = CARTESIAN_POINT ( 'NONE',  ( -0.1250000000000001110, 2.500000000000000000, 0.000000000000000000 ) ) ;
#62 = DIRECTION ( 'NONE',  ( 0.000000000000000000, 0.000000000000000000, -1.000000000000000000 ) ) ;
#63 = FACE_OUTER_BOUND ( 'NONE', #121, .T. ) ;
#64 = STYLED_ITEM ( 'NONE', ( #294 ), #83 ) ;
#65 = STYLED_ITEM ( 'NONE', ( #272 ), #212 ) ;
#66 = FILL_AREA_STYLE_COLOUR ( '', #91 ) ;
#67 = UNCERTAINTY_MEASURE_WITH_UNIT (LENGTH_MEASURE( 1.000000000000000082E-05 ), #45, 'distance_accuracy_value', 'NONE');
#68 = DIRECTION ( 'NONE',  ( -3.498990854706722745E-17, 1.000000000000000000, 0.000000000000000000 ) ) ;
#69 = PRESENTATION_LAYER_ASSIGNMENT (  '', '', ( #72 ) ) ;
#70 = CARTESIAN_POINT ( 'NONE',  ( 0.000000000000000000, 0.000000000000000000, 0.000000000000000000 ) ) ;
#71 = PRESENTATION_STYLE_ASSIGNMENT (( #232 ) ) ;
#72 = STYLED_ITEM ( 'NONE', ( #296 ), #10 ) ;
#73 = DIMENSIONAL_EXPONENTS ( 1.000000000000000000, 0.000000000000000000, 0.000000000000000000, 0.000000000000000000, 0.000000000000000000, 0.000000000000000000, 0.000000000000000000 ) ;
#74 = LENGTH_MEASURE_WITH_UNIT ( LENGTH_MEASURE( 0.02539999999999999897 ), #281 );
#75 = LINE ( 'NONE', #241, #9 ) ;
#76 = DIMENSIONAL_EXPONENTS ( 1.000000000000000000, 0.000000000000000000, 0.000000000000000000, 0.000000000000000000, 0.000000000000000000, 0.000000000000000000, 0.000000000000000000 ) ;
#77 = AXIS2_PLACEMENT_3D ( 'NONE', #103, #201, #131 ) ;
#78 = DIRECTION ( 'NONE',  ( 0.000000000000000000, 0.000000000000000000, -1.000000000000000000 ) ) ;
#79 = FILL_AREA_STYLE_COLOUR ( '', #17 ) ;
#80 =( CONVERSION_BASED_UNIT ( 'INCH', #243 ) LENGTH_UNIT ( ) NAMED_UNIT ( #73 ) );
#81 = VECTOR ( 'NONE', #11, 39.37007874015748143 ) ;
#82 = CIRCLE ( 'NONE', #105, 0.1250000000000000278 ) ;
#83 = ADVANCED_FACE ( 'NONE', ( #90 ), #177, .T. ) ;
#84 = ORIENTED_EDGE ( 'NONE', *, *, #166, .F. ) ;
#85 =( NAMED_UNIT ( * ) SI_UNIT ( $, .STERADIAN. ) SOLID_ANGLE_UNIT ( ) );
#86 = DIRECTION ( 'NONE',  ( -3.498990854706722745E-17, 1.000000000000000000, -0.000000000000000000 ) ) ;
#87 = SURFACE_STYLE_FILL_AREA ( #175 ) ;
#88 = APPLICATION_CONTEXT ( 'automotive_design' ) ;
#89 = FILL_AREA_STYLE ('',( #180 ) ) ;
#90 = FACE_OUTER_BOUND ( 'NONE', #286, .T. ) ;
#91 = COLOUR_RGB ( '',1.000000000000000000, 0.000000000000000000, 0.000000000000000000 ) ;
#92 = PLANE ( 'NONE',  #279 ) ;
#93 = COLOUR_RGB ( '',0.7921568627450980005, 0.8196078431372548767, 0.9333333333333333481 ) ;
#94 = VERTEX_POINT ( 'NONE', #218 ) ;
#95 = VERTEX_POINT ( 'NONE', #282 ) ;
#96 =( GEOMETRIC_REPRESENTATION_CONTEXT ( 3 ) GLOBAL_UNCERTAINTY_ASSIGNED_CONTEXT ( ( #277 ) ) GLOBAL_UNIT_ASSIGNED_CONTEXT ( ( #102, #49, #274 ) ) REPRESENTATION_CONTEXT ( 'NONE', 'WORKASPACE' ) );
#97 = COLOUR_RGB ( '',1.000000000000000000, 0.000000000000000000, 0.000000000000000000 ) ;
#98 = ORIENTED_EDGE ( 'NONE', *, *, #203, .F. ) ;
#99 = DIRECTION ( 'NONE',  ( 1.000000000000000000, 0.000000000000000000, 0.000000000000000000 ) ) ;
#100 =( GEOMETRIC_REPRESENTATION_CONTEXT ( 3 ) GLOBAL_UNCERTAINTY_ASSIGNED_CONTEXT ( ( #204 ) ) GLOBAL_UNIT_ASSIGNED_CONTEXT ( ( #108, #42, #150 ) ) REPRESENTATION_CONTEXT ( 'NONE', 'WORKASPACE' ) );
#101 =( NAMED_UNIT ( * ) PLANE_ANGLE_UNIT ( ) SI_UNIT ( $, .RADIAN. ) );
#102 =( CONVERSION_BASED_UNIT ( 'INCH', #300 ) LENGTH_UNIT ( ) NAMED_UNIT ( #216 ) );
#103 = CARTESIAN_POINT ( 'NONE',  ( 0.1249999999999999861, 2.500000000000000000, 0.000000000000000000 ) ) ;
#104 = CARTESIAN_POINT ( 'NONE',  ( 0.000000000000000000, 0.000000000000000000, -0.1250000000000000000 ) ) ;
#105 = AXIS2_PLACEMENT_3D ( 'NONE', #2, #164, #254 ) ;
#106 = DIRECTION ( 'NONE',  ( -3.498990854706722745E-17, 1.000000000000000000, -0.000000000000000000 ) ) ;
#107 = SURFACE_SIDE_STYLE ('',( #273 ) ) ;
#108 =( CONVERSION_BASED_UNIT ( 'INCH', #21 ) LENGTH_UNIT ( ) NAMED_UNIT ( #136 ) );
#109 = EDGE_LOOP ( 'NONE', ( #134, #5 ) ) ;
#110 =( LENGTH_UNIT ( ) NAMED_UNIT ( * ) SI_UNIT ( $, .METRE. ) );
#111 =( GEOMETRIC_REPRESENTATION_CONTEXT ( 3 ) GLOBAL_UNCERTAINTY_ASSIGNED_CONTEXT ( ( #67 ) ) GLOBAL_UNIT_ASSIGNED_CONTEXT ( ( #45, #101, #129 ) ) REPRESENTATION_CONTEXT ( 'NONE', 'WORKASPACE' ) );
#112 =( NAMED_UNIT ( * ) PLANE_ANGLE_UNIT ( ) SI_UNIT ( $, .RADIAN. ) );
#113 = CARTESIAN_POINT ( 'NONE',  ( 0.1250000000000000278, 0.7499999999999998890, 1.530808498934192125E-17 ) ) ;
#114 = SURFACE_SIDE_STYLE ('',( #26 ) ) ;
#115 = ORIENTED_EDGE ( 'NONE', *, *, #35, .F. ) ;
#116 = FILL_AREA_STYLE ('',( #6 ) ) ;
#117 = ORIENTED_EDGE ( 'NONE', *, *, #265, .F. ) ;
#118 = FACE_OUTER_BOUND ( 'NONE', #190, .T. ) ;
#119 = DIRECTION ( 'NONE',  ( 0.000000000000000000, -0.000000000000000000, 1.000000000000000000 ) ) ;
#120 = CIRCLE ( 'NONE', #31, 0.1250000000000000000 ) ;
#121 = EDGE_LOOP ( 'NONE', ( #269, #160, #115, #263 ) ) ;
#122 = DIRECTION ( 'NONE',  ( -0.000000000000000000, -1.000000000000000000, -0.000000000000000000 ) ) ;
#123 = DIRECTION ( 'NONE',  ( 0.000000000000000000, 0.000000000000000000, -1.000000000000000000 ) ) ;
#124 = EDGE_LOOP ( 'NONE', ( #187, #171 ) ) ;
#125 = CYLINDRICAL_SURFACE ( 'NONE', #251, 0.1250000000000000278 ) ;
#126 = STYLED_ITEM ( 'NONE', ( #71 ), #255 ) ;
#127 = DIRECTION ( 'NONE',  ( -1.000000000000000000, 0.000000000000000000, 0.000000000000000000 ) ) ;
#128 = SURFACE_STYLE_USAGE ( .BOTH. , #44 ) ;
#129 =( NAMED_UNIT ( * ) SI_UNIT ( $, .STERADIAN. ) SOLID_ANGLE_UNIT ( ) );
#130 = AXIS2_PLACEMENT_3D ( 'NONE', #29, #30, #189 ) ;
#131 = DIRECTION ( 'NONE',  ( 1.000000000000000000, 3.498990854706722745E-17, 0.000000000000000000 ) ) ;
#132 = PRODUCT_DEFINITION_CONTEXT ( 'detailed design', #88, 'design' ) ;
#133 =( LENGTH_UNIT ( ) NAMED_UNIT ( * ) SI_UNIT ( $, .METRE. ) );
#134 = ORIENTED_EDGE ( 'NONE', *, *, #35, .T. ) ;
#135 = PLANE ( 'NONE',  #18 ) ;
#136 = DIMENSIONAL_EXPONENTS ( 1.000000000000000000, 0.000000000000000000, 0.000000000000000000, 0.000000000000000000, 0.000000000000000000, 0.000000000000000000, 0.000000000000000000 ) ;
#137 = DIRECTION ( 'NONE',  ( 0.000000000000000000, -1.000000000000000000, -0.000000000000000000 ) ) ;
#138 = DIRECTION ( 'NONE',  ( 0.000000000000000000, 1.000000000000000000, 0.000000000000000000 ) ) ;
#139 =( LENGTH_UNIT ( ) NAMED_UNIT ( * ) SI_UNIT ( $, .METRE. ) );
#140 = DIRECTION ( 'NONE',  ( -0.000000000000000000, -1.000000000000000000, -0.000000000000000000 ) ) ;
#141 = ORIENTED_EDGE ( 'NONE', *, *, #166, .T. ) ;
#142 = VERTEX_POINT ( 'NONE', #7 ) ;
#143 = AXIS2_PLACEMENT_3D ( 'NONE', #70, #53, #54 ) ;
#144 = DIRECTION ( 'NONE',  ( -3.498990854706722745E-17, 1.000000000000000000, -0.000000000000000000 ) ) ;
#145 = DIRECTION ( 'NONE',  ( -1.000000000000000000, 0.000000000000000000, 0.000000000000000000 ) ) ;
#146 = SURFACE_STYLE_FILL_AREA ( #60 ) ;
#147 = UNCERTAINTY_MEASURE_WITH_UNIT (LENGTH_MEASURE( 1.000000000000000082E-05 ), #80, 'distance_accuracy_value', 'NONE');
#148 = SURFACE_STYLE_USAGE ( .BOTH. , #172 ) ;
#149 = CIRCLE ( 'NONE', #130, 0.1250000000000000555 ) ;
#150 =( NAMED_UNIT ( * ) SI_UNIT ( $, .STERADIAN. ) SOLID_ANGLE_UNIT ( ) );
#151 = DIRECTION ( 'NONE',  ( -1.000000000000000000, -3.498990854706722745E-17, 0.000000000000000000 ) ) ;
#152 = CARTESIAN_POINT ( 'NONE',  ( 0.000000000000000000, 0.7500000000000001110, 0.000000000000000000 ) ) ;
#153 = PRESENTATION_LAYER_ASSIGNMENT (  '', '', ( #162 ) ) ;
#154 = CARTESIAN_POINT ( 'NONE',  ( 0.000000000000000000, 0.000000000000000000, 0.000000000000000000 ) ) ;
#155 = VERTEX_POINT ( 'NONE', #285 ) ;
#156 = CARTESIAN_POINT ( 'NONE',  ( -7.582401355855259480E-33, 0.7499999999999998890, 0.000000000000000000 ) ) ;
#157 =( GEOMETRIC_REPRESENTATION_CONTEXT ( 3 ) GLOBAL_UNCERTAINTY_ASSIGNED_CONTEXT ( ( #306 ) ) GLOBAL_UNIT_ASSIGNED_CONTEXT ( ( #260, #259, #238 ) ) REPRESENTATION_CONTEXT ( 'NONE', 'WORKASPACE' ) );
#158 = FILL_AREA_STYLE_COLOUR ( '', #97 ) ;
#159 = CARTESIAN_POINT ( 'NONE',  ( 1.530808498934191509E-17, 0.000000000000000000, 0.1250000000000000000 ) ) ;
#160 = ORIENTED_EDGE ( 'NONE', *, *, #295, .T. ) ;
#161 = APPLICATION_CONTEXT ( 'automotive_design' ) ;
#162 = STYLED_ITEM ( 'NONE', ( #206 ), #229 ) ;
#163 = SHAPE_DEFINITION_REPRESENTATION ( #301, #303 ) ;
#164 = DIRECTION ( 'NONE',  ( -0.000000000000000000, -1.000000000000000000, -0.000000000000000000 ) ) ;
#165 =( NAMED_UNIT ( * ) SI_UNIT ( $, .STERADIAN. ) SOLID_ANGLE_UNIT ( ) );
#166 = EDGE_CURVE ( 'NONE', #13, #94, #221, .T. ) ;
#167 = SURFACE_STYLE_USAGE ( .BOTH. , #253 ) ;
#168 = MECHANICAL_DESIGN_GEOMETRIC_PRESENTATION_REPRESENTATION (  '', ( #64 ), #96 ) ;
#169 = DIRECTION ( 'NONE',  ( 0.000000000000000000, 0.000000000000000000, 1.000000000000000000 ) ) ;
#170 =( GEOMETRIC_REPRESENTATION_CONTEXT ( 3 ) GLOBAL_UNCERTAINTY_ASSIGNED_CONTEXT ( ( #147 ) ) GLOBAL_UNIT_ASSIGNED_CONTEXT ( ( #80, #36, #165 ) ) REPRESENTATION_CONTEXT ( 'NONE', 'WORKASPACE' ) );
#171 = ORIENTED_EDGE ( 'NONE', *, *, #276, .T. ) ;
#172 = SURFACE_SIDE_STYLE ('',( #252 ) ) ;
#173 = DIRECTION ( 'NONE',  ( -1.000000000000000000, 0.000000000000000000, 0.000000000000000000 ) ) ;
#174 = CARTESIAN_POINT ( 'NONE',  ( 0.000000000000000000, 0.7500000000000001110, 0.000000000000000000 ) ) ;
#175 = FILL_AREA_STYLE ('',( #66 ) ) ;
#176 = EDGE_LOOP ( 'NONE', ( #242, #117 ) ) ;
#177 = PLANE ( 'NONE',  #46 ) ;
#178 = DIRECTION ( 'NONE',  ( -0.000000000000000000, -1.000000000000000000, -0.000000000000000000 ) ) ;
#179 = EDGE_CURVE ( 'NONE', #155, #248, #39, .T. ) ;
#180 = FILL_AREA_STYLE_COLOUR ( '', #93 ) ;
#181 = EDGE_CURVE ( 'NONE', #155, #34, #20, .T. ) ;
#182 = AXIS2_PLACEMENT_3D ( 'NONE', #302, #268, #127 ) ;
#183 =( GEOMETRIC_REPRESENTATION_CONTEXT ( 3 ) GLOBAL_UNCERTAINTY_ASSIGNED_CONTEXT ( ( #228 ) ) GLOBAL_UNIT_ASSIGNED_CONTEXT ( ( #304, #205, #85 ) ) REPRESENTATION_CONTEXT ( 'NONE', 'WORKASPACE' ) );
#184 = UNCERTAINTY_MEASURE_WITH_UNIT (LENGTH_MEASURE( 1.000000000000000082E-05 ), #284, 'distance_accuracy_value', 'NONE');
#185 = SURFACE_STYLE_USAGE ( .BOTH. , #114 ) ;
#186 = EDGE_CURVE ( 'NONE', #13, #142, #293, .T. ) ;
#187 = ORIENTED_EDGE ( 'NONE', *, *, #203, .T. ) ;
#188 = MECHANICAL_DESIGN_GEOMETRIC_PRESENTATION_REPRESENTATION (  '', ( #65 ), #183 ) ;
#189 = DIRECTION ( 'NONE',  ( -1.000000000000000000, 0.000000000000000000, 0.000000000000000000 ) ) ;
#190 = EDGE_LOOP ( 'NONE', ( #41, #141, #98, #56 ) ) ;
#191 = APPLICATION_PROTOCOL_DEFINITION ( 'draft international standard', 'automotive_design', 1998, #161 ) ;
#192 = ORIENTED_EDGE ( 'NONE', *, *, #276, .F. ) ;
#193 = AXIS2_PLACEMENT_3D ( 'NONE', #246, #86, #173 ) ;
#194 = ORIENTED_EDGE ( 'NONE', *, *, #181, .T. ) ;
#195 = SURFACE_STYLE_USAGE ( .BOTH. , #107 ) ;
#196 = APPLICATION_PROTOCOL_DEFINITION ( 'draft international standard', 'automotive_design', 1998, #88 ) ;
#197 = FILL_AREA_STYLE ('',( #19 ) ) ;
#198 = VECTOR ( 'NONE', #22, 39.37007874015748143 ) ;
#199 = DIRECTION ( 'NONE',  ( -1.000000000000000000, 0.000000000000000000, 0.000000000000000000 ) ) ;
#200 = MECHANICAL_DESIGN_GEOMETRIC_PRESENTATION_REPRESENTATION (  '', ( #162 ), #100 ) ;
#201 = DIRECTION ( 'NONE',  ( 3.498990854706722745E-17, -1.000000000000000000, 0.000000000000000000 ) ) ;
#202 = CARTESIAN_POINT ( 'NONE',  ( 1.530808498934191817E-17, 0.7500000000000001110, 0.1250000000000000278 ) ) ;
#203 = EDGE_CURVE ( 'NONE', #95, #94, #120, .T. ) ;
#204 = UNCERTAINTY_MEASURE_WITH_UNIT (LENGTH_MEASURE( 1.000000000000000082E-05 ), #108, 'distance_accuracy_value', 'NONE');
#205 =( NAMED_UNIT ( * ) PLANE_ANGLE_UNIT ( ) SI_UNIT ( $, .RADIAN. ) );
#206 = PRESENTATION_STYLE_ASSIGNMENT (( #128 ) ) ;
#207 = ORIENTED_EDGE ( 'NONE', *, *, #295, .F. ) ;
#208 = LENGTH_MEASURE_WITH_UNIT ( LENGTH_MEASURE( 0.02539999999999999897 ), #110 );
#209 = AXIS2_PLACEMENT_3D ( 'NONE', #287, #261, #199 ) ;
#210 = EDGE_CURVE ( 'NONE', #142, #13, #82, .T. ) ;
#211 = DIRECTION ( 'NONE',  ( 0.000000000000000000, 0.000000000000000000, -1.000000000000000000 ) ) ;
#212 = MANIFOLD_SOLID_BREP ( 'Revolve - Cutting Edge', #37 ) ;
#213 = SURFACE_STYLE_FILL_AREA ( #280 ) ;
#214 = CIRCLE ( 'NONE', #143, 0.1250000000000000000 ) ;
#215 = PRODUCT_DEFINITION ( 'UNKNOWN', '', #219, #132 ) ;
#216 = DIMENSIONAL_EXPONENTS ( 1.000000000000000000, 0.000000000000000000, 0.000000000000000000, 0.000000000000000000, 0.000000000000000000, 0.000000000000000000, 0.000000000000000000 ) ;
#217 = CYLINDRICAL_SURFACE ( 'NONE', #264, 0.1250000000000000000 ) ;
#218 = CARTESIAN_POINT ( 'NONE',  ( 1.530808498934191509E-17, 0.000000000000000000, 0.1250000000000000000 ) ) ;
#219 = PRODUCT_DEFINITION_FORMATION_WITH_SPECIFIED_SOURCE ( 'ANY', '', #289, .NOT_KNOWN. ) ;
#220 = DIMENSIONAL_EXPONENTS ( 1.000000000000000000, 0.000000000000000000, 0.000000000000000000, 0.000000000000000000, 0.000000000000000000, 0.000000000000000000, 0.000000000000000000 ) ;
#221 = LINE ( 'NONE', #159, #81 ) ;
#222 = ADVANCED_FACE ( 'NONE', ( #63 ), #125, .T. ) ;
#223 = CARTESIAN_POINT ( 'NONE',  ( 0.000000000000000000, 0.000000000000000000, 0.000000000000000000 ) ) ;
#224 = LINE ( 'NONE', #104, #198 ) ;
#225 = AXIS2_PLACEMENT_3D ( 'NONE', #23, #178, #211 ) ;
#226 = COLOUR_RGB ( '',1.000000000000000000, 0.000000000000000000, 0.000000000000000000 ) ;
#227 =( LENGTH_UNIT ( ) NAMED_UNIT ( * ) SI_UNIT ( $, .METRE. ) );
#228 = UNCERTAINTY_MEASURE_WITH_UNIT (LENGTH_MEASURE( 1.000000000000000082E-05 ), #304, 'distance_accuracy_value', 'NONE');
#229 = ADVANCED_FACE ( 'NONE', ( #249 ), #230, .T. ) ;
#230 = CYLINDRICAL_SURFACE ( 'NONE', #225, 0.1250000000000000000 ) ;
#231 = COLOUR_RGB ( '',1.000000000000000000, 0.000000000000000000, 0.000000000000000000 ) ;
#232 = SURFACE_STYLE_USAGE ( .BOTH. , #1 ) ;
#233 = ADVANCED_FACE ( 'NONE', ( #307 ), #92, .F. ) ;
#234 = DIRECTION ( 'NONE',  ( -1.000000000000000000, 0.000000000000000000, 0.000000000000000000 ) ) ;
#235 = MECHANICAL_DESIGN_GEOMETRIC_PRESENTATION_REPRESENTATION (  '', ( #126 ), #157 ) ;
#236 = FACE_OUTER_BOUND ( 'NONE', #124, .T. ) ;
#237 = PRODUCT_RELATED_PRODUCT_CATEGORY ( 'part', '', ( #289 ) ) ;
#238 =( NAMED_UNIT ( * ) SI_UNIT ( $, .STERADIAN. ) SOLID_ANGLE_UNIT ( ) );
#239 = ADVANCED_FACE ( 'NONE', ( #48 ), #15, .F. ) ;
#240 = DIRECTION ( 'NONE',  ( -3.498990854706722745E-17, 1.000000000000000000, -0.000000000000000000 ) ) ;
#241 = CARTESIAN_POINT ( 'NONE',  ( 0.1249999999999999584, 2.500000000000000000, 1.530808498934191817E-17 ) ) ;
#242 = ORIENTED_EDGE ( 'NONE', *, *, #179, .F. ) ;
#243 = LENGTH_MEASURE_WITH_UNIT ( LENGTH_MEASURE( 0.02539999999999999897 ), #139 );
#244 = MECHANICAL_DESIGN_GEOMETRIC_PRESENTATION_REPRESENTATION (  '', ( #72 ), #111 ) ;
#245 = PRESENTATION_LAYER_ASSIGNMENT (  '', '', ( #65 ) ) ;
#246 = CARTESIAN_POINT ( 'NONE',  ( -6.123233995736766036E-17, 2.500000000000000000, 0.000000000000000000 ) ) ;
#247 = DIRECTION ( 'NONE',  ( -0.000000000000000000, -1.000000000000000000, -0.000000000000000000 ) ) ;
#248 = VERTEX_POINT ( 'NONE', #113 ) ;
#249 = FACE_OUTER_BOUND ( 'NONE', #38, .T. ) ;
#250 = CARTESIAN_POINT ( 'NONE',  ( 0.1250000000000000000, 2.500000000000000000, 1.530808498934192125E-17 ) ) ;
#251 = AXIS2_PLACEMENT_3D ( 'NONE', #299, #106, #145 ) ;
#252 = SURFACE_STYLE_FILL_AREA ( #89 ) ;
#253 = SURFACE_SIDE_STYLE ('',( #146 ) ) ;
#254 = DIRECTION ( 'NONE',  ( 0.000000000000000000, 0.000000000000000000, -1.000000000000000000 ) ) ;
#255 = ADVANCED_FACE ( 'NONE', ( #236 ), #135, .T. ) ;
#256 = ORIENTED_EDGE ( 'NONE', *, *, #210, .F. ) ;
#257 = DIRECTION ( 'NONE',  ( -3.498990854706722745E-17, 1.000000000000000000, -0.000000000000000000 ) ) ;
#258 = STYLED_ITEM ( 'NONE', ( #4 ), #290 ) ;
#259 =( NAMED_UNIT ( * ) PLANE_ANGLE_UNIT ( ) SI_UNIT ( $, .RADIAN. ) );
#260 =( CONVERSION_BASED_UNIT ( 'INCH', #309 ) LENGTH_UNIT ( ) NAMED_UNIT ( #59 ) );
#261 = DIRECTION ( 'NONE',  ( -3.498990854706722745E-17, 1.000000000000000000, -0.000000000000000000 ) ) ;
#262 = AXIS2_PLACEMENT_3D ( 'NONE', #174, #247, #62 ) ;
#263 = ORIENTED_EDGE ( 'NONE', *, *, #181, .F. ) ;
#264 = AXIS2_PLACEMENT_3D ( 'NONE', #32, #140, #78 ) ;
#265 = EDGE_CURVE ( 'NONE', #248, #155, #55, .T. ) ;
#266 = CARTESIAN_POINT ( 'NONE',  ( -0.1250000000000001110, 2.500000000000000000, 0.000000000000000000 ) ) ;
#267 =( LENGTH_UNIT ( ) NAMED_UNIT ( * ) SI_UNIT ( $, .METRE. ) );
#268 = DIRECTION ( 'NONE',  ( -3.498990854706722745E-17, 1.000000000000000000, -0.000000000000000000 ) ) ;
#269 = ORIENTED_EDGE ( 'NONE', *, *, #179, .T. ) ;
#270 = PRESENTATION_LAYER_ASSIGNMENT (  '', '', ( #64 ) ) ;
#271 = PRESENTATION_LAYER_ASSIGNMENT (  '', '', ( #258 ) ) ;
#272 = PRESENTATION_STYLE_ASSIGNMENT (( #148 ) ) ;
#273 = SURFACE_STYLE_FILL_AREA ( #197 ) ;
#274 =( NAMED_UNIT ( * ) SI_UNIT ( $, .STERADIAN. ) SOLID_ANGLE_UNIT ( ) );
#275 = CARTESIAN_POINT ( 'NONE',  ( 7.651835625825803009E-35, 0.7500000000000001110, 0.000000000000000000 ) ) ;
#276 = EDGE_CURVE ( 'NONE', #94, #95, #214, .T. ) ;
#277 = UNCERTAINTY_MEASURE_WITH_UNIT (LENGTH_MEASURE( 1.000000000000000082E-05 ), #102, 'distance_accuracy_value', 'NONE');
#278 =( NAMED_UNIT ( * ) SI_UNIT ( $, .STERADIAN. ) SOLID_ANGLE_UNIT ( ) );
#279 = AXIS2_PLACEMENT_3D ( 'NONE', #275, #68, #151 ) ;
#280 = FILL_AREA_STYLE ('',( #158 ) ) ;
#281 =( LENGTH_UNIT ( ) NAMED_UNIT ( * ) SI_UNIT ( $, .METRE. ) );
#282 = CARTESIAN_POINT ( 'NONE',  ( 0.000000000000000000, 0.000000000000000000, -0.1250000000000000000 ) ) ;
#283 = EDGE_CURVE ( 'NONE', #40, #34, #149, .T. ) ;
#284 =( CONVERSION_BASED_UNIT ( 'INCH', #74 ) LENGTH_UNIT ( ) NAMED_UNIT ( #76 ) );
#285 = CARTESIAN_POINT ( 'NONE',  ( -0.1250000000000000278, 0.7499999999999998890, 0.000000000000000000 ) ) ;
#286 = EDGE_LOOP ( 'NONE', ( #256, #43 ) ) ;
#287 = CARTESIAN_POINT ( 'NONE',  ( -7.582401355855259480E-33, 0.7499999999999998890, 0.000000000000000000 ) ) ;
#288 = ORIENTED_EDGE ( 'NONE', *, *, #186, .T. ) ;
#289 = PRODUCT ( '05142', '05142', '', ( #291 ) ) ;
#290 = ADVANCED_FACE ( 'NONE', ( #118 ), #217, .T. ) ;
#291 = PRODUCT_CONTEXT ( 'NONE', #161, 'mechanical' ) ;
#292 = CLOSED_SHELL ( 'NONE', ( #222, #233, #27, #239 ) ) ;
#293 = CIRCLE ( 'NONE', #262, 0.1250000000000000278 ) ;
#294 = PRESENTATION_STYLE_ASSIGNMENT (( #195 ) ) ;
#295 = EDGE_CURVE ( 'NONE', #248, #40, #75, .T. ) ;
#296 = PRESENTATION_STYLE_ASSIGNMENT (( #167 ) ) ;
#297 = VECTOR ( 'NONE', #144, 39.37007874015748143 ) ;
#298 = FACE_OUTER_BOUND ( 'NONE', #3, .T. ) ;
#299 = CARTESIAN_POINT ( 'NONE',  ( -6.123233995736766036E-17, 2.500000000000000000, 0.000000000000000000 ) ) ;
#300 = LENGTH_MEASURE_WITH_UNIT ( LENGTH_MEASURE( 0.02539999999999999897 ), #57 );
#301 = PRODUCT_DEFINITION_SHAPE ( 'NONE', 'NONE',  #215 ) ;
#302 = CARTESIAN_POINT ( 'NONE',  ( -6.123233995736766036E-17, 2.500000000000000000, 0.000000000000000000 ) ) ;
#303 = ADVANCED_BREP_SHAPE_REPRESENTATION ( '05142', ( #212, #10, #47 ), #170 ) ;
#304 =( CONVERSION_BASED_UNIT ( 'INCH', #208 ) LENGTH_UNIT ( ) NAMED_UNIT ( #33 ) );
#305 = CARTESIAN_POINT ( 'NONE',  ( 0.000000000000000000, 0.000000000000000000, 0.000000000000000000 ) ) ;
#306 = UNCERTAINTY_MEASURE_WITH_UNIT (LENGTH_MEASURE( 1.000000000000000082E-05 ), #260, 'distance_accuracy_value', 'NONE');
#307 = FACE_OUTER_BOUND ( 'NONE', #176, .T. ) ;
#308 = PRESENTATION_LAYER_ASSIGNMENT (  '', '', ( #126 ) ) ;
#309 = LENGTH_MEASURE_WITH_UNIT ( LENGTH_MEASURE( 0.02539999999999999897 ), #133 );
ENDSEC;
END-ISO-10303-21;
