ISO-10303-21;
HEADER;
FILE_DESCRIPTION (( 'STEP AP214' ),
    '1' );
FILE_NAME ('Micro_AECM-0603-4.STEP',
    '2021-09-03T16:57:34',
    ( '' ),
    ( '' ),
    'SwSTEP 2.0',
    'SolidWorks 2020',
    '' );
FILE_SCHEMA (( 'AUTOMOTIVE_DESIGN' ));
ENDSEC;

DATA;
#1 = VERTEX_POINT ( 'NONE', #107 ) ;
#2 = EDGE_LOOP ( 'NONE', ( #158, #54, #156, #53 ) ) ;
#3 = CARTESIAN_POINT ( 'NONE',  ( 0.1031100000000002570, 1.262733314600838667E-17, 2.244094000000000033 ) ) ;
#4 = CARTESIAN_POINT ( 'NONE',  ( 0.0000000000000000000, 0.0000000000000000000, 0.0000000000000000000 ) ) ;
#5 = STYLED_ITEM ( 'NONE', ( #325 ), #52 ) ;
#6 = CARTESIAN_POINT ( 'NONE',  ( -0.1181100000000000066, 0.0000000000000000000, 2.244094000000000033 ) ) ;
#7 = DIRECTION ( 'NONE',  ( 1.000000000000000000, 0.0000000000000000000, 0.0000000000000000000 ) ) ;
#8 = TOROIDAL_SURFACE ( 'NONE', #134, 0.1061808899999999861, 0.01181100000000000032 ) ;
#9 = CYLINDRICAL_SURFACE ( 'NONE', #40, 0.1179918899999999882 ) ;
#10 = EDGE_CURVE ( 'NONE', #65, #152, #194, .T. ) ;
#11 = PRESENTATION_LAYER_ASSIGNMENT (  '', '', ( #5 ) ) ;
#12 = CIRCLE ( 'NONE', #127, 0.01181100000000000552 ) ;
#13 = VECTOR ( 'NONE', #60, 39.37007874015748143 ) ;
#14 = CYLINDRICAL_SURFACE ( 'NONE', #241, 0.1181100000000000066 ) ;
#15 = ORIENTED_EDGE ( 'NONE', *, *, #19, .T. ) ;
#16 = PRODUCT ( 'Micro_AECM-0603-4', 'Micro_AECM-0603-4', '', ( #49 ) ) ;
#17 = PRODUCT_DEFINITION_FORMATION_WITH_SPECIFIED_SOURCE ( 'ANY', '', #16, .NOT_KNOWN. ) ;
#18 = CARTESIAN_POINT ( 'NONE',  ( 0.0000000000000000000, 0.0000000000000000000, 2.244094000000000033 ) ) ;
#19 = EDGE_CURVE ( 'NONE', #1, #340, #212, .T. ) ;
#20 = ORIENTED_EDGE ( 'NONE', *, *, #114, .T. ) ;
#21 = ORIENTED_EDGE ( 'NONE', *, *, #221, .T. ) ;
#22 = AXIS2_PLACEMENT_3D ( 'NONE', #302, #198, #140 ) ;
#23 = DIRECTION ( 'NONE',  ( -0.0000000000000000000, -0.0000000000000000000, -1.000000000000000000 ) ) ;
#24 = ORIENTED_EDGE ( 'NONE', *, *, #332, .F. ) ;
#25 = CARTESIAN_POINT ( 'NONE',  ( 0.0000000000000000000, 0.0000000000000000000, 0.0000000000000000000 ) ) ;
#26 = ORIENTED_EDGE ( 'NONE', *, *, #145, .F. ) ;
#27 = SHAPE_DEFINITION_REPRESENTATION ( #70, #52 ) ;
#28 = AXIS2_PLACEMENT_3D ( 'NONE', #136, #239, #51 ) ;
#29 = PRODUCT_DEFINITION ( 'UNKNOWN', '', #17, #303 ) ;
#30 = ORIENTED_EDGE ( 'NONE', *, *, #263, .T. ) ;
#31 = CARTESIAN_POINT ( 'NONE',  ( 7.722510477716240475E-17, 0.0000000000000000000, 0.6305908350957151187 ) ) ;
#32 = VERTEX_POINT ( 'NONE', #165 ) ;
#33 = DIRECTION ( 'NONE',  ( 0.0000000000000000000, 0.0000000000000000000, -1.000000000000000000 ) ) ;
#34 = AXIS2_PLACEMENT_3D ( 'NONE', #338, #89, #309 ) ;
#35 = DIRECTION ( 'NONE',  ( -0.0000000000000000000, -0.0000000000000000000, -1.000000000000000000 ) ) ;
#36 = DIRECTION ( 'NONE',  ( 1.000000000000000000, 0.0000000000000000000, 0.0000000000000000000 ) ) ;
#37 = FACE_OUTER_BOUND ( 'NONE', #96, .T. ) ;
#38 = TOROIDAL_SURFACE ( 'NONE', #177, 0.1061808899999999861, 0.01181100000000000032 ) ;
#39 = DIRECTION ( 'NONE',  ( -1.000000000000000000, 0.0000000000000000000, 0.0000000000000000000 ) ) ;
#40 = AXIS2_PLACEMENT_3D ( 'NONE', #4, #337, #110 ) ;
#41 = EDGE_CURVE ( 'NONE', #229, #169, #12, .T. ) ;
#42 =( CONVERSION_BASED_UNIT ( 'INCH', #252 ) LENGTH_UNIT ( ) NAMED_UNIT ( #47 ) );
#43 = ORIENTED_EDGE ( 'NONE', *, *, #112, .F. ) ;
#44 = DIRECTION ( 'NONE',  ( -0.0000000000000000000, -0.0000000000000000000, -1.000000000000000000 ) ) ;
#45 = ORIENTED_EDGE ( 'NONE', *, *, #211, .F. ) ;
#46 =( NAMED_UNIT ( * ) PLANE_ANGLE_UNIT ( ) SI_UNIT ( $, .RADIAN. ) );
#47 = DIMENSIONAL_EXPONENTS ( 1.000000000000000000, 0.0000000000000000000, 0.0000000000000000000, 0.0000000000000000000, 0.0000000000000000000, 0.0000000000000000000, 0.0000000000000000000 ) ;
#48 = DIRECTION ( 'NONE',  ( 1.000000000000000000, 0.0000000000000000000, 0.0000000000000000000 ) ) ;
#49 = PRODUCT_CONTEXT ( 'NONE', #351, 'mechanical' ) ;
#50 = AXIS2_PLACEMENT_3D ( 'NONE', #256, #312, #120 ) ;
#51 = DIRECTION ( 'NONE',  ( 1.000000000000000000, 0.0000000000000000000, 0.0000000000000000000 ) ) ;
#52 = ADVANCED_BREP_SHAPE_REPRESENTATION ( 'Micro_AECM-0603-4', ( #289, #91 ), #255 ) ;
#53 = ORIENTED_EDGE ( 'NONE', *, *, #73, .T. ) ;
#54 = ORIENTED_EDGE ( 'NONE', *, *, #114, .F. ) ;
#55 = DIRECTION ( 'NONE',  ( 0.0000000000000000000, 0.0000000000000000000, -1.000000000000000000 ) ) ;
#56 = DIRECTION ( 'NONE',  ( -0.0000000000000000000, -0.0000000000000000000, -1.000000000000000000 ) ) ;
#57 = CONICAL_SURFACE ( 'NONE', #100, 0.1179918899999999882, 0.1745329251994339748 ) ;
#58 = DIRECTION ( 'NONE',  ( 1.224646799147353207E-16, 0.0000000000000000000, 1.000000000000000000 ) ) ;
#59 = ADVANCED_FACE ( 'NONE', ( #109 ), #272, .T. ) ;
#60 = DIRECTION ( 'NONE',  ( -1.224646799147353207E-16, -0.0000000000000000000, -1.000000000000000000 ) ) ;
#61 = COLOUR_RGB ( '',0.7921568627450980005, 0.8196078431372548767, 0.9333333333333333481 ) ;
#62 = FACE_OUTER_BOUND ( 'NONE', #326, .T. ) ;
#63 = CIRCLE ( 'NONE', #222, 0.01181100000000000032 ) ;
#64 = CARTESIAN_POINT ( 'NONE',  ( 0.1181100000000000066, 1.446430334472939084E-17, 2.229093999999999465 ) ) ;
#65 = VERTEX_POINT ( 'NONE', #209 ) ;
#66 = CONICAL_SURFACE ( 'NONE', #216, 0.1031100000000002570, 0.7853981633974318477 ) ;
#67 = SURFACE_SIDE_STYLE ('',( #339 ) ) ;
#68 = ORIENTED_EDGE ( 'NONE', *, *, #304, .F. ) ;
#69 = CARTESIAN_POINT ( 'NONE',  ( 0.0000000000000000000, 0.0000000000000000000, 2.244094000000000033 ) ) ;
#70 = PRODUCT_DEFINITION_SHAPE ( 'NONE', 'NONE',  #29 ) ;
#71 = DIRECTION ( 'NONE',  ( 0.0000000000000000000, 0.0000000000000000000, 1.000000000000000000 ) ) ;
#72 = EDGE_LOOP ( 'NONE', ( #253, #226 ) ) ;
#73 = EDGE_CURVE ( 'NONE', #152, #65, #85, .T. ) ;
#74 = SURFACE_SIDE_STYLE ('',( #102 ) ) ;
#75 = LINE ( 'NONE', #265, #176 ) ;
#76 = DIRECTION ( 'NONE',  ( -0.0000000000000000000, -0.0000000000000000000, -1.000000000000000000 ) ) ;
#77 = DIMENSIONAL_EXPONENTS ( 1.000000000000000000, 0.0000000000000000000, 0.0000000000000000000, 0.0000000000000000000, 0.0000000000000000000, 0.0000000000000000000, 0.0000000000000000000 ) ;
#78 = ORIENTED_EDGE ( 'NONE', *, *, #88, .F. ) ;
#79 = ORIENTED_EDGE ( 'NONE', *, *, #191, .F. ) ;
#80 = DIRECTION ( 'NONE',  ( -1.000000000000000000, 0.0000000000000000000, 0.0000000000000000000 ) ) ;
#81 = CARTESIAN_POINT ( 'NONE',  ( 0.1061808899999999861, 0.0000000000000000000, 0.0000000000000000000 ) ) ;
#82 = AXIS2_PLACEMENT_3D ( 'NONE', #157, #71, #178 ) ;
#83 = ADVANCED_FACE ( 'NONE', ( #162 ), #8, .T. ) ;
#84 = CARTESIAN_POINT ( 'NONE',  ( 7.714307363656999460E-17, 0.0000000000000000000, 0.6299209999999999532 ) ) ;
#85 = CIRCLE ( 'NONE', #285, 0.1181100000000000066 ) ;
#86 = DIRECTION ( 'NONE',  ( 0.0000000000000000000, 0.0000000000000000000, 1.000000000000000000 ) ) ;
#87 = LINE ( 'NONE', #218, #349 ) ;
#88 = EDGE_CURVE ( 'NONE', #93, #169, #333, .T. ) ;
#89 = DIRECTION ( 'NONE',  ( 1.224646799147353207E-16, 0.0000000000000000000, 1.000000000000000000 ) ) ;
#90 =( LENGTH_UNIT ( ) NAMED_UNIT ( * ) SI_UNIT ( $, .METRE. ) );
#91 = AXIS2_PLACEMENT_3D ( 'NONE', #25, #273, #296 ) ;
#92 = DIRECTION ( 'NONE',  ( -1.224646799147353207E-16, -0.0000000000000000000, -1.000000000000000000 ) ) ;
#93 = VERTEX_POINT ( 'NONE', #135 ) ;
#94 = CIRCLE ( 'NONE', #213, 0.1031100000000002570 ) ;
#95 = CARTESIAN_POINT ( 'NONE',  ( 0.1179918900000000853, 0.0000000000000000000, 0.6299209999999999532 ) ) ;
#96 = EDGE_LOOP ( 'NONE', ( #267, #15, #79, #149 ) ) ;
#97 = DIMENSIONAL_EXPONENTS ( 1.000000000000000000, 0.0000000000000000000, 0.0000000000000000000, 0.0000000000000000000, 0.0000000000000000000, 0.0000000000000000000, 0.0000000000000000000 ) ;
#98 = LENGTH_MEASURE_WITH_UNIT ( LENGTH_MEASURE( 0.02539999999999999897 ), #167 );
#99 = DIRECTION ( 'NONE',  ( 0.7071067811865358044, 8.659560562354788645E-17, -0.7071067811865590080 ) ) ;
#100 = AXIS2_PLACEMENT_3D ( 'NONE', #84, #58, #174 ) ;
#101 = AXIS2_PLACEMENT_3D ( 'NONE', #346, #199, #310 ) ;
#102 = SURFACE_STYLE_FILL_AREA ( #293 ) ;
#103 = EDGE_CURVE ( 'NONE', #123, #292, #75, .T. ) ;
#104 = LENGTH_MEASURE_WITH_UNIT ( LENGTH_MEASURE( 0.02539999999999999897 ), #90 );
#105 = ORIENTED_EDGE ( 'NONE', *, *, #112, .T. ) ;
#106 = AXIS2_PLACEMENT_3D ( 'NONE', #225, #128, #342 ) ;
#107 = CARTESIAN_POINT ( 'NONE',  ( 0.1031100000000002570, 1.354581824536888722E-17, 2.244094000000000033 ) ) ;
#108 = CIRCLE ( 'NONE', #22, 0.1179918899999999882 ) ;
#109 = FACE_OUTER_BOUND ( 'NONE', #181, .T. ) ;
#110 = DIRECTION ( 'NONE',  ( -1.000000000000000000, 0.0000000000000000000, 1.224646799147353454E-16 ) ) ;
#111 = DIRECTION ( 'NONE',  ( -1.224646799147353207E-16, -0.0000000000000000000, -1.000000000000000000 ) ) ;
#112 = EDGE_CURVE ( 'NONE', #186, #32, #248, .T. ) ;
#113 = DIRECTION ( 'NONE',  ( 1.000000000000000000, 0.0000000000000000000, 0.0000000000000000000 ) ) ;
#114 = EDGE_CURVE ( 'NONE', #32, #186, #108, .T. ) ;
#115 = CARTESIAN_POINT ( 'NONE',  ( -0.1061808899999999861, 1.372662387414818768E-17, 0.0000000000000000000 ) ) ;
#116 = DIRECTION ( 'NONE',  ( 0.0000000000000000000, 0.0000000000000000000, 1.000000000000000000 ) ) ;
#117 =( GEOMETRIC_REPRESENTATION_CONTEXT ( 3 ) GLOBAL_UNCERTAINTY_ASSIGNED_CONTEXT ( ( #119 ) ) GLOBAL_UNIT_ASSIGNED_CONTEXT ( ( #42, #287, #317 ) ) REPRESENTATION_CONTEXT ( 'NONE', 'WORKASPACE' ) );
#118 = PLANE ( 'NONE',  #344 ) ;
#119 = UNCERTAINTY_MEASURE_WITH_UNIT (LENGTH_MEASURE( 1.000000000000000082E-05 ), #42, 'distance_accuracy_value', 'NONE');
#120 = DIRECTION ( 'NONE',  ( -1.000000000000000000, 0.0000000000000000000, 0.0000000000000000000 ) ) ;
#121 = ORIENTED_EDGE ( 'NONE', *, *, #88, .T. ) ;
#122 = CARTESIAN_POINT ( 'NONE',  ( 0.0000000000000000000, 0.0000000000000000000, 2.244094000000000033 ) ) ;
#123 = VERTEX_POINT ( 'NONE', #220 ) ;
#124 = DIRECTION ( 'NONE',  ( -1.000000000000000000, 0.0000000000000000000, 0.0000000000000000000 ) ) ;
#125 = ORIENTED_EDGE ( 'NONE', *, *, #315, .F. ) ;
#126 = EDGE_CURVE ( 'NONE', #1, #123, #94, .T. ) ;
#127 = AXIS2_PLACEMENT_3D ( 'NONE', #168, #322, #269 ) ;
#128 = DIRECTION ( 'NONE',  ( -0.0000000000000000000, -0.0000000000000000000, -1.000000000000000000 ) ) ;
#129 = EDGE_LOOP ( 'NONE', ( #26, #204, #78, #189 ) ) ;
#130 = ADVANCED_FACE ( 'NONE', ( #276 ), #182, .T. ) ;
#131 =( GEOMETRIC_REPRESENTATION_CONTEXT ( 3 ) GLOBAL_UNCERTAINTY_ASSIGNED_CONTEXT ( ( #313 ) ) GLOBAL_UNIT_ASSIGNED_CONTEXT ( ( #233, #46, #236 ) ) REPRESENTATION_CONTEXT ( 'NONE', 'WORKASPACE' ) );
#132 = DIRECTION ( 'NONE',  ( 0.0000000000000000000, 0.0000000000000000000, 1.000000000000000000 ) ) ;
#133 = ORIENTED_EDGE ( 'NONE', *, *, #137, .T. ) ;
#134 = AXIS2_PLACEMENT_3D ( 'NONE', #321, #132, #231 ) ;
#135 = CARTESIAN_POINT ( 'NONE',  ( 0.1179918899999999882, 1.444983904138465938E-17, 0.01181100000000000205 ) ) ;
#136 = CARTESIAN_POINT ( 'NONE',  ( 1.446430334472939162E-18, 0.0000000000000000000, 0.01181100000000000205 ) ) ;
#137 = EDGE_CURVE ( 'NONE', #207, #93, #63, .T. ) ;
#138 = DIRECTION ( 'NONE',  ( -1.224646799147353207E-16, -0.0000000000000000000, -1.000000000000000000 ) ) ;
#139 = CIRCLE ( 'NONE', #101, 0.1181100000000000066 ) ;
#140 = DIRECTION ( 'NONE',  ( -1.000000000000000000, 0.0000000000000000000, 0.0000000000000000000 ) ) ;
#141 = CYLINDRICAL_SURFACE ( 'NONE', #260, 0.1179918899999999882 ) ;
#142 = CARTESIAN_POINT ( 'NONE',  ( -0.1179918899999999049, 1.445707119305702357E-17, 0.6299209999999999532 ) ) ;
#143 = CONICAL_SURFACE ( 'NONE', #50, 0.1031100000000002570, 0.7853981633974318477 ) ;
#144 = FACE_OUTER_BOUND ( 'NONE', #161, .T. ) ;
#145 = EDGE_CURVE ( 'NONE', #229, #207, #257, .T. ) ;
#146 = CARTESIAN_POINT ( 'NONE',  ( -0.1179918899999999882, 0.0000000000000000000, 0.01181100000000000205 ) ) ;
#147 = UNCERTAINTY_MEASURE_WITH_UNIT (LENGTH_MEASURE( 1.000000000000000082E-05 ), #264, 'distance_accuracy_value', 'NONE');
#148 = FACE_OUTER_BOUND ( 'NONE', #319, .T. ) ;
#149 = ORIENTED_EDGE ( 'NONE', *, *, #103, .F. ) ;
#150 = MECHANICAL_DESIGN_GEOMETRIC_PRESENTATION_REPRESENTATION (  '', ( #347 ), #117 ) ;
#151 = FILL_AREA_STYLE_COLOUR ( '', #61 ) ;
#152 = VERTEX_POINT ( 'NONE', #219 ) ;
#153 = VECTOR ( 'NONE', #35, 39.37007874015748143 ) ;
#154 = ADVANCED_FACE ( 'NONE', ( #172 ), #9, .T. ) ;
#155 = SURFACE_STYLE_USAGE ( .BOTH. , #67 ) ;
#156 = ORIENTED_EDGE ( 'NONE', *, *, #323, .T. ) ;
#157 = CARTESIAN_POINT ( 'NONE',  ( 0.0000000000000000000, 0.0000000000000000000, 2.244094000000000033 ) ) ;
#158 = ORIENTED_EDGE ( 'NONE', *, *, #234, .F. ) ;
#159 = CIRCLE ( 'NONE', #298, 0.1179918899999999882 ) ;
#160 = FACE_OUTER_BOUND ( 'NONE', #72, .T. ) ;
#161 = EDGE_LOOP ( 'NONE', ( #324, #295 ) ) ;
#162 = FACE_OUTER_BOUND ( 'NONE', #129, .T. ) ;
#163 = CARTESIAN_POINT ( 'NONE',  ( 7.714307363656999460E-17, 0.0000000000000000000, 0.6299209999999999532 ) ) ;
#164 =( NAMED_UNIT ( * ) PLANE_ANGLE_UNIT ( ) SI_UNIT ( $, .RADIAN. ) );
#165 = CARTESIAN_POINT ( 'NONE',  ( 0.1179918900000000853, 0.0000000000000000000, 0.6299209999999999532 ) ) ;
#166 = AXIS2_PLACEMENT_3D ( 'NONE', #297, #76, #80 ) ;
#167 =( LENGTH_UNIT ( ) NAMED_UNIT ( * ) SI_UNIT ( $, .METRE. ) );
#168 = CARTESIAN_POINT ( 'NONE',  ( -0.1061808899999999861, 1.300340870691171906E-17, 0.01181100000000000032 ) ) ;
#169 = VERTEX_POINT ( 'NONE', #146 ) ;
#170 = DIRECTION ( 'NONE',  ( 0.0000000000000000000, 0.0000000000000000000, 1.000000000000000000 ) ) ;
#171 = AXIS2_PLACEMENT_3D ( 'NONE', #215, #55, #113 ) ;
#172 = FACE_OUTER_BOUND ( 'NONE', #274, .T. ) ;
#173 = CARTESIAN_POINT ( 'NONE',  ( -0.1179918899999999882, 0.0000000000000000000, 1.444983904138465938E-17 ) ) ;
#174 = DIRECTION ( 'NONE',  ( 1.000000000000000000, 0.0000000000000000000, 0.0000000000000000000 ) ) ;
#175 = DIRECTION ( 'NONE',  ( -1.000000000000000000, 0.0000000000000000000, 1.224646799147353454E-16 ) ) ;
#176 = VECTOR ( 'NONE', #184, 39.37007874015748854 ) ;
#177 = AXIS2_PLACEMENT_3D ( 'NONE', #278, #170, #36 ) ;
#178 = DIRECTION ( 'NONE',  ( 1.000000000000000000, 0.0000000000000000000, 0.0000000000000000000 ) ) ;
#179 = DIRECTION ( 'NONE',  ( 0.0000000000000000000, 0.0000000000000000000, 1.000000000000000000 ) ) ;
#180 = DIRECTION ( 'NONE',  ( 1.000000000000000000, 0.0000000000000000000, -0.0000000000000000000 ) ) ;
#181 = EDGE_LOOP ( 'NONE', ( #311, #224, #202, #288 ) ) ;
#182 = CONICAL_SURFACE ( 'NONE', #34, 0.1179918899999999882, 0.1745329251994339748 ) ;
#183 = SURFACE_STYLE_USAGE ( .BOTH. , #74 ) ;
#184 = DIRECTION ( 'NONE',  ( -0.7071067811865358044, 0.0000000000000000000, -0.7071067811865590080 ) ) ;
#185 = ORIENTED_EDGE ( 'NONE', *, *, #307, .F. ) ;
#186 = VERTEX_POINT ( 'NONE', #142 ) ;
#187 = VECTOR ( 'NONE', #23, 39.37007874015748143 ) ;
#188 = ADVANCED_FACE ( 'NONE', ( #62 ), #57, .T. ) ;
#189 = ORIENTED_EDGE ( 'NONE', *, *, #137, .F. ) ;
#190 = COLOUR_RGB ( '',0.7921568627450980005, 0.8196078431372548767, 0.9333333333333333481 ) ;
#191 = EDGE_CURVE ( 'NONE', #292, #340, #305, .T. ) ;
#192 = DIRECTION ( 'NONE',  ( -1.224646799147353207E-16, -0.0000000000000000000, -1.000000000000000000 ) ) ;
#193 = LINE ( 'NONE', #6, #153 ) ;
#194 = CIRCLE ( 'NONE', #270, 0.1181100000000000066 ) ;
#195 = AXIS2_PLACEMENT_3D ( 'NONE', #243, #56, #328 ) ;
#196 = DIRECTION ( 'NONE',  ( -0.1736481776669312471, 2.126576849575783933E-17, 0.9848077530122077983 ) ) ;
#197 = DIRECTION ( 'NONE',  ( 1.000000000000000000, 0.0000000000000000000, -0.0000000000000000000 ) ) ;
#198 = DIRECTION ( 'NONE',  ( -1.224646799147353207E-16, -0.0000000000000000000, -1.000000000000000000 ) ) ;
#199 = DIRECTION ( 'NONE',  ( 0.0000000000000000000, 0.0000000000000000000, -1.000000000000000000 ) ) ;
#200 = PRODUCT_RELATED_PRODUCT_CATEGORY ( 'part', '', ( #16 ) ) ;
#201 = LINE ( 'NONE', #95, #279 ) ;
#202 = ORIENTED_EDGE ( 'NONE', *, *, #10, .F. ) ;
#203 = CARTESIAN_POINT ( 'NONE',  ( -0.1181100000000000066, 0.0000000000000000000, 2.229093999999999465 ) ) ;
#204 = ORIENTED_EDGE ( 'NONE', *, *, #41, .T. ) ;
#205 = DIRECTION ( 'NONE',  ( 0.1736481776669314692, 0.0000000000000000000, 0.9848077530122077983 ) ) ;
#206 = LINE ( 'NONE', #228, #330 ) ;
#207 = VERTEX_POINT ( 'NONE', #81 ) ;
#208 = ORIENTED_EDGE ( 'NONE', *, *, #335, .F. ) ;
#209 = CARTESIAN_POINT ( 'NONE',  ( -0.1181099999999999234, 0.0000000000000000000, 0.6305908350957151187 ) ) ;
#210 = ORIENTED_EDGE ( 'NONE', *, *, #10, .T. ) ;
#211 = EDGE_CURVE ( 'NONE', #186, #169, #331, .T. ) ;
#212 = LINE ( 'NONE', #3, #254 ) ;
#213 = AXIS2_PLACEMENT_3D ( 'NONE', #247, #282, #7 ) ;
#214 = ORIENTED_EDGE ( 'NONE', *, *, #211, .T. ) ;
#215 = CARTESIAN_POINT ( 'NONE',  ( 0.0000000000000000000, 0.0000000000000000000, 2.229093999999999465 ) ) ;
#216 = AXIS2_PLACEMENT_3D ( 'NONE', #122, #223, #39 ) ;
#217 = FACE_OUTER_BOUND ( 'NONE', #230, .T. ) ;
#218 = CARTESIAN_POINT ( 'NONE',  ( -0.1179918899999999049, 1.444983904138465938E-17, 0.6299209999999999532 ) ) ;
#219 = CARTESIAN_POINT ( 'NONE',  ( 0.1181100000000000899, 1.446430334472940009E-17, 0.6305908350957151187 ) ) ;
#220 = CARTESIAN_POINT ( 'NONE',  ( -0.1031100000000002570, 0.0000000000000000000, 2.244094000000000033 ) ) ;
#221 = EDGE_CURVE ( 'NONE', #292, #65, #193, .T. ) ;
#222 = AXIS2_PLACEMENT_3D ( 'NONE', #301, #277, #33 ) ;
#223 = DIRECTION ( 'NONE',  ( 0.0000000000000000000, 0.0000000000000000000, -1.000000000000000000 ) ) ;
#224 = ORIENTED_EDGE ( 'NONE', *, *, #332, .T. ) ;
#225 = CARTESIAN_POINT ( 'NONE',  ( 1.446430334472938969E-18, 0.0000000000000000000, 0.0000000000000000000 ) ) ;
#226 = ORIENTED_EDGE ( 'NONE', *, *, #126, .T. ) ;
#227 = APPLICATION_CONTEXT ( 'automotive_design' ) ;
#228 = CARTESIAN_POINT ( 'NONE',  ( 0.1179918899999999882, 1.444983904138465938E-17, -1.444983904138465938E-17 ) ) ;
#229 = VERTEX_POINT ( 'NONE', #115 ) ;
#230 = EDGE_LOOP ( 'NONE', ( #300, #185, #133, #343 ) ) ;
#231 = DIRECTION ( 'NONE',  ( 1.000000000000000000, 0.0000000000000000000, 0.0000000000000000000 ) ) ;
#232 = CIRCLE ( 'NONE', #82, 0.1031100000000002570 ) ;
#233 =( CONVERSION_BASED_UNIT ( 'INCH', #98 ) LENGTH_UNIT ( ) NAMED_UNIT ( #97 ) );
#234 = EDGE_CURVE ( 'NONE', #186, #65, #87, .T. ) ;
#235 = ORIENTED_EDGE ( 'NONE', *, *, #234, .T. ) ;
#236 =( NAMED_UNIT ( * ) SI_UNIT ( $, .STERADIAN. ) SOLID_ANGLE_UNIT ( ) );
#237 = DIRECTION ( 'NONE',  ( -1.224646799147353207E-16, -0.0000000000000000000, -1.000000000000000000 ) ) ;
#238 =( NAMED_UNIT ( * ) SI_UNIT ( $, .STERADIAN. ) SOLID_ANGLE_UNIT ( ) );
#239 = DIRECTION ( 'NONE',  ( 0.0000000000000000000, 0.0000000000000000000, 1.000000000000000000 ) ) ;
#240 = ADVANCED_FACE ( 'NONE', ( #251 ), #141, .T. ) ;
#241 = AXIS2_PLACEMENT_3D ( 'NONE', #18, #44, #124 ) ;
#242 = EDGE_LOOP ( 'NONE', ( #350, #68, #258, #208 ) ) ;
#243 = CARTESIAN_POINT ( 'NONE',  ( 1.446430334472938969E-18, 0.0000000000000000000, 0.0000000000000000000 ) ) ;
#244 = ADVANCED_FACE ( 'NONE', ( #217 ), #38, .T. ) ;
#245 = CARTESIAN_POINT ( 'NONE',  ( 0.0000000000000000000, 0.0000000000000000000, 0.0000000000000000000 ) ) ;
#246 = PRESENTATION_LAYER_ASSIGNMENT (  '', '', ( #347 ) ) ;
#247 = CARTESIAN_POINT ( 'NONE',  ( 0.0000000000000000000, 0.0000000000000000000, 2.244094000000000033 ) ) ;
#248 = CIRCLE ( 'NONE', #294, 0.1179918899999999882 ) ;
#249 = DIRECTION ( 'NONE',  ( -1.000000000000000000, 0.0000000000000000000, 0.0000000000000000000 ) ) ;
#250 = ADVANCED_FACE ( 'NONE', ( #144 ), #334, .F. ) ;
#251 = FACE_OUTER_BOUND ( 'NONE', #262, .T. ) ;
#252 = LENGTH_MEASURE_WITH_UNIT ( LENGTH_MEASURE( 0.02539999999999999897 ), #286 );
#253 = ORIENTED_EDGE ( 'NONE', *, *, #304, .T. ) ;
#254 = VECTOR ( 'NONE', #99, 39.37007874015748854 ) ;
#255 =( GEOMETRIC_REPRESENTATION_CONTEXT ( 3 ) GLOBAL_UNCERTAINTY_ASSIGNED_CONTEXT ( ( #147 ) ) GLOBAL_UNIT_ASSIGNED_CONTEXT ( ( #264, #164, #238 ) ) REPRESENTATION_CONTEXT ( 'NONE', 'WORKASPACE' ) );
#256 = CARTESIAN_POINT ( 'NONE',  ( 0.0000000000000000000, 0.0000000000000000000, 2.244094000000000033 ) ) ;
#257 = CIRCLE ( 'NONE', #195, 0.1061808899999999861 ) ;
#258 = ORIENTED_EDGE ( 'NONE', *, *, #103, .T. ) ;
#259 = FILL_AREA_STYLE ('',( #151 ) ) ;
#260 = AXIS2_PLACEMENT_3D ( 'NONE', #245, #111, #175 ) ;
#261 = CARTESIAN_POINT ( 'NONE',  ( 0.1181100000000000066, 1.446430334472939084E-17, 2.244094000000000033 ) ) ;
#262 = EDGE_LOOP ( 'NONE', ( #125, #20, #214, #30 ) ) ;
#263 = EDGE_CURVE ( 'NONE', #169, #93, #159, .T. ) ;
#264 =( CONVERSION_BASED_UNIT ( 'INCH', #104 ) LENGTH_UNIT ( ) NAMED_UNIT ( #77 ) );
#265 = CARTESIAN_POINT ( 'NONE',  ( -0.1031100000000002570, 0.0000000000000000000, 2.244094000000000033 ) ) ;
#266 = ADVANCED_FACE ( 'NONE', ( #37 ), #66, .T. ) ;
#267 = ORIENTED_EDGE ( 'NONE', *, *, #126, .F. ) ;
#268 = FILL_AREA_STYLE_COLOUR ( '', #190 ) ;
#269 = DIRECTION ( 'NONE',  ( -1.000000000000000000, 1.224646799147351975E-16, 0.0000000000000000000 ) ) ;
#270 = AXIS2_PLACEMENT_3D ( 'NONE', #348, #138, #327 ) ;
#271 = APPLICATION_PROTOCOL_DEFINITION ( 'draft international standard', 'automotive_design', 1998, #227 ) ;
#272 = CYLINDRICAL_SURFACE ( 'NONE', #166, 0.1181100000000000066 ) ;
#273 = DIRECTION ( 'NONE',  ( 0.0000000000000000000, 0.0000000000000000000, 1.000000000000000000 ) ) ;
#274 = EDGE_LOOP ( 'NONE', ( #105, #318, #121, #45 ) ) ;
#275 = AXIS2_PLACEMENT_3D ( 'NONE', #306, #86, #197 ) ;
#276 = FACE_OUTER_BOUND ( 'NONE', #2, .T. ) ;
#277 = DIRECTION ( 'NONE',  ( 0.0000000000000000000, -1.000000000000000000, 0.0000000000000000000 ) ) ;
#278 = CARTESIAN_POINT ( 'NONE',  ( 1.446430334472938969E-18, 0.0000000000000000000, 0.01181100000000000032 ) ) ;
#279 = VECTOR ( 'NONE', #205, 39.37007874015748143 ) ;
#280 = DIRECTION ( 'NONE',  ( 1.000000000000000000, 0.0000000000000000000, 0.0000000000000000000 ) ) ;
#281 = CLOSED_SHELL ( 'NONE', ( #83, #154, #188, #266, #59, #291, #329, #284, #130, #240, #250, #244 ) ) ;
#282 = DIRECTION ( 'NONE',  ( 0.0000000000000000000, 0.0000000000000000000, 1.000000000000000000 ) ) ;
#283 = PRESENTATION_STYLE_ASSIGNMENT (( #155 ) ) ;
#284 = ADVANCED_FACE ( 'NONE', ( #316 ), #143, .T. ) ;
#285 = AXIS2_PLACEMENT_3D ( 'NONE', #31, #192, #48 ) ;
#286 =( LENGTH_UNIT ( ) NAMED_UNIT ( * ) SI_UNIT ( $, .METRE. ) );
#287 =( NAMED_UNIT ( * ) PLANE_ANGLE_UNIT ( ) SI_UNIT ( $, .RADIAN. ) );
#288 = ORIENTED_EDGE ( 'NONE', *, *, #221, .F. ) ;
#289 = MANIFOLD_SOLID_BREP ( 'Fillet1', #281 ) ;
#290 = LINE ( 'NONE', #261, #187 ) ;
#291 = ADVANCED_FACE ( 'NONE', ( #148 ), #14, .T. ) ;
#292 = VERTEX_POINT ( 'NONE', #203 ) ;
#293 = FILL_AREA_STYLE ('',( #268 ) ) ;
#294 = AXIS2_PLACEMENT_3D ( 'NONE', #163, #237, #249 ) ;
#295 = ORIENTED_EDGE ( 'NONE', *, *, #145, .T. ) ;
#296 = DIRECTION ( 'NONE',  ( 1.000000000000000000, 0.0000000000000000000, 0.0000000000000000000 ) ) ;
#297 = CARTESIAN_POINT ( 'NONE',  ( 0.0000000000000000000, 0.0000000000000000000, 2.244094000000000033 ) ) ;
#298 = AXIS2_PLACEMENT_3D ( 'NONE', #308, #116, #280 ) ;
#299 = ORIENTED_EDGE ( 'NONE', *, *, #335, .T. ) ;
#300 = ORIENTED_EDGE ( 'NONE', *, *, #41, .F. ) ;
#301 = CARTESIAN_POINT ( 'NONE',  ( 0.1061808899999999861, 0.0000000000000000000, 0.01181100000000000032 ) ) ;
#302 = CARTESIAN_POINT ( 'NONE',  ( 7.714307363656999460E-17, 0.0000000000000000000, 0.6299209999999999532 ) ) ;
#303 = PRODUCT_DEFINITION_CONTEXT ( 'detailed design', #227, 'design' ) ;
#304 = EDGE_CURVE ( 'NONE', #123, #1, #232, .T. ) ;
#305 = CIRCLE ( 'NONE', #171, 0.1181100000000000066 ) ;
#306 = CARTESIAN_POINT ( 'NONE',  ( 0.0000000000000000000, 0.0000000000000000000, 0.0000000000000000000 ) ) ;
#307 = EDGE_CURVE ( 'NONE', #207, #229, #341, .T. ) ;
#308 = CARTESIAN_POINT ( 'NONE',  ( 1.446430334472939162E-18, 0.0000000000000000000, 0.01181100000000000205 ) ) ;
#309 = DIRECTION ( 'NONE',  ( 1.000000000000000000, 0.0000000000000000000, 0.0000000000000000000 ) ) ;
#310 = DIRECTION ( 'NONE',  ( 1.000000000000000000, 0.0000000000000000000, 0.0000000000000000000 ) ) ;
#311 = ORIENTED_EDGE ( 'NONE', *, *, #191, .T. ) ;
#312 = DIRECTION ( 'NONE',  ( 0.0000000000000000000, 0.0000000000000000000, -1.000000000000000000 ) ) ;
#313 = UNCERTAINTY_MEASURE_WITH_UNIT (LENGTH_MEASURE( 1.000000000000000082E-05 ), #233, 'distance_accuracy_value', 'NONE');
#314 = ORIENTED_EDGE ( 'NONE', *, *, #73, .F. ) ;
#315 = EDGE_CURVE ( 'NONE', #32, #93, #206, .T. ) ;
#316 = FACE_OUTER_BOUND ( 'NONE', #242, .T. ) ;
#317 =( NAMED_UNIT ( * ) SI_UNIT ( $, .STERADIAN. ) SOLID_ANGLE_UNIT ( ) );
#318 = ORIENTED_EDGE ( 'NONE', *, *, #315, .T. ) ;
#319 = EDGE_LOOP ( 'NONE', ( #24, #299, #21, #314 ) ) ;
#320 = APPLICATION_PROTOCOL_DEFINITION ( 'draft international standard', 'automotive_design', 1998, #351 ) ;
#321 = CARTESIAN_POINT ( 'NONE',  ( 1.446430334472938969E-18, 0.0000000000000000000, 0.01181100000000000032 ) ) ;
#322 = DIRECTION ( 'NONE',  ( 1.224646799147353207E-16, 1.000000000000000000, -0.0000000000000000000 ) ) ;
#323 = EDGE_CURVE ( 'NONE', #32, #152, #201, .T. ) ;
#324 = ORIENTED_EDGE ( 'NONE', *, *, #307, .T. ) ;
#325 = PRESENTATION_STYLE_ASSIGNMENT (( #183 ) ) ;
#326 = EDGE_LOOP ( 'NONE', ( #43, #235, #210, #345 ) ) ;
#327 = DIRECTION ( 'NONE',  ( 1.000000000000000000, 0.0000000000000000000, 0.0000000000000000000 ) ) ;
#328 = DIRECTION ( 'NONE',  ( 1.000000000000000000, 0.0000000000000000000, 0.0000000000000000000 ) ) ;
#329 = ADVANCED_FACE ( 'NONE', ( #160 ), #118, .T. ) ;
#330 = VECTOR ( 'NONE', #92, 39.37007874015748143 ) ;
#331 = LINE ( 'NONE', #173, #13 ) ;
#332 = EDGE_CURVE ( 'NONE', #340, #152, #290, .T. ) ;
#333 = CIRCLE ( 'NONE', #28, 0.1179918899999999882 ) ;
#334 = PLANE ( 'NONE',  #275 ) ;
#335 = EDGE_CURVE ( 'NONE', #340, #292, #139, .T. ) ;
#336 = MECHANICAL_DESIGN_GEOMETRIC_PRESENTATION_REPRESENTATION (  '', ( #5 ), #131 ) ;
#337 = DIRECTION ( 'NONE',  ( -1.224646799147353207E-16, -0.0000000000000000000, -1.000000000000000000 ) ) ;
#338 = CARTESIAN_POINT ( 'NONE',  ( 7.714307363656999460E-17, 0.0000000000000000000, 0.6299209999999999532 ) ) ;
#339 = SURFACE_STYLE_FILL_AREA ( #259 ) ;
#340 = VERTEX_POINT ( 'NONE', #64 ) ;
#341 = CIRCLE ( 'NONE', #106, 0.1061808899999999861 ) ;
#342 = DIRECTION ( 'NONE',  ( 1.000000000000000000, 0.0000000000000000000, 0.0000000000000000000 ) ) ;
#343 = ORIENTED_EDGE ( 'NONE', *, *, #263, .F. ) ;
#344 = AXIS2_PLACEMENT_3D ( 'NONE', #69, #179, #180 ) ;
#345 = ORIENTED_EDGE ( 'NONE', *, *, #323, .F. ) ;
#346 = CARTESIAN_POINT ( 'NONE',  ( 0.0000000000000000000, 0.0000000000000000000, 2.229093999999999465 ) ) ;
#347 = STYLED_ITEM ( 'NONE', ( #283 ), #289 ) ;
#348 = CARTESIAN_POINT ( 'NONE',  ( 7.722510477716240475E-17, 0.0000000000000000000, 0.6305908350957151187 ) ) ;
#349 = VECTOR ( 'NONE', #196, 39.37007874015748143 ) ;
#350 = ORIENTED_EDGE ( 'NONE', *, *, #19, .F. ) ;
#351 = APPLICATION_CONTEXT ( 'automotive_design' ) ;
ENDSEC;
END-ISO-10303-21;
