ISO-10303-21;
HEADER;
FILE_DESCRIPTION (( 'STEP AP214' ),
    '1' );
FILE_NAME ('26287.STEP',
    '2023-06-22T17:36:14',
    ( '' ),
    ( '' ),
    'SwSTEP 2.0',
    'SolidWorks 2023',
    '' );
FILE_SCHEMA (( 'AUTOMOTIVE_DESIGN' ));
ENDSEC;

DATA;
#1 = FILL_AREA_STYLE ('',( #95 ) ) ;
#2 = SURFACE_SIDE_STYLE ('',( #137 ) ) ;
#3 = COLOUR_RGB ( '',1.000000000000000000, 0.000000000000000000, 0.000000000000000000 ) ;
#4 = LENGTH_MEASURE_WITH_UNIT ( LENGTH_MEASURE( 0.02539999999999999897 ), #162 );
#5 = EDGE_CURVE ( 'NONE', #266, #60, #68, .T. ) ;
#6 = DIRECTION ( 'NONE',  ( -3.498990854706726443E-17, 1.000000000000000000, -0.000000000000000000 ) ) ;
#7 =( CONVERSION_BASED_UNIT ( 'INCH', #214 ) LENGTH_UNIT ( ) NAMED_UNIT ( #21 ) );
#8 = VECTOR ( 'NONE', #20, 39.37007874015748143 ) ;
#9 = APPLICATION_PROTOCOL_DEFINITION ( 'draft international standard', 'automotive_design', 1998, #103 ) ;
#10 = ORIENTED_EDGE ( 'NONE', *, *, #57, .T. ) ;
#11 = MECHANICAL_DESIGN_GEOMETRIC_PRESENTATION_REPRESENTATION (  '', ( #132 ), #38 ) ;
#12 =( NAMED_UNIT ( * ) PLANE_ANGLE_UNIT ( ) SI_UNIT ( $, .RADIAN. ) );
#13 = EDGE_CURVE ( 'NONE', #16, #169, #156, .T. ) ;
#14 = ORIENTED_EDGE ( 'NONE', *, *, #28, .F. ) ;
#15 = FACE_OUTER_BOUND ( 'NONE', #294, .T. ) ;
#16 = VERTEX_POINT ( 'NONE', #306 ) ;
#17 = UNCERTAINTY_MEASURE_WITH_UNIT (LENGTH_MEASURE( 1.000000000000000082E-05 ), #115, 'distance_accuracy_value', 'NONE');
#18 = CARTESIAN_POINT ( 'NONE',  ( 0.000000000000000000, 1.250000000000000000, 0.000000000000000000 ) ) ;
#19 = DIRECTION ( 'NONE',  ( -3.498990854706726443E-17, 1.000000000000000000, -0.000000000000000000 ) ) ;
#20 = DIRECTION ( 'NONE',  ( -0.000000000000000000, -1.000000000000000000, -0.000000000000000000 ) ) ;
#21 = DIMENSIONAL_EXPONENTS ( 1.000000000000000000, 0.000000000000000000, 0.000000000000000000, 0.000000000000000000, 0.000000000000000000, 0.000000000000000000, 0.000000000000000000 ) ;
#22 = PRESENTATION_STYLE_ASSIGNMENT (( #66 ) ) ;
#23 = LENGTH_MEASURE_WITH_UNIT ( LENGTH_MEASURE( 0.02539999999999999897 ), #89 );
#24 = SURFACE_STYLE_USAGE ( .BOTH. , #234 ) ;
#25 =( NAMED_UNIT ( * ) PLANE_ANGLE_UNIT ( ) SI_UNIT ( $, .RADIAN. ) );
#26 = SURFACE_STYLE_FILL_AREA ( #51 ) ;
#27 =( NAMED_UNIT ( * ) SI_UNIT ( $, .STERADIAN. ) SOLID_ANGLE_UNIT ( ) );
#28 = EDGE_CURVE ( 'NONE', #74, #104, #265, .T. ) ;
#29 = PRESENTATION_STYLE_ASSIGNMENT (( #238 ) ) ;
#30 = AXIS2_PLACEMENT_3D ( 'NONE', #257, #139, #157 ) ;
#31 = PRESENTATION_STYLE_ASSIGNMENT (( #244 ) ) ;
#32 =( LENGTH_UNIT ( ) NAMED_UNIT ( * ) SI_UNIT ( $, .METRE. ) );
#33 = ADVANCED_FACE ( 'NONE', ( #277 ), #284, .T. ) ;
#34 = VECTOR ( 'NONE', #46, 39.37007874015748143 ) ;
#35 = ORIENTED_EDGE ( 'NONE', *, *, #248, .F. ) ;
#36 = FACE_OUTER_BOUND ( 'NONE', #173, .T. ) ;
#37 = ORIENTED_EDGE ( 'NONE', *, *, #5, .F. ) ;
#38 =( GEOMETRIC_REPRESENTATION_CONTEXT ( 3 ) GLOBAL_UNCERTAINTY_ASSIGNED_CONTEXT ( ( #258 ) ) GLOBAL_UNIT_ASSIGNED_CONTEXT ( ( #98, #39, #126 ) ) REPRESENTATION_CONTEXT ( 'NONE', 'WORKASPACE' ) );
#39 =( NAMED_UNIT ( * ) PLANE_ANGLE_UNIT ( ) SI_UNIT ( $, .RADIAN. ) );
#40 = PLANE ( 'NONE',  #285 ) ;
#41 = EDGE_LOOP ( 'NONE', ( #77, #268 ) ) ;
#42 = DIRECTION ( 'NONE',  ( -3.498990854706726443E-17, 1.000000000000000000, -0.000000000000000000 ) ) ;
#43 = FACE_OUTER_BOUND ( 'NONE', #56, .T. ) ;
#44 = COLOUR_RGB ( '',1.000000000000000000, 0.000000000000000000, 0.000000000000000000 ) ;
#45 = DIRECTION ( 'NONE',  ( 0.000000000000000000, -0.000000000000000000, 1.000000000000000000 ) ) ;
#46 = DIRECTION ( 'NONE',  ( -0.000000000000000000, -1.000000000000000000, -0.000000000000000000 ) ) ;
#47 = CARTESIAN_POINT ( 'NONE',  ( 0.000000000000000000, 1.250000000000000000, 0.000000000000000000 ) ) ;
#48 = SURFACE_STYLE_FILL_AREA ( #232 ) ;
#49 = STYLED_ITEM ( 'NONE', ( #29 ), #167 ) ;
#50 = DIRECTION ( 'NONE',  ( 0.000000000000000000, 0.000000000000000000, -1.000000000000000000 ) ) ;
#51 = FILL_AREA_STYLE ('',( #293 ) ) ;
#52 = CIRCLE ( 'NONE', #79, 0.2500000000000000555 ) ;
#53 = FILL_AREA_STYLE ('',( #261 ) ) ;
#54 = CARTESIAN_POINT ( 'NONE',  ( 0.000000000000000000, 0.000000000000000000, 0.000000000000000000 ) ) ;
#55 = MECHANICAL_DESIGN_GEOMETRIC_PRESENTATION_REPRESENTATION (  '', ( #109 ), #278 ) ;
#56 = EDGE_LOOP ( 'NONE', ( #250, #14 ) ) ;
#57 = EDGE_CURVE ( 'NONE', #104, #169, #69, .T. ) ;
#58 = CARTESIAN_POINT ( 'NONE',  ( 0.000000000000000000, 0.000000000000000000, -0.2500000000000000000 ) ) ;
#59 = ORIENTED_EDGE ( 'NONE', *, *, #141, .F. ) ;
#60 = VERTEX_POINT ( 'NONE', #154 ) ;
#61 = CARTESIAN_POINT ( 'NONE',  ( -0.2500000000000000555, 1.250000000000000000, 0.000000000000000000 ) ) ;
#62 = CARTESIAN_POINT ( 'NONE',  ( 0.2499999999999999722, 3.000000000000000444, 3.061616997868383634E-17 ) ) ;
#63 = AXIS2_PLACEMENT_3D ( 'NONE', #47, #91, #90 ) ;
#64 = DIRECTION ( 'NONE',  ( -1.000000000000000000, 0.000000000000000000, 0.000000000000000000 ) ) ;
#65 =( CONVERSION_BASED_UNIT ( 'INCH', #205 ) LENGTH_UNIT ( ) NAMED_UNIT ( #188 ) );
#66 = SURFACE_STYLE_USAGE ( .BOTH. , #2 ) ;
#67 = DIRECTION ( 'NONE',  ( 0.000000000000000000, 0.000000000000000000, -1.000000000000000000 ) ) ;
#68 = CIRCLE ( 'NONE', #308, 0.2500000000000000555 ) ;
#69 = LINE ( 'NONE', #209, #34 ) ;
#70 =( GEOMETRIC_REPRESENTATION_CONTEXT ( 3 ) GLOBAL_UNCERTAINTY_ASSIGNED_CONTEXT ( ( #92 ) ) GLOBAL_UNIT_ASSIGNED_CONTEXT ( ( #204, #177, #112 ) ) REPRESENTATION_CONTEXT ( 'NONE', 'WORKASPACE' ) );
#71 = EDGE_CURVE ( 'NONE', #169, #16, #246, .T. ) ;
#72 = CARTESIAN_POINT ( 'NONE',  ( 0.000000000000000000, 0.000000000000000000, 0.000000000000000000 ) ) ;
#73 = PLANE ( 'NONE',  #113 ) ;
#74 = VERTEX_POINT ( 'NONE', #210 ) ;
#75 =( GEOMETRIC_REPRESENTATION_CONTEXT ( 3 ) GLOBAL_UNCERTAINTY_ASSIGNED_CONTEXT ( ( #200 ) ) GLOBAL_UNIT_ASSIGNED_CONTEXT ( ( #7, #96, #218 ) ) REPRESENTATION_CONTEXT ( 'NONE', 'WORKASPACE' ) );
#76 = LINE ( 'NONE', #87, #8 ) ;
#77 = ORIENTED_EDGE ( 'NONE', *, *, #182, .T. ) ;
#78 = UNCERTAINTY_MEASURE_WITH_UNIT (LENGTH_MEASURE( 1.000000000000000082E-05 ), #116, 'distance_accuracy_value', 'NONE');
#79 = AXIS2_PLACEMENT_3D ( 'NONE', #145, #6, #237 ) ;
#80 = PLANE ( 'NONE',  #125 ) ;
#81 = COLOUR_RGB ( '',1.000000000000000000, 0.000000000000000000, 0.000000000000000000 ) ;
#82 = DIRECTION ( 'NONE',  ( -3.498990854706726443E-17, 1.000000000000000000, -0.000000000000000000 ) ) ;
#83 = DIRECTION ( 'NONE',  ( -3.498990854706726443E-17, 1.000000000000000000, -0.000000000000000000 ) ) ;
#84 = FILL_AREA_STYLE_COLOUR ( '', #3 ) ;
#85 =( LENGTH_UNIT ( ) NAMED_UNIT ( * ) SI_UNIT ( $, .METRE. ) );
#86 = PRODUCT_RELATED_PRODUCT_CATEGORY ( 'part', '', ( #235 ) ) ;
#87 = CARTESIAN_POINT ( 'NONE',  ( 3.061616997868383018E-17, 0.000000000000000000, 0.2500000000000000000 ) ) ;
#88 = PRESENTATION_LAYER_ASSIGNMENT (  '', '', ( #259 ) ) ;
#89 =( LENGTH_UNIT ( ) NAMED_UNIT ( * ) SI_UNIT ( $, .METRE. ) );
#90 = DIRECTION ( 'NONE',  ( 0.000000000000000000, 0.000000000000000000, -1.000000000000000000 ) ) ;
#91 = DIRECTION ( 'NONE',  ( -0.000000000000000000, -1.000000000000000000, -0.000000000000000000 ) ) ;
#92 = UNCERTAINTY_MEASURE_WITH_UNIT (LENGTH_MEASURE( 1.000000000000000082E-05 ), #204, 'distance_accuracy_value', 'NONE');
#93 = PRESENTATION_STYLE_ASSIGNMENT (( #183 ) ) ;
#94 = AXIS2_PLACEMENT_3D ( 'NONE', #18, #107, #133 ) ;
#95 = FILL_AREA_STYLE_COLOUR ( '', #81 ) ;
#96 =( NAMED_UNIT ( * ) PLANE_ANGLE_UNIT ( ) SI_UNIT ( $, .RADIAN. ) );
#97 = MANIFOLD_SOLID_BREP ( 'Revolve - Cutting Edge', #203 ) ;
#98 =( CONVERSION_BASED_UNIT ( 'INCH', #213 ) LENGTH_UNIT ( ) NAMED_UNIT ( #202 ) );
#99 = CARTESIAN_POINT ( 'NONE',  ( 0.000000000000000000, 0.000000000000000000, 0.000000000000000000 ) ) ;
#100 = DIRECTION ( 'NONE',  ( 0.000000000000000000, 0.000000000000000000, 1.000000000000000000 ) ) ;
#101 = ORIENTED_EDGE ( 'NONE', *, *, #274, .T. ) ;
#102 = CIRCLE ( 'NONE', #146, 0.2500000000000000555 ) ;
#103 = APPLICATION_CONTEXT ( 'automotive_design' ) ;
#104 = VERTEX_POINT ( 'NONE', #229 ) ;
#105 = DIRECTION ( 'NONE',  ( -3.498990854706726443E-17, 1.000000000000000000, 0.000000000000000000 ) ) ;
#106 = EDGE_LOOP ( 'NONE', ( #171, #151, #245, #267 ) ) ;
#107 = DIRECTION ( 'NONE',  ( -0.000000000000000000, -1.000000000000000000, -0.000000000000000000 ) ) ;
#108 = CARTESIAN_POINT ( 'NONE',  ( 0.000000000000000000, 1.250000000000000000, 0.000000000000000000 ) ) ;
#109 = STYLED_ITEM ( 'NONE', ( #22 ), #123 ) ;
#110 = LINE ( 'NONE', #303, #309 ) ;
#111 = DIRECTION ( 'NONE',  ( -0.000000000000000000, -1.000000000000000000, -0.000000000000000000 ) ) ;
#112 =( NAMED_UNIT ( * ) SI_UNIT ( $, .STERADIAN. ) SOLID_ANGLE_UNIT ( ) );
#113 = AXIS2_PLACEMENT_3D ( 'NONE', #72, #166, #163 ) ;
#114 = PRESENTATION_LAYER_ASSIGNMENT (  '', '', ( #227 ) ) ;
#115 =( CONVERSION_BASED_UNIT ( 'INCH', #23 ) LENGTH_UNIT ( ) NAMED_UNIT ( #280 ) );
#116 =( CONVERSION_BASED_UNIT ( 'INCH', #255 ) LENGTH_UNIT ( ) NAMED_UNIT ( #252 ) );
#117 = DIRECTION ( 'NONE',  ( -3.498990854706726443E-17, 1.000000000000000000, -0.000000000000000000 ) ) ;
#118 = DIRECTION ( 'NONE',  ( -0.000000000000000000, -1.000000000000000000, -0.000000000000000000 ) ) ;
#119 = COLOUR_RGB ( '',0.7921568627450980005, 0.8196078431372548767, 0.9333333333333333481 ) ;
#120 = PLANE ( 'NONE',  #124 ) ;
#121 = STYLED_ITEM ( 'NONE', ( #201 ), #217 ) ;
#122 = PRODUCT_CONTEXT ( 'NONE', #207, 'mechanical' ) ;
#123 = ADVANCED_FACE ( 'NONE', ( #178 ), #307, .T. ) ;
#124 = AXIS2_PLACEMENT_3D ( 'NONE', #161, #144, #140 ) ;
#125 = AXIS2_PLACEMENT_3D ( 'NONE', #129, #105, #175 ) ;
#126 =( NAMED_UNIT ( * ) SI_UNIT ( $, .STERADIAN. ) SOLID_ANGLE_UNIT ( ) );
#127 = UNCERTAINTY_MEASURE_WITH_UNIT (LENGTH_MEASURE( 1.000000000000000082E-05 ), #65, 'distance_accuracy_value', 'NONE');
#128 = ORIENTED_EDGE ( 'NONE', *, *, #71, .F. ) ;
#129 = CARTESIAN_POINT ( 'NONE',  ( 1.530367125165163809E-34, 1.250000000000000000, 0.000000000000000000 ) ) ;
#130 = ORIENTED_EDGE ( 'NONE', *, *, #141, .T. ) ;
#131 = CLOSED_SHELL ( 'NONE', ( #230, #242, #33, #147 ) ) ;
#132 = STYLED_ITEM ( 'NONE', ( #31 ), #192 ) ;
#133 = DIRECTION ( 'NONE',  ( 0.000000000000000000, 0.000000000000000000, -1.000000000000000000 ) ) ;
#134 = FILL_AREA_STYLE ('',( #273 ) ) ;
#135 = CYLINDRICAL_SURFACE ( 'NONE', #226, 0.2500000000000000555 ) ;
#136 = FILL_AREA_STYLE_COLOUR ( '', #300 ) ;
#137 = SURFACE_STYLE_FILL_AREA ( #134 ) ;
#138 = PRODUCT_DEFINITION_FORMATION_WITH_SPECIFIED_SOURCE ( 'ANY', '', #235, .NOT_KNOWN. ) ;
#139 = DIRECTION ( 'NONE',  ( -0.000000000000000000, -1.000000000000000000, -0.000000000000000000 ) ) ;
#140 = DIRECTION ( 'NONE',  ( 1.000000000000000000, 3.498990854706726443E-17, 0.000000000000000000 ) ) ;
#141 = EDGE_CURVE ( 'NONE', #60, #266, #52, .T. ) ;
#142 = PRESENTATION_LAYER_ASSIGNMENT (  '', '', ( #132 ) ) ;
#143 = SURFACE_SIDE_STYLE ('',( #26 ) ) ;
#144 = DIRECTION ( 'NONE',  ( 3.498990854706726443E-17, -1.000000000000000000, 0.000000000000000000 ) ) ;
#145 = CARTESIAN_POINT ( 'NONE',  ( 0.000000000000000000, 1.250000000000000000, 0.000000000000000000 ) ) ;
#146 = AXIS2_PLACEMENT_3D ( 'NONE', #264, #190, #290 ) ;
#147 = ADVANCED_FACE ( 'NONE', ( #286 ), #120, .F. ) ;
#148 = CARTESIAN_POINT ( 'NONE',  ( -6.123233995736772199E-17, 3.000000000000000444, 0.000000000000000000 ) ) ;
#149 = MECHANICAL_DESIGN_GEOMETRIC_PRESENTATION_REPRESENTATION (  '', ( #49 ), #75 ) ;
#150 = VECTOR ( 'NONE', #153, 39.37007874015748143 ) ;
#151 = ORIENTED_EDGE ( 'NONE', *, *, #283, .T. ) ;
#152 = DIRECTION ( 'NONE',  ( -1.000000000000000000, 0.000000000000000000, 0.000000000000000000 ) ) ;
#153 = DIRECTION ( 'NONE',  ( -3.498990854706726443E-17, 1.000000000000000000, -0.000000000000000000 ) ) ;
#154 = CARTESIAN_POINT ( 'NONE',  ( 0.2500000000000000555, 1.250000000000000000, 3.061616997868384251E-17 ) ) ;
#155 = PRESENTATION_LAYER_ASSIGNMENT (  '', '', ( #49 ) ) ;
#156 = CIRCLE ( 'NONE', #30, 0.2500000000000000000 ) ;
#157 = DIRECTION ( 'NONE',  ( 0.000000000000000000, 0.000000000000000000, -1.000000000000000000 ) ) ;
#158 = UNCERTAINTY_MEASURE_WITH_UNIT (LENGTH_MEASURE( 1.000000000000000082E-05 ), #189, 'distance_accuracy_value', 'NONE');
#159 = SURFACE_SIDE_STYLE ('',( #236 ) ) ;
#160 = PRESENTATION_LAYER_ASSIGNMENT (  '', '', ( #121 ) ) ;
#161 = CARTESIAN_POINT ( 'NONE',  ( 0.2499999999999999722, 3.000000000000000444, 0.000000000000000000 ) ) ;
#162 =( LENGTH_UNIT ( ) NAMED_UNIT ( * ) SI_UNIT ( $, .METRE. ) );
#163 = DIRECTION ( 'NONE',  ( 0.000000000000000000, 0.000000000000000000, -1.000000000000000000 ) ) ;
#164 = AXIS2_PLACEMENT_3D ( 'NONE', #184, #117, #256 ) ;
#165 = SURFACE_SIDE_STYLE ('',( #197 ) ) ;
#166 = DIRECTION ( 'NONE',  ( 0.000000000000000000, -1.000000000000000000, -0.000000000000000000 ) ) ;
#167 = ADVANCED_FACE ( 'NONE', ( #36 ), #73, .T. ) ;
#168 = COLOUR_RGB ( '',1.000000000000000000, 0.000000000000000000, 0.000000000000000000 ) ;
#169 = VERTEX_POINT ( 'NONE', #58 ) ;
#170 = ORIENTED_EDGE ( 'NONE', *, *, #57, .F. ) ;
#171 = ORIENTED_EDGE ( 'NONE', *, *, #5, .T. ) ;
#172 = SURFACE_STYLE_USAGE ( .BOTH. , #180 ) ;
#173 = EDGE_LOOP ( 'NONE', ( #299, #249 ) ) ;
#174 = MECHANICAL_DESIGN_GEOMETRIC_PRESENTATION_REPRESENTATION (  '', ( #121 ), #70 ) ;
#175 = DIRECTION ( 'NONE',  ( -1.000000000000000000, -3.498990854706726443E-17, 0.000000000000000000 ) ) ;
#176 = ORIENTED_EDGE ( 'NONE', *, *, #13, .F. ) ;
#177 =( NAMED_UNIT ( * ) PLANE_ANGLE_UNIT ( ) SI_UNIT ( $, .RADIAN. ) );
#178 = FACE_OUTER_BOUND ( 'NONE', #247, .T. ) ;
#179 = CARTESIAN_POINT ( 'NONE',  ( 0.000000000000000000, 0.000000000000000000, 0.000000000000000000 ) ) ;
#180 = SURFACE_SIDE_STYLE ('',( #276 ) ) ;
#181 =( NAMED_UNIT ( * ) PLANE_ANGLE_UNIT ( ) SI_UNIT ( $, .RADIAN. ) );
#182 = EDGE_CURVE ( 'NONE', #198, #271, #102, .T. ) ;
#183 = SURFACE_STYLE_USAGE ( .BOTH. , #159 ) ;
#184 = CARTESIAN_POINT ( 'NONE',  ( -6.123233995736772199E-17, 3.000000000000000444, 0.000000000000000000 ) ) ;
#185 =( NAMED_UNIT ( * ) PLANE_ANGLE_UNIT ( ) SI_UNIT ( $, .RADIAN. ) );
#186 = CIRCLE ( 'NONE', #94, 0.2500000000000000555 ) ;
#187 =( GEOMETRIC_REPRESENTATION_CONTEXT ( 3 ) GLOBAL_UNCERTAINTY_ASSIGNED_CONTEXT ( ( #78 ) ) GLOBAL_UNIT_ASSIGNED_CONTEXT ( ( #116, #185, #27 ) ) REPRESENTATION_CONTEXT ( 'NONE', 'WORKASPACE' ) );
#188 = DIMENSIONAL_EXPONENTS ( 1.000000000000000000, 0.000000000000000000, 0.000000000000000000, 0.000000000000000000, 0.000000000000000000, 0.000000000000000000, 0.000000000000000000 ) ;
#189 =( CONVERSION_BASED_UNIT ( 'INCH', #4 ) LENGTH_UNIT ( ) NAMED_UNIT ( #275 ) );
#190 = DIRECTION ( 'NONE',  ( -3.498990854706726443E-17, 1.000000000000000000, -0.000000000000000000 ) ) ;
#191 = CARTESIAN_POINT ( 'NONE',  ( -0.2500000000000001110, 3.000000000000000444, 0.000000000000000000 ) ) ;
#192 = MANIFOLD_SOLID_BREP ( 'Revolve - Tool Body (Straight Shanked)', #131 ) ;
#193 = APPLICATION_PROTOCOL_DEFINITION ( 'draft international standard', 'automotive_design', 1998, #207 ) ;
#194 = EDGE_CURVE ( 'NONE', #74, #16, #76, .T. ) ;
#195 = MECHANICAL_DESIGN_GEOMETRIC_PRESENTATION_REPRESENTATION (  '', ( #227 ), #187 ) ;
#196 = ORIENTED_EDGE ( 'NONE', *, *, #28, .T. ) ;
#197 = SURFACE_STYLE_FILL_AREA ( #53 ) ;
#198 = VERTEX_POINT ( 'NONE', #191 ) ;
#199 = ORIENTED_EDGE ( 'NONE', *, *, #194, .T. ) ;
#200 = UNCERTAINTY_MEASURE_WITH_UNIT (LENGTH_MEASURE( 1.000000000000000082E-05 ), #7, 'distance_accuracy_value', 'NONE');
#201 = PRESENTATION_STYLE_ASSIGNMENT (( #172 ) ) ;
#202 = DIMENSIONAL_EXPONENTS ( 1.000000000000000000, 0.000000000000000000, 0.000000000000000000, 0.000000000000000000, 0.000000000000000000, 0.000000000000000000, 0.000000000000000000 ) ;
#203 = CLOSED_SHELL ( 'NONE', ( #304, #217, #123, #167 ) ) ;
#204 =( CONVERSION_BASED_UNIT ( 'INCH', #208 ) LENGTH_UNIT ( ) NAMED_UNIT ( #222 ) );
#205 = LENGTH_MEASURE_WITH_UNIT ( LENGTH_MEASURE( 0.02539999999999999897 ), #85 );
#206 = FILL_AREA_STYLE ('',( #84 ) ) ;
#207 = APPLICATION_CONTEXT ( 'automotive_design' ) ;
#208 = LENGTH_MEASURE_WITH_UNIT ( LENGTH_MEASURE( 0.02539999999999999897 ), #298 );
#209 = CARTESIAN_POINT ( 'NONE',  ( 0.000000000000000000, 0.000000000000000000, -0.2500000000000000000 ) ) ;
#210 = CARTESIAN_POINT ( 'NONE',  ( 3.061616997868383634E-17, 1.250000000000000000, 0.2500000000000000555 ) ) ;
#211 =( LENGTH_UNIT ( ) NAMED_UNIT ( * ) SI_UNIT ( $, .METRE. ) );
#212 =( GEOMETRIC_REPRESENTATION_CONTEXT ( 3 ) GLOBAL_UNCERTAINTY_ASSIGNED_CONTEXT ( ( #127 ) ) GLOBAL_UNIT_ASSIGNED_CONTEXT ( ( #65, #181, #231 ) ) REPRESENTATION_CONTEXT ( 'NONE', 'WORKASPACE' ) );
#213 = LENGTH_MEASURE_WITH_UNIT ( LENGTH_MEASURE( 0.02539999999999999897 ), #211 );
#214 = LENGTH_MEASURE_WITH_UNIT ( LENGTH_MEASURE( 0.02539999999999999897 ), #32 );
#215 =( GEOMETRIC_REPRESENTATION_CONTEXT ( 3 ) GLOBAL_UNCERTAINTY_ASSIGNED_CONTEXT ( ( #158 ) ) GLOBAL_UNIT_ASSIGNED_CONTEXT ( ( #189, #25, #289 ) ) REPRESENTATION_CONTEXT ( 'NONE', 'WORKASPACE' ) );
#216 = DIRECTION ( 'NONE',  ( 1.000000000000000000, 0.000000000000000000, 0.000000000000000000 ) ) ;
#217 = ADVANCED_FACE ( 'NONE', ( #43 ), #40, .T. ) ;
#218 =( NAMED_UNIT ( * ) SI_UNIT ( $, .STERADIAN. ) SOLID_ANGLE_UNIT ( ) );
#219 = MECHANICAL_DESIGN_GEOMETRIC_PRESENTATION_REPRESENTATION (  '', ( #259 ), #212 ) ;
#220 = ORIENTED_EDGE ( 'NONE', *, *, #194, .F. ) ;
#221 = DIRECTION ( 'NONE',  ( -1.000000000000000000, 0.000000000000000000, 0.000000000000000000 ) ) ;
#222 = DIMENSIONAL_EXPONENTS ( 1.000000000000000000, 0.000000000000000000, 0.000000000000000000, 0.000000000000000000, 0.000000000000000000, 0.000000000000000000, 0.000000000000000000 ) ;
#223 = FACE_OUTER_BOUND ( 'NONE', #106, .T. ) ;
#224 = ORIENTED_EDGE ( 'NONE', *, *, #283, .F. ) ;
#225 = CARTESIAN_POINT ( 'NONE',  ( 0.2499999999999999722, 3.000000000000000444, 3.061616997868383634E-17 ) ) ;
#226 = AXIS2_PLACEMENT_3D ( 'NONE', #148, #42, #221 ) ;
#227 = STYLED_ITEM ( 'NONE', ( #93 ), #304 ) ;
#228 = CYLINDRICAL_SURFACE ( 'NONE', #260, 0.2500000000000000000 ) ;
#229 = CARTESIAN_POINT ( 'NONE',  ( 0.000000000000000000, 1.250000000000000000, -0.2500000000000000555 ) ) ;
#230 = ADVANCED_FACE ( 'NONE', ( #223 ), #135, .T. ) ;
#231 =( NAMED_UNIT ( * ) SI_UNIT ( $, .STERADIAN. ) SOLID_ANGLE_UNIT ( ) );
#232 = FILL_AREA_STYLE ('',( #136 ) ) ;
#233 = CARTESIAN_POINT ( 'NONE',  ( 0.000000000000000000, 0.000000000000000000, 0.000000000000000000 ) ) ;
#234 = SURFACE_SIDE_STYLE ('',( #48 ) ) ;
#235 = PRODUCT ( '26287', '26287', '', ( #122 ) ) ;
#236 = SURFACE_STYLE_FILL_AREA ( #1 ) ;
#237 = DIRECTION ( 'NONE',  ( -1.000000000000000000, 0.000000000000000000, 0.000000000000000000 ) ) ;
#238 = SURFACE_STYLE_USAGE ( .BOTH. , #165 ) ;
#239 = EDGE_CURVE ( 'NONE', #104, #74, #186, .T. ) ;
#240 = SHAPE_DEFINITION_REPRESENTATION ( #287, #262 ) ;
#241 = AXIS2_PLACEMENT_3D ( 'NONE', #270, #19, #152 ) ;
#242 = ADVANCED_FACE ( 'NONE', ( #15 ), #80, .F. ) ;
#243 = EDGE_LOOP ( 'NONE', ( #301, #199, #128, #170 ) ) ;
#244 = SURFACE_STYLE_USAGE ( .BOTH. , #143 ) ;
#245 = ORIENTED_EDGE ( 'NONE', *, *, #182, .F. ) ;
#246 = CIRCLE ( 'NONE', #269, 0.2500000000000000000 ) ;
#247 = EDGE_LOOP ( 'NONE', ( #220, #196, #10, #176 ) ) ;
#248 = EDGE_CURVE ( 'NONE', #271, #198, #263, .T. ) ;
#249 = ORIENTED_EDGE ( 'NONE', *, *, #13, .T. ) ;
#250 = ORIENTED_EDGE ( 'NONE', *, *, #239, .F. ) ;
#251 = FACE_OUTER_BOUND ( 'NONE', #243, .T. ) ;
#252 = DIMENSIONAL_EXPONENTS ( 1.000000000000000000, 0.000000000000000000, 0.000000000000000000, 0.000000000000000000, 0.000000000000000000, 0.000000000000000000, 0.000000000000000000 ) ;
#253 = DIRECTION ( 'NONE',  ( 0.000000000000000000, 1.000000000000000000, 0.000000000000000000 ) ) ;
#254 = DIRECTION ( 'NONE',  ( 0.000000000000000000, 0.000000000000000000, -1.000000000000000000 ) ) ;
#255 = LENGTH_MEASURE_WITH_UNIT ( LENGTH_MEASURE( 0.02539999999999999897 ), #281 );
#256 = DIRECTION ( 'NONE',  ( -1.000000000000000000, 0.000000000000000000, 0.000000000000000000 ) ) ;
#257 = CARTESIAN_POINT ( 'NONE',  ( 0.000000000000000000, 0.000000000000000000, 0.000000000000000000 ) ) ;
#258 = UNCERTAINTY_MEASURE_WITH_UNIT (LENGTH_MEASURE( 1.000000000000000082E-05 ), #98, 'distance_accuracy_value', 'NONE');
#259 = STYLED_ITEM ( 'NONE', ( #305 ), #97 ) ;
#260 = AXIS2_PLACEMENT_3D ( 'NONE', #233, #282, #67 ) ;
#261 = FILL_AREA_STYLE_COLOUR ( '', #168 ) ;
#262 = ADVANCED_BREP_SHAPE_REPRESENTATION ( '26287', ( #97, #192, #292 ), #215 ) ;
#263 = CIRCLE ( 'NONE', #241, 0.2500000000000000555 ) ;
#264 = CARTESIAN_POINT ( 'NONE',  ( -6.123233995736772199E-17, 3.000000000000000444, 0.000000000000000000 ) ) ;
#265 = CIRCLE ( 'NONE', #63, 0.2500000000000000555 ) ;
#266 = VERTEX_POINT ( 'NONE', #61 ) ;
#267 = ORIENTED_EDGE ( 'NONE', *, *, #274, .F. ) ;
#268 = ORIENTED_EDGE ( 'NONE', *, *, #248, .T. ) ;
#269 = AXIS2_PLACEMENT_3D ( 'NONE', #179, #111, #254 ) ;
#270 = CARTESIAN_POINT ( 'NONE',  ( -6.123233995736772199E-17, 3.000000000000000444, 0.000000000000000000 ) ) ;
#271 = VERTEX_POINT ( 'NONE', #225 ) ;
#272 = LINE ( 'NONE', #62, #150 ) ;
#273 = FILL_AREA_STYLE_COLOUR ( '', #44 ) ;
#274 = EDGE_CURVE ( 'NONE', #266, #198, #110, .T. ) ;
#275 = DIMENSIONAL_EXPONENTS ( 1.000000000000000000, 0.000000000000000000, 0.000000000000000000, 0.000000000000000000, 0.000000000000000000, 0.000000000000000000, 0.000000000000000000 ) ;
#276 = SURFACE_STYLE_FILL_AREA ( #206 ) ;
#277 = FACE_OUTER_BOUND ( 'NONE', #296, .T. ) ;
#278 =( GEOMETRIC_REPRESENTATION_CONTEXT ( 3 ) GLOBAL_UNCERTAINTY_ASSIGNED_CONTEXT ( ( #17 ) ) GLOBAL_UNIT_ASSIGNED_CONTEXT ( ( #115, #12, #288 ) ) REPRESENTATION_CONTEXT ( 'NONE', 'WORKASPACE' ) );
#279 = CARTESIAN_POINT ( 'NONE',  ( 0.000000000000000000, 1.250000000000000000, 0.000000000000000000 ) ) ;
#280 = DIMENSIONAL_EXPONENTS ( 1.000000000000000000, 0.000000000000000000, 0.000000000000000000, 0.000000000000000000, 0.000000000000000000, 0.000000000000000000, 0.000000000000000000 ) ;
#281 =( LENGTH_UNIT ( ) NAMED_UNIT ( * ) SI_UNIT ( $, .METRE. ) );
#282 = DIRECTION ( 'NONE',  ( -0.000000000000000000, -1.000000000000000000, -0.000000000000000000 ) ) ;
#283 = EDGE_CURVE ( 'NONE', #60, #271, #272, .T. ) ;
#284 = CYLINDRICAL_SURFACE ( 'NONE', #164, 0.2500000000000000555 ) ;
#285 = AXIS2_PLACEMENT_3D ( 'NONE', #279, #253, #45 ) ;
#286 = FACE_OUTER_BOUND ( 'NONE', #41, .T. ) ;
#287 = PRODUCT_DEFINITION_SHAPE ( 'NONE', 'NONE',  #297 ) ;
#288 =( NAMED_UNIT ( * ) SI_UNIT ( $, .STERADIAN. ) SOLID_ANGLE_UNIT ( ) );
#289 =( NAMED_UNIT ( * ) SI_UNIT ( $, .STERADIAN. ) SOLID_ANGLE_UNIT ( ) );
#290 = DIRECTION ( 'NONE',  ( -1.000000000000000000, 0.000000000000000000, 0.000000000000000000 ) ) ;
#291 = AXIS2_PLACEMENT_3D ( 'NONE', #99, #118, #50 ) ;
#292 = AXIS2_PLACEMENT_3D ( 'NONE', #54, #100, #216 ) ;
#293 = FILL_AREA_STYLE_COLOUR ( '', #119 ) ;
#294 = EDGE_LOOP ( 'NONE', ( #37, #59 ) ) ;
#295 = PRESENTATION_LAYER_ASSIGNMENT (  '', '', ( #109 ) ) ;
#296 = EDGE_LOOP ( 'NONE', ( #224, #130, #101, #35 ) ) ;
#297 = PRODUCT_DEFINITION ( 'UNKNOWN', '', #138, #302 ) ;
#298 =( LENGTH_UNIT ( ) NAMED_UNIT ( * ) SI_UNIT ( $, .METRE. ) );
#299 = ORIENTED_EDGE ( 'NONE', *, *, #71, .T. ) ;
#300 = COLOUR_RGB ( '',0.7921568627450980005, 0.8196078431372548767, 0.9333333333333333481 ) ;
#301 = ORIENTED_EDGE ( 'NONE', *, *, #239, .T. ) ;
#302 = PRODUCT_DEFINITION_CONTEXT ( 'detailed design', #103, 'design' ) ;
#303 = CARTESIAN_POINT ( 'NONE',  ( -0.2500000000000001110, 3.000000000000000444, 0.000000000000000000 ) ) ;
#304 = ADVANCED_FACE ( 'NONE', ( #251 ), #228, .T. ) ;
#305 = PRESENTATION_STYLE_ASSIGNMENT (( #24 ) ) ;
#306 = CARTESIAN_POINT ( 'NONE',  ( 3.061616997868383018E-17, 0.000000000000000000, 0.2500000000000000000 ) ) ;
#307 = CYLINDRICAL_SURFACE ( 'NONE', #291, 0.2500000000000000000 ) ;
#308 = AXIS2_PLACEMENT_3D ( 'NONE', #108, #82, #64 ) ;
#309 = VECTOR ( 'NONE', #83, 39.37007874015748143 ) ;
ENDSEC;
END-ISO-10303-21;
