ISO-10303-21;
HEADER;
FILE_DESCRIPTION (( 'STEP AP214' ),
    '1' );
FILE_NAME ('82262.STEP',
    '2023-06-23T04:32:34',
    ( '' ),
    ( '' ),
    'SwSTEP 2.0',
    'SolidWorks 2023',
    '' );
FILE_SCHEMA (( 'AUTOMOTIVE_DESIGN' ));
ENDSEC;

DATA;
#1 = DIRECTION ( 'NONE',  ( -1.000000000000000000, 3.391329597638825025E-16, 0.000000000000000000 ) ) ;
#2 = CARTESIAN_POINT ( 'NONE',  ( 0.000000000000000000, 0.3750000000000002220, 0.000000000000000000 ) ) ;
#3 = PRESENTATION_LAYER_ASSIGNMENT (  '', '', ( #137 ) ) ;
#4 = DIRECTION ( 'NONE',  ( 0.000000000000000000, 0.000000000000000000, -1.000000000000000000 ) ) ;
#5 = PRESENTATION_LAYER_ASSIGNMENT (  '', '', ( #96 ) ) ;
#6 = CARTESIAN_POINT ( 'NONE',  ( 1.530808498934191509E-17, 0.3750000000000002220, 0.1250000000000000000 ) ) ;
#7 = APPLICATION_PROTOCOL_DEFINITION ( 'draft international standard', 'automotive_design', 1998, #115 ) ;
#8 = FILL_AREA_STYLE_COLOUR ( '', #277 ) ;
#9 = EDGE_LOOP ( 'NONE', ( #101, #251 ) ) ;
#10 = PRODUCT_DEFINITION_FORMATION_WITH_SPECIFIED_SOURCE ( 'ANY', '', #181, .NOT_KNOWN. ) ;
#11 = ORIENTED_EDGE ( 'NONE', *, *, #188, .T. ) ;
#12 = EDGE_CURVE ( 'NONE', #75, #249, #301, .T. ) ;
#13 = SURFACE_STYLE_FILL_AREA ( #16 ) ;
#14 = MANIFOLD_SOLID_BREP ( 'Revolve - Cutting Edge', #208 ) ;
#15 = EDGE_CURVE ( 'NONE', #186, #75, #183, .T. ) ;
#16 = FILL_AREA_STYLE ('',( #133 ) ) ;
#17 = MECHANICAL_DESIGN_GEOMETRIC_PRESENTATION_REPRESENTATION (  '', ( #199 ), #226 ) ;
#18 = PLANE ( 'NONE',  #255 ) ;
#19 = ORIENTED_EDGE ( 'NONE', *, *, #26, .F. ) ;
#20 = CYLINDRICAL_SURFACE ( 'NONE', #164, 0.1249999999999997363 ) ;
#21 = VECTOR ( 'NONE', #52, 39.37007874015748143 ) ;
#22 = SURFACE_STYLE_FILL_AREA ( #89 ) ;
#23 = CARTESIAN_POINT ( 'NONE',  ( 1.530808498934191509E-17, 0.000000000000000000, 0.1250000000000000000 ) ) ;
#24 = PRESENTATION_STYLE_ASSIGNMENT (( #245 ) ) ;
#25 = ORIENTED_EDGE ( 'NONE', *, *, #15, .F. ) ;
#26 = EDGE_CURVE ( 'NONE', #33, #185, #253, .T. ) ;
#27 =( NAMED_UNIT ( * ) PLANE_ANGLE_UNIT ( ) SI_UNIT ( $, .RADIAN. ) );
#28 = ORIENTED_EDGE ( 'NONE', *, *, #228, .F. ) ;
#29 = LINE ( 'NONE', #175, #21 ) ;
#30 = ORIENTED_EDGE ( 'NONE', *, *, #273, .F. ) ;
#31 = DIRECTION ( 'NONE',  ( 0.000000000000000000, -1.000000000000000000, -0.000000000000000000 ) ) ;
#32 = PRESENTATION_LAYER_ASSIGNMENT (  '', '', ( #92 ) ) ;
#33 = VERTEX_POINT ( 'NONE', #55 ) ;
#34 = ORIENTED_EDGE ( 'NONE', *, *, #273, .T. ) ;
#35 = SURFACE_STYLE_USAGE ( .BOTH. , #258 ) ;
#36 = ADVANCED_FACE ( 'NONE', ( #139 ), #165, .T. ) ;
#37 = DIRECTION ( 'NONE',  ( -1.000000000000000000, 0.000000000000000000, 0.000000000000000000 ) ) ;
#38 = MECHANICAL_DESIGN_GEOMETRIC_PRESENTATION_REPRESENTATION (  '', ( #92 ), #209 ) ;
#39 = EDGE_LOOP ( 'NONE', ( #257, #306, #84, #28 ) ) ;
#40 = ADVANCED_FACE ( 'NONE', ( #265 ), #18, .T. ) ;
#41 = FILL_AREA_STYLE_COLOUR ( '', #274 ) ;
#42 = DIMENSIONAL_EXPONENTS ( 1.000000000000000000, 0.000000000000000000, 0.000000000000000000, 0.000000000000000000, 0.000000000000000000, 0.000000000000000000, 0.000000000000000000 ) ;
#43 =( CONVERSION_BASED_UNIT ( 'INCH', #263 ) LENGTH_UNIT ( ) NAMED_UNIT ( #283 ) );
#44 =( NAMED_UNIT ( * ) PLANE_ANGLE_UNIT ( ) SI_UNIT ( $, .RADIAN. ) );
#45 = PLANE ( 'NONE',  #157 ) ;
#46 = PRODUCT_DEFINITION_SHAPE ( 'NONE', 'NONE',  #194 ) ;
#47 = PLANE ( 'NONE',  #304 ) ;
#48 = CARTESIAN_POINT ( 'NONE',  ( 0.000000000000000000, 0.000000000000000000, 0.000000000000000000 ) ) ;
#49 = UNCERTAINTY_MEASURE_WITH_UNIT (LENGTH_MEASURE( 1.000000000000000082E-05 ), #240, 'distance_accuracy_value', 'NONE');
#50 = DIRECTION ( 'NONE',  ( -0.000000000000000000, -1.000000000000000000, -0.000000000000000000 ) ) ;
#51 = UNCERTAINTY_MEASURE_WITH_UNIT (LENGTH_MEASURE( 1.000000000000000082E-05 ), #122, 'distance_accuracy_value', 'NONE');
#52 = DIRECTION ( 'NONE',  ( -0.000000000000000000, -1.000000000000000000, -0.000000000000000000 ) ) ;
#53 = DIRECTION ( 'NONE',  ( 0.000000000000000000, 0.000000000000000000, 1.000000000000000000 ) ) ;
#54 = FILL_AREA_STYLE ('',( #8 ) ) ;
#55 = CARTESIAN_POINT ( 'NONE',  ( 0.000000000000000000, 0.3750000000000002220, -0.1250000000000000000 ) ) ;
#56 = ADVANCED_FACE ( 'NONE', ( #241 ), #20, .T. ) ;
#57 = ADVANCED_FACE ( 'NONE', ( #65 ), #47, .F. ) ;
#58 = ORIENTED_EDGE ( 'NONE', *, *, #26, .T. ) ;
#59 = VERTEX_POINT ( 'NONE', #6 ) ;
#60 =( NAMED_UNIT ( * ) SI_UNIT ( $, .STERADIAN. ) SOLID_ANGLE_UNIT ( ) );
#61 =( NAMED_UNIT ( * ) PLANE_ANGLE_UNIT ( ) SI_UNIT ( $, .RADIAN. ) );
#62 = VECTOR ( 'NONE', #227, 39.37007874015748143 ) ;
#63 = LENGTH_MEASURE_WITH_UNIT ( LENGTH_MEASURE( 0.02539999999999999897 ), #106 );
#64 = DIRECTION ( 'NONE',  ( -1.000000000000000000, 0.000000000000000000, 0.000000000000000000 ) ) ;
#65 = FACE_OUTER_BOUND ( 'NONE', #88, .T. ) ;
#66 = DIRECTION ( 'NONE',  ( 0.000000000000000000, 0.000000000000000000, -1.000000000000000000 ) ) ;
#67 = DIRECTION ( 'NONE',  ( 0.000000000000000000, 0.000000000000000000, -1.000000000000000000 ) ) ;
#68 = LENGTH_MEASURE_WITH_UNIT ( LENGTH_MEASURE( 0.02539999999999999897 ), #219 );
#69 = CARTESIAN_POINT ( 'NONE',  ( 5.510910596163089556E-16, 2.000000000000000000, 0.000000000000000000 ) ) ;
#70 = DIRECTION ( 'NONE',  ( 3.391329597638825025E-16, 1.000000000000000000, -0.000000000000000000 ) ) ;
#71 = AXIS2_PLACEMENT_3D ( 'NONE', #140, #282, #64 ) ;
#72 = DIRECTION ( 'NONE',  ( 3.391329597638825025E-16, 1.000000000000000000, -0.000000000000000000 ) ) ;
#73 = PRODUCT_CONTEXT ( 'NONE', #80, 'mechanical' ) ;
#74 = CARTESIAN_POINT ( 'NONE',  ( 0.000000000000000000, 0.000000000000000000, 0.000000000000000000 ) ) ;
#75 = VERTEX_POINT ( 'NONE', #128 ) ;
#76 = DIRECTION ( 'NONE',  ( -1.000000000000000000, 5.463695987328526437E-16, 0.000000000000000000 ) ) ;
#77 =( GEOMETRIC_REPRESENTATION_CONTEXT ( 3 ) GLOBAL_UNCERTAINTY_ASSIGNED_CONTEXT ( ( #291 ) ) GLOBAL_UNIT_ASSIGNED_CONTEXT ( ( #212, #252, #162 ) ) REPRESENTATION_CONTEXT ( 'NONE', 'WORKASPACE' ) );
#78 = PRESENTATION_STYLE_ASSIGNMENT (( #207 ) ) ;
#79 = PRESENTATION_LAYER_ASSIGNMENT (  '', '', ( #199 ) ) ;
#80 = APPLICATION_CONTEXT ( 'automotive_design' ) ;
#81 = EDGE_CURVE ( 'NONE', #33, #59, #235, .T. ) ;
#82 = ORIENTED_EDGE ( 'NONE', *, *, #117, .T. ) ;
#83 = LENGTH_MEASURE_WITH_UNIT ( LENGTH_MEASURE( 0.02539999999999999897 ), #210 );
#84 = ORIENTED_EDGE ( 'NONE', *, *, #12, .T. ) ;
#85 = MECHANICAL_DESIGN_GEOMETRIC_PRESENTATION_REPRESENTATION (  '', ( #137 ), #77 ) ;
#86 = AXIS2_PLACEMENT_3D ( 'NONE', #74, #266, #4 ) ;
#87 = UNCERTAINTY_MEASURE_WITH_UNIT (LENGTH_MEASURE( 1.000000000000000082E-05 ), #43, 'distance_accuracy_value', 'NONE');
#88 = EDGE_LOOP ( 'NONE', ( #34, #234 ) ) ;
#89 = FILL_AREA_STYLE ('',( #236 ) ) ;
#90 = COLOUR_RGB ( '',0.7921568627450980005, 0.8196078431372548767, 0.9333333333333333481 ) ;
#91 = DIMENSIONAL_EXPONENTS ( 1.000000000000000000, 0.000000000000000000, 0.000000000000000000, 0.000000000000000000, 0.000000000000000000, 0.000000000000000000, 0.000000000000000000 ) ;
#92 = STYLED_ITEM ( 'NONE', ( #247 ), #123 ) ;
#93 = DIRECTION ( 'NONE',  ( -0.000000000000000000, -1.000000000000000000, -0.000000000000000000 ) ) ;
#94 = DIMENSIONAL_EXPONENTS ( 1.000000000000000000, 0.000000000000000000, 0.000000000000000000, 0.000000000000000000, 0.000000000000000000, 0.000000000000000000, 0.000000000000000000 ) ;
#95 = DIRECTION ( 'NONE',  ( 0.000000000000000000, 0.000000000000000000, -1.000000000000000000 ) ) ;
#96 = STYLED_ITEM ( 'NONE', ( #150 ), #40 ) ;
#97 = CIRCLE ( 'NONE', #246, 0.1249999999999994865 ) ;
#98 = SURFACE_STYLE_FILL_AREA ( #54 ) ;
#99 =( CONVERSION_BASED_UNIT ( 'INCH', #292 ) LENGTH_UNIT ( ) NAMED_UNIT ( #147 ) );
#100 = DIRECTION ( 'NONE',  ( 1.000000000000000000, -3.391329597638825025E-16, 0.000000000000000000 ) ) ;
#101 = ORIENTED_EDGE ( 'NONE', *, *, #81, .F. ) ;
#102 = CARTESIAN_POINT ( 'NONE',  ( 5.510910596163089556E-16, 2.000000000000000000, 0.000000000000000000 ) ) ;
#103 = CARTESIAN_POINT ( 'NONE',  ( 0.000000000000000000, 0.3750000000000002220, 0.000000000000000000 ) ) ;
#104 = ORIENTED_EDGE ( 'NONE', *, *, #81, .T. ) ;
#105 = SURFACE_SIDE_STYLE ('',( #13 ) ) ;
#106 =( LENGTH_UNIT ( ) NAMED_UNIT ( * ) SI_UNIT ( $, .METRE. ) );
#107 = FILL_AREA_STYLE_COLOUR ( '', #90 ) ;
#108 = MECHANICAL_DESIGN_GEOMETRIC_PRESENTATION_REPRESENTATION (  '', ( #96 ), #144 ) ;
#109 = EDGE_CURVE ( 'NONE', #189, #185, #230, .T. ) ;
#110 = ORIENTED_EDGE ( 'NONE', *, *, #109, .F. ) ;
#111 = CARTESIAN_POINT ( 'NONE',  ( 0.1250000000000000278, 2.000000000000000000, 1.530808498934189968E-17 ) ) ;
#112 = UNCERTAINTY_MEASURE_WITH_UNIT (LENGTH_MEASURE( 1.000000000000000082E-05 ), #121, 'distance_accuracy_value', 'NONE');
#113 =( LENGTH_UNIT ( ) NAMED_UNIT ( * ) SI_UNIT ( $, .METRE. ) );
#114 =( NAMED_UNIT ( * ) PLANE_ANGLE_UNIT ( ) SI_UNIT ( $, .RADIAN. ) );
#115 = APPLICATION_CONTEXT ( 'automotive_design' ) ;
#116 = DIMENSIONAL_EXPONENTS ( 1.000000000000000000, 0.000000000000000000, 0.000000000000000000, 0.000000000000000000, 0.000000000000000000, 0.000000000000000000, 0.000000000000000000 ) ;
#117 = EDGE_CURVE ( 'NONE', #59, #33, #191, .T. ) ;
#118 = DIRECTION ( 'NONE',  ( 3.391329597638825025E-16, 1.000000000000000000, -0.000000000000000000 ) ) ;
#119 =( GEOMETRIC_REPRESENTATION_CONTEXT ( 3 ) GLOBAL_UNCERTAINTY_ASSIGNED_CONTEXT ( ( #237 ) ) GLOBAL_UNIT_ASSIGNED_CONTEXT ( ( #187, #114, #262 ) ) REPRESENTATION_CONTEXT ( 'NONE', 'WORKASPACE' ) );
#120 = PRESENTATION_LAYER_ASSIGNMENT (  '', '', ( #168 ) ) ;
#121 =( CONVERSION_BASED_UNIT ( 'INCH', #146 ) LENGTH_UNIT ( ) NAMED_UNIT ( #91 ) );
#122 =( CONVERSION_BASED_UNIT ( 'INCH', #68 ) LENGTH_UNIT ( ) NAMED_UNIT ( #125 ) );
#123 = ADVANCED_FACE ( 'NONE', ( #269 ), #203, .T. ) ;
#124 = CARTESIAN_POINT ( 'NONE',  ( 0.1250000000000000278, 2.000000000000000000, 0.000000000000000000 ) ) ;
#125 = DIMENSIONAL_EXPONENTS ( 1.000000000000000000, 0.000000000000000000, 0.000000000000000000, 0.000000000000000000, 0.000000000000000000, 0.000000000000000000, 0.000000000000000000 ) ;
#126 = AXIS2_PLACEMENT_3D ( 'NONE', #102, #294, #159 ) ;
#127 = FACE_OUTER_BOUND ( 'NONE', #193, .T. ) ;
#128 = CARTESIAN_POINT ( 'NONE',  ( -0.1250000000000000000, 0.3750000000000002776, 0.000000000000000000 ) ) ;
#129 = ORIENTED_EDGE ( 'NONE', *, *, #12, .F. ) ;
#130 =( NAMED_UNIT ( * ) PLANE_ANGLE_UNIT ( ) SI_UNIT ( $, .RADIAN. ) );
#131 = CARTESIAN_POINT ( 'NONE',  ( 0.000000000000000000, 0.000000000000000000, 0.000000000000000000 ) ) ;
#132 = EDGE_CURVE ( 'NONE', #75, #186, #178, .T. ) ;
#133 = FILL_AREA_STYLE_COLOUR ( '', #163 ) ;
#134 = EDGE_CURVE ( 'NONE', #59, #189, #29, .T. ) ;
#135 = PRODUCT_RELATED_PRODUCT_CATEGORY ( 'part', '', ( #181 ) ) ;
#136 = ORIENTED_EDGE ( 'NONE', *, *, #132, .T. ) ;
#137 = STYLED_ITEM ( 'NONE', ( #256 ), #14 ) ;
#138 =( GEOMETRIC_REPRESENTATION_CONTEXT ( 3 ) GLOBAL_UNCERTAINTY_ASSIGNED_CONTEXT ( ( #87 ) ) GLOBAL_UNIT_ASSIGNED_CONTEXT ( ( #43, #130, #174 ) ) REPRESENTATION_CONTEXT ( 'NONE', 'WORKASPACE' ) );
#139 = FACE_OUTER_BOUND ( 'NONE', #176, .T. ) ;
#140 = CARTESIAN_POINT ( 'NONE',  ( 5.510910596163089556E-16, 2.000000000000000000, 0.000000000000000000 ) ) ;
#141 = ORIENTED_EDGE ( 'NONE', *, *, #202, .T. ) ;
#142 = ADVANCED_BREP_SHAPE_REPRESENTATION ( '82262', ( #14, #215, #151 ), #205 ) ;
#143 = CARTESIAN_POINT ( 'NONE',  ( 0.000000000000000000, 0.3750000000000002220, 0.000000000000000000 ) ) ;
#144 =( GEOMETRIC_REPRESENTATION_CONTEXT ( 3 ) GLOBAL_UNCERTAINTY_ASSIGNED_CONTEXT ( ( #112 ) ) GLOBAL_UNIT_ASSIGNED_CONTEXT ( ( #121, #44, #217 ) ) REPRESENTATION_CONTEXT ( 'NONE', 'WORKASPACE' ) );
#145 = SURFACE_STYLE_FILL_AREA ( #149 ) ;
#146 = LENGTH_MEASURE_WITH_UNIT ( LENGTH_MEASURE( 0.02539999999999999897 ), #195 );
#147 = DIMENSIONAL_EXPONENTS ( 1.000000000000000000, 0.000000000000000000, 0.000000000000000000, 0.000000000000000000, 0.000000000000000000, 0.000000000000000000, 0.000000000000000000 ) ;
#148 = DIRECTION ( 'NONE',  ( 0.000000000000000000, -0.000000000000000000, 1.000000000000000000 ) ) ;
#149 = FILL_AREA_STYLE ('',( #41 ) ) ;
#150 = PRESENTATION_STYLE_ASSIGNMENT (( #279 ) ) ;
#151 = AXIS2_PLACEMENT_3D ( 'NONE', #244, #53, #289 ) ;
#152 = CARTESIAN_POINT ( 'NONE',  ( 0.1250000000000002776, 2.000000000000000000, 1.530808498934188427E-17 ) ) ;
#153 = PRODUCT_DEFINITION_CONTEXT ( 'detailed design', #115, 'design' ) ;
#154 = SHAPE_DEFINITION_REPRESENTATION ( #46, #142 ) ;
#155 = SURFACE_SIDE_STYLE ('',( #200 ) ) ;
#156 = PRESENTATION_LAYER_ASSIGNMENT (  '', '', ( #190 ) ) ;
#157 = AXIS2_PLACEMENT_3D ( 'NONE', #259, #167, #1 ) ;
#158 = CARTESIAN_POINT ( 'NONE',  ( 0.1250000000000000000, 0.3750000000000001665, 1.530808498934189968E-17 ) ) ;
#159 = DIRECTION ( 'NONE',  ( -1.000000000000000000, 0.000000000000000000, 0.000000000000000000 ) ) ;
#160 = FILL_AREA_STYLE ('',( #179 ) ) ;
#161 = CIRCLE ( 'NONE', #243, 0.1250000000000000000 ) ;
#162 =( NAMED_UNIT ( * ) SI_UNIT ( $, .STERADIAN. ) SOLID_ANGLE_UNIT ( ) );
#163 = COLOUR_RGB ( '',1.000000000000000000, 0.000000000000000000, 0.000000000000000000 ) ;
#164 = AXIS2_PLACEMENT_3D ( 'NONE', #196, #118, #216 ) ;
#165 = CYLINDRICAL_SURFACE ( 'NONE', #242, 0.1250000000000000000 ) ;
#166 = FACE_OUTER_BOUND ( 'NONE', #182, .T. ) ;
#167 = DIRECTION ( 'NONE',  ( 3.391329597638825025E-16, 1.000000000000000000, -0.000000000000000000 ) ) ;
#168 = STYLED_ITEM ( 'NONE', ( #238 ), #299 ) ;
#169 = DIRECTION ( 'NONE',  ( 0.000000000000000000, 1.000000000000000000, 0.000000000000000000 ) ) ;
#170 = SURFACE_STYLE_USAGE ( .BOTH. , #214 ) ;
#171 = AXIS2_PLACEMENT_3D ( 'NONE', #2, #177, #67 ) ;
#172 = CARTESIAN_POINT ( 'NONE',  ( 0.000000000000000000, 0.000000000000000000, 0.000000000000000000 ) ) ;
#173 = DIRECTION ( 'NONE',  ( 0.000000000000000000, 0.000000000000000000, -1.000000000000000000 ) ) ;
#174 =( NAMED_UNIT ( * ) SI_UNIT ( $, .STERADIAN. ) SOLID_ANGLE_UNIT ( ) );
#175 = CARTESIAN_POINT ( 'NONE',  ( 1.530808498934191509E-17, 0.000000000000000000, 0.1250000000000000000 ) ) ;
#176 = EDGE_LOOP ( 'NONE', ( #104, #285, #280, #19 ) ) ;
#177 = DIRECTION ( 'NONE',  ( -0.000000000000000000, -1.000000000000000000, -0.000000000000000000 ) ) ;
#178 = CIRCLE ( 'NONE', #281, 0.1250000000000000000 ) ;
#179 = FILL_AREA_STYLE_COLOUR ( '', #300 ) ;
#180 = ORIENTED_EDGE ( 'NONE', *, *, #109, .T. ) ;
#181 = PRODUCT ( '82262', '82262', '', ( #73 ) ) ;
#182 = EDGE_LOOP ( 'NONE', ( #225, #25 ) ) ;
#183 = CIRCLE ( 'NONE', #308, 0.1250000000000000000 ) ;
#184 = CIRCLE ( 'NONE', #71, 0.1249999999999994865 ) ;
#185 = VERTEX_POINT ( 'NONE', #198 ) ;
#186 = VERTEX_POINT ( 'NONE', #158 ) ;
#187 =( CONVERSION_BASED_UNIT ( 'INCH', #83 ) LENGTH_UNIT ( ) NAMED_UNIT ( #42 ) );
#188 = EDGE_CURVE ( 'NONE', #186, #233, #286, .T. ) ;
#189 = VERTEX_POINT ( 'NONE', #23 ) ;
#190 = STYLED_ITEM ( 'NONE', ( #78 ), #36 ) ;
#191 = CIRCLE ( 'NONE', #211, 0.1250000000000000000 ) ;
#192 = DIRECTION ( 'NONE',  ( 3.391329597638825025E-16, 1.000000000000000000, -0.000000000000000000 ) ) ;
#193 = EDGE_LOOP ( 'NONE', ( #136, #11, #30, #129 ) ) ;
#194 = PRODUCT_DEFINITION ( 'UNKNOWN', '', #10, #153 ) ;
#195 =( LENGTH_UNIT ( ) NAMED_UNIT ( * ) SI_UNIT ( $, .METRE. ) );
#196 = CARTESIAN_POINT ( 'NONE',  ( 5.510910596163089556E-16, 2.000000000000000000, 0.000000000000000000 ) ) ;
#197 = CARTESIAN_POINT ( 'NONE',  ( -0.1249999999999989453, 2.000000000000000000, 0.000000000000000000 ) ) ;
#198 = CARTESIAN_POINT ( 'NONE',  ( 0.000000000000000000, 0.000000000000000000, -0.1250000000000000000 ) ) ;
#199 = STYLED_ITEM ( 'NONE', ( #24 ), #215 ) ;
#200 = SURFACE_STYLE_FILL_AREA ( #160 ) ;
#201 = CARTESIAN_POINT ( 'NONE',  ( 0.000000000000000000, 0.3750000000000002220, 0.000000000000000000 ) ) ;
#202 = EDGE_CURVE ( 'NONE', #185, #189, #161, .T. ) ;
#203 = PLANE ( 'NONE',  #287 ) ;
#204 = COLOUR_RGB ( '',1.000000000000000000, 0.000000000000000000, 0.000000000000000000 ) ;
#205 =( GEOMETRIC_REPRESENTATION_CONTEXT ( 3 ) GLOBAL_UNCERTAINTY_ASSIGNED_CONTEXT ( ( #51 ) ) GLOBAL_UNIT_ASSIGNED_CONTEXT ( ( #122, #27, #223 ) ) REPRESENTATION_CONTEXT ( 'NONE', 'WORKASPACE' ) );
#206 =( NAMED_UNIT ( * ) PLANE_ANGLE_UNIT ( ) SI_UNIT ( $, .RADIAN. ) );
#207 = SURFACE_STYLE_USAGE ( .BOTH. , #105 ) ;
#208 = CLOSED_SHELL ( 'NONE', ( #36, #40, #299, #123 ) ) ;
#209 =( GEOMETRIC_REPRESENTATION_CONTEXT ( 3 ) GLOBAL_UNCERTAINTY_ASSIGNED_CONTEXT ( ( #213 ) ) GLOBAL_UNIT_ASSIGNED_CONTEXT ( ( #99, #206, #224 ) ) REPRESENTATION_CONTEXT ( 'NONE', 'WORKASPACE' ) );
#210 =( LENGTH_UNIT ( ) NAMED_UNIT ( * ) SI_UNIT ( $, .METRE. ) );
#211 = AXIS2_PLACEMENT_3D ( 'NONE', #103, #50, #95 ) ;
#212 =( CONVERSION_BASED_UNIT ( 'INCH', #302 ) LENGTH_UNIT ( ) NAMED_UNIT ( #116 ) );
#213 = UNCERTAINTY_MEASURE_WITH_UNIT (LENGTH_MEASURE( 1.000000000000000082E-05 ), #99, 'distance_accuracy_value', 'NONE');
#214 = SURFACE_SIDE_STYLE ('',( #145 ) ) ;
#215 = MANIFOLD_SOLID_BREP ( 'Revolve - Tool Body (Straight Shanked)', #229 ) ;
#216 = DIRECTION ( 'NONE',  ( -1.000000000000000000, 0.000000000000000000, 0.000000000000000000 ) ) ;
#217 =( NAMED_UNIT ( * ) SI_UNIT ( $, .STERADIAN. ) SOLID_ANGLE_UNIT ( ) );
#218 = DIRECTION ( 'NONE',  ( -1.000000000000000000, 5.463695987328526437E-16, 0.000000000000000000 ) ) ;
#219 =( LENGTH_UNIT ( ) NAMED_UNIT ( * ) SI_UNIT ( $, .METRE. ) );
#220 = DIRECTION ( 'NONE',  ( 0.000000000000000000, 0.000000000000000000, -1.000000000000000000 ) ) ;
#221 = CYLINDRICAL_SURFACE ( 'NONE', #126, 0.1249999999999997363 ) ;
#222 = DIRECTION ( 'NONE',  ( -0.000000000000000000, -1.000000000000000000, -0.000000000000000000 ) ) ;
#223 =( NAMED_UNIT ( * ) SI_UNIT ( $, .STERADIAN. ) SOLID_ANGLE_UNIT ( ) );
#224 =( NAMED_UNIT ( * ) SI_UNIT ( $, .STERADIAN. ) SOLID_ANGLE_UNIT ( ) );
#225 = ORIENTED_EDGE ( 'NONE', *, *, #132, .F. ) ;
#226 =( GEOMETRIC_REPRESENTATION_CONTEXT ( 3 ) GLOBAL_UNCERTAINTY_ASSIGNED_CONTEXT ( ( #49 ) ) GLOBAL_UNIT_ASSIGNED_CONTEXT ( ( #240, #61, #60 ) ) REPRESENTATION_CONTEXT ( 'NONE', 'WORKASPACE' ) );
#227 = DIRECTION ( 'NONE',  ( -0.000000000000000000, -1.000000000000000000, -0.000000000000000000 ) ) ;
#228 = EDGE_CURVE ( 'NONE', #233, #249, #97, .T. ) ;
#229 = CLOSED_SHELL ( 'NONE', ( #307, #288, #56, #57 ) ) ;
#230 = CIRCLE ( 'NONE', #86, 0.1250000000000000000 ) ;
#231 = CARTESIAN_POINT ( 'NONE',  ( 0.000000000000000000, 0.3750000000000002220, 0.000000000000000000 ) ) ;
#232 = CARTESIAN_POINT ( 'NONE',  ( 0.000000000000000000, 0.000000000000000000, -0.1250000000000000000 ) ) ;
#233 = VERTEX_POINT ( 'NONE', #111 ) ;
#234 = ORIENTED_EDGE ( 'NONE', *, *, #228, .T. ) ;
#235 = CIRCLE ( 'NONE', #171, 0.1250000000000000000 ) ;
#236 = FILL_AREA_STYLE_COLOUR ( '', #204 ) ;
#237 = UNCERTAINTY_MEASURE_WITH_UNIT (LENGTH_MEASURE( 1.000000000000000082E-05 ), #187, 'distance_accuracy_value', 'NONE');
#238 = PRESENTATION_STYLE_ASSIGNMENT (( #170 ) ) ;
#239 = EDGE_LOOP ( 'NONE', ( #296, #82, #58, #110 ) ) ;
#240 =( CONVERSION_BASED_UNIT ( 'INCH', #63 ) LENGTH_UNIT ( ) NAMED_UNIT ( #94 ) );
#241 = FACE_OUTER_BOUND ( 'NONE', #39, .T. ) ;
#242 = AXIS2_PLACEMENT_3D ( 'NONE', #48, #93, #66 ) ;
#243 = AXIS2_PLACEMENT_3D ( 'NONE', #131, #293, #220 ) ;
#244 = CARTESIAN_POINT ( 'NONE',  ( 0.000000000000000000, 0.000000000000000000, 0.000000000000000000 ) ) ;
#245 = SURFACE_STYLE_USAGE ( .BOTH. , #155 ) ;
#246 = AXIS2_PLACEMENT_3D ( 'NONE', #69, #309, #37 ) ;
#247 = PRESENTATION_STYLE_ASSIGNMENT (( #295 ) ) ;
#248 = DIRECTION ( 'NONE',  ( -3.391329597638825025E-16, -1.000000000000000000, 0.000000000000000000 ) ) ;
#249 = VERTEX_POINT ( 'NONE', #197 ) ;
#250 = CARTESIAN_POINT ( 'NONE',  ( 0.000000000000000000, 0.000000000000000000, 0.000000000000000000 ) ) ;
#251 = ORIENTED_EDGE ( 'NONE', *, *, #117, .F. ) ;
#252 =( NAMED_UNIT ( * ) PLANE_ANGLE_UNIT ( ) SI_UNIT ( $, .RADIAN. ) );
#253 = LINE ( 'NONE', #232, #62 ) ;
#254 = MECHANICAL_DESIGN_GEOMETRIC_PRESENTATION_REPRESENTATION (  '', ( #190 ), #119 ) ;
#255 = AXIS2_PLACEMENT_3D ( 'NONE', #143, #169, #148 ) ;
#256 = PRESENTATION_STYLE_ASSIGNMENT (( #35 ) ) ;
#257 = ORIENTED_EDGE ( 'NONE', *, *, #188, .F. ) ;
#258 = SURFACE_SIDE_STYLE ('',( #276 ) ) ;
#259 = CARTESIAN_POINT ( 'NONE',  ( 7.188197774888196297E-33, 0.3750000000000002220, 0.000000000000000000 ) ) ;
#260 = CYLINDRICAL_SURFACE ( 'NONE', #261, 0.1250000000000000000 ) ;
#261 = AXIS2_PLACEMENT_3D ( 'NONE', #172, #222, #267 ) ;
#262 =( NAMED_UNIT ( * ) SI_UNIT ( $, .STERADIAN. ) SOLID_ANGLE_UNIT ( ) );
#263 = LENGTH_MEASURE_WITH_UNIT ( LENGTH_MEASURE( 0.02539999999999999897 ), #113 );
#264 = APPLICATION_PROTOCOL_DEFINITION ( 'draft international standard', 'automotive_design', 1998, #80 ) ;
#265 = FACE_OUTER_BOUND ( 'NONE', #9, .T. ) ;
#266 = DIRECTION ( 'NONE',  ( -0.000000000000000000, -1.000000000000000000, -0.000000000000000000 ) ) ;
#267 = DIRECTION ( 'NONE',  ( 0.000000000000000000, 0.000000000000000000, -1.000000000000000000 ) ) ;
#268 =( LENGTH_UNIT ( ) NAMED_UNIT ( * ) SI_UNIT ( $, .METRE. ) );
#269 = FACE_OUTER_BOUND ( 'NONE', #290, .T. ) ;
#270 = VECTOR ( 'NONE', #72, 39.37007874015748143 ) ;
#271 = MECHANICAL_DESIGN_GEOMETRIC_PRESENTATION_REPRESENTATION (  '', ( #168 ), #138 ) ;
#272 = SURFACE_SIDE_STYLE ('',( #98 ) ) ;
#273 = EDGE_CURVE ( 'NONE', #249, #233, #184, .T. ) ;
#274 = COLOUR_RGB ( '',1.000000000000000000, 0.000000000000000000, 0.000000000000000000 ) ;
#275 = FILL_AREA_STYLE ('',( #107 ) ) ;
#276 = SURFACE_STYLE_FILL_AREA ( #275 ) ;
#277 = COLOUR_RGB ( '',1.000000000000000000, 0.000000000000000000, 0.000000000000000000 ) ;
#278 =( LENGTH_UNIT ( ) NAMED_UNIT ( * ) SI_UNIT ( $, .METRE. ) );
#279 = SURFACE_STYLE_USAGE ( .BOTH. , #305 ) ;
#280 = ORIENTED_EDGE ( 'NONE', *, *, #202, .F. ) ;
#281 = AXIS2_PLACEMENT_3D ( 'NONE', #201, #70, #218 ) ;
#282 = DIRECTION ( 'NONE',  ( 3.391329597638825025E-16, 1.000000000000000000, -0.000000000000000000 ) ) ;
#283 = DIMENSIONAL_EXPONENTS ( 1.000000000000000000, 0.000000000000000000, 0.000000000000000000, 0.000000000000000000, 0.000000000000000000, 0.000000000000000000, 0.000000000000000000 ) ;
#284 = FACE_OUTER_BOUND ( 'NONE', #239, .T. ) ;
#285 = ORIENTED_EDGE ( 'NONE', *, *, #134, .T. ) ;
#286 = LINE ( 'NONE', #152, #270 ) ;
#287 = AXIS2_PLACEMENT_3D ( 'NONE', #250, #31, #173 ) ;
#288 = ADVANCED_FACE ( 'NONE', ( #166 ), #45, .F. ) ;
#289 = DIRECTION ( 'NONE',  ( 1.000000000000000000, 0.000000000000000000, 0.000000000000000000 ) ) ;
#290 = EDGE_LOOP ( 'NONE', ( #141, #180 ) ) ;
#291 = UNCERTAINTY_MEASURE_WITH_UNIT (LENGTH_MEASURE( 1.000000000000000082E-05 ), #212, 'distance_accuracy_value', 'NONE');
#292 = LENGTH_MEASURE_WITH_UNIT ( LENGTH_MEASURE( 0.02539999999999999897 ), #268 );
#293 = DIRECTION ( 'NONE',  ( -0.000000000000000000, -1.000000000000000000, -0.000000000000000000 ) ) ;
#294 = DIRECTION ( 'NONE',  ( 3.391329597638825025E-16, 1.000000000000000000, -0.000000000000000000 ) ) ;
#295 = SURFACE_STYLE_USAGE ( .BOTH. , #272 ) ;
#296 = ORIENTED_EDGE ( 'NONE', *, *, #134, .F. ) ;
#297 = CARTESIAN_POINT ( 'NONE',  ( -0.1249999999999991951, 2.000000000000000000, 0.000000000000000000 ) ) ;
#298 = VECTOR ( 'NONE', #192, 39.37007874015748143 ) ;
#299 = ADVANCED_FACE ( 'NONE', ( #284 ), #260, .T. ) ;
#300 = COLOUR_RGB ( '',0.7921568627450980005, 0.8196078431372548767, 0.9333333333333333481 ) ;
#301 = LINE ( 'NONE', #297, #298 ) ;
#302 = LENGTH_MEASURE_WITH_UNIT ( LENGTH_MEASURE( 0.02539999999999999897 ), #278 );
#303 = DIRECTION ( 'NONE',  ( 3.391329597638825025E-16, 1.000000000000000000, -0.000000000000000000 ) ) ;
#304 = AXIS2_PLACEMENT_3D ( 'NONE', #124, #248, #100 ) ;
#305 = SURFACE_SIDE_STYLE ('',( #22 ) ) ;
#306 = ORIENTED_EDGE ( 'NONE', *, *, #15, .T. ) ;
#307 = ADVANCED_FACE ( 'NONE', ( #127 ), #221, .T. ) ;
#308 = AXIS2_PLACEMENT_3D ( 'NONE', #231, #303, #76 ) ;
#309 = DIRECTION ( 'NONE',  ( 3.391329597638825025E-16, 1.000000000000000000, -0.000000000000000000 ) ) ;
ENDSEC;
END-ISO-10303-21;
