ISO-10303-21;
HEADER;
FILE_DESCRIPTION (( 'STEP AP214' ),
    '1' );
FILE_NAME ('81407.STEP',
    '2023-06-23T01:18:05',
    ( '' ),
    ( '' ),
    'SwSTEP 2.0',
    'SolidWorks 2023',
    '' );
FILE_SCHEMA (( 'AUTOMOTIVE_DESIGN' ));
ENDSEC;

DATA;
#1 = MANIFOLD_SOLID_BREP ( 'Revolve - Tool Body (Straight Shanked)', #164 ) ;
#2 = LENGTH_MEASURE_WITH_UNIT ( LENGTH_MEASURE( 0.02539999999999999897 ), #292 );
#3 = ORIENTED_EDGE ( 'NONE', *, *, #151, .T. ) ;
#4 = UNCERTAINTY_MEASURE_WITH_UNIT (LENGTH_MEASURE( 1.000000000000000082E-05 ), #137, 'distance_accuracy_value', 'NONE');
#5 = SURFACE_STYLE_USAGE ( .BOTH. , #218 ) ;
#6 = PLANE ( 'NONE',  #212 ) ;
#7 = PRESENTATION_STYLE_ASSIGNMENT (( #5 ) ) ;
#8 = CARTESIAN_POINT ( 'NONE',  ( 1.913510623667739463E-17, 0.000000000000000000, 0.1562500000000000000 ) ) ;
#9 = MECHANICAL_DESIGN_GEOMETRIC_PRESENTATION_REPRESENTATION (  '', ( #75 ), #187 ) ;
#10 =( LENGTH_UNIT ( ) NAMED_UNIT ( * ) SI_UNIT ( $, .METRE. ) );
#11 = CARTESIAN_POINT ( 'NONE',  ( 1.913510623667739463E-17, 0.000000000000000000, 0.1562500000000000000 ) ) ;
#12 = LENGTH_MEASURE_WITH_UNIT ( LENGTH_MEASURE( 0.02539999999999999897 ), #38 );
#13 = AXIS2_PLACEMENT_3D ( 'NONE', #47, #192, #245 ) ;
#14 = AXIS2_PLACEMENT_3D ( 'NONE', #154, #126, #132 ) ;
#15 = SURFACE_STYLE_USAGE ( .BOTH. , #228 ) ;
#16 = ADVANCED_FACE ( 'NONE', ( #250 ), #25, .T. ) ;
#17 =( GEOMETRIC_REPRESENTATION_CONTEXT ( 3 ) GLOBAL_UNCERTAINTY_ASSIGNED_CONTEXT ( ( #283 ) ) GLOBAL_UNIT_ASSIGNED_CONTEXT ( ( #174, #150, #196 ) ) REPRESENTATION_CONTEXT ( 'NONE', 'WORKASPACE' ) );
#18 = DIRECTION ( 'NONE',  ( -3.498990854706722745E-17, 1.000000000000000000, -0.000000000000000000 ) ) ;
#19 = ORIENTED_EDGE ( 'NONE', *, *, #96, .T. ) ;
#20 = CARTESIAN_POINT ( 'NONE',  ( 0.000000000000000000, 0.000000000000000000, 0.000000000000000000 ) ) ;
#21 = VERTEX_POINT ( 'NONE', #30 ) ;
#22 = MECHANICAL_DESIGN_GEOMETRIC_PRESENTATION_REPRESENTATION (  '', ( #171 ), #34 ) ;
#23 = ADVANCED_FACE ( 'NONE', ( #118 ), #6, .F. ) ;
#24 = PRODUCT_DEFINITION ( 'UNKNOWN', '', #194, #215 ) ;
#25 = PLANE ( 'NONE',  #103 ) ;
#26 = DIRECTION ( 'NONE',  ( -1.000000000000000000, 0.000000000000000000, 0.000000000000000000 ) ) ;
#27 = PRESENTATION_LAYER_ASSIGNMENT (  '', '', ( #272 ) ) ;
#28 = MECHANICAL_DESIGN_GEOMETRIC_PRESENTATION_REPRESENTATION (  '', ( #46 ), #266 ) ;
#29 = ORIENTED_EDGE ( 'NONE', *, *, #128, .T. ) ;
#30 = CARTESIAN_POINT ( 'NONE',  ( 0.1562500000000000000, 2.500000000000000000, 1.913510623667739771E-17 ) ) ;
#31 = LENGTH_MEASURE_WITH_UNIT ( LENGTH_MEASURE( 0.02539999999999999897 ), #10 );
#32 = CARTESIAN_POINT ( 'NONE',  ( 1.913510623667739463E-17, 0.7500000000000001110, 0.1562500000000000000 ) ) ;
#33 = CARTESIAN_POINT ( 'NONE',  ( -6.123233995736766036E-17, 2.500000000000000000, 0.000000000000000000 ) ) ;
#34 =( GEOMETRIC_REPRESENTATION_CONTEXT ( 3 ) GLOBAL_UNCERTAINTY_ASSIGNED_CONTEXT ( ( #184 ) ) GLOBAL_UNIT_ASSIGNED_CONTEXT ( ( #117, #97, #207 ) ) REPRESENTATION_CONTEXT ( 'NONE', 'WORKASPACE' ) );
#35 =( CONVERSION_BASED_UNIT ( 'INCH', #12 ) LENGTH_UNIT ( ) NAMED_UNIT ( #114 ) );
#36 = FILL_AREA_STYLE_COLOUR ( '', #265 ) ;
#37 = ADVANCED_FACE ( 'NONE', ( #195 ), #113, .T. ) ;
#38 =( LENGTH_UNIT ( ) NAMED_UNIT ( * ) SI_UNIT ( $, .METRE. ) );
#39 = DIRECTION ( 'NONE',  ( -0.000000000000000000, -1.000000000000000000, -0.000000000000000000 ) ) ;
#40 = AXIS2_PLACEMENT_3D ( 'NONE', #271, #39, #168 ) ;
#41 = CARTESIAN_POINT ( 'NONE',  ( 0.000000000000000000, 0.7500000000000001110, -0.1562500000000000000 ) ) ;
#42 =( CONVERSION_BASED_UNIT ( 'INCH', #257 ) LENGTH_UNIT ( ) NAMED_UNIT ( #260 ) );
#43 = ORIENTED_EDGE ( 'NONE', *, *, #77, .T. ) ;
#44 = EDGE_CURVE ( 'NONE', #282, #21, #186, .T. ) ;
#45 = LENGTH_MEASURE_WITH_UNIT ( LENGTH_MEASURE( 0.02539999999999999897 ), #193 );
#46 = STYLED_ITEM ( 'NONE', ( #277 ), #211 ) ;
#47 = CARTESIAN_POINT ( 'NONE',  ( -6.123233995736766036E-17, 2.500000000000000000, 0.000000000000000000 ) ) ;
#48 =( NAMED_UNIT ( * ) PLANE_ANGLE_UNIT ( ) SI_UNIT ( $, .RADIAN. ) );
#49 = CARTESIAN_POINT ( 'NONE',  ( 0.1562499999999999722, 2.500000000000000000, 1.913510623667739771E-17 ) ) ;
#50 = SURFACE_STYLE_FILL_AREA ( #263 ) ;
#51 = DIRECTION ( 'NONE',  ( 0.000000000000000000, 0.000000000000000000, -1.000000000000000000 ) ) ;
#52 = MECHANICAL_DESIGN_GEOMETRIC_PRESENTATION_REPRESENTATION (  '', ( #68 ), #107 ) ;
#53 = DIRECTION ( 'NONE',  ( 0.000000000000000000, -1.000000000000000000, -0.000000000000000000 ) ) ;
#54 = PLANE ( 'NONE',  #147 ) ;
#55 = FILL_AREA_STYLE ('',( #270 ) ) ;
#56 = AXIS2_PLACEMENT_3D ( 'NONE', #76, #296, #156 ) ;
#57 = PRESENTATION_STYLE_ASSIGNMENT (( #202 ) ) ;
#58 = DIRECTION ( 'NONE',  ( 0.000000000000000000, 0.000000000000000000, -1.000000000000000000 ) ) ;
#59 = DIRECTION ( 'NONE',  ( -1.000000000000000000, 0.000000000000000000, 0.000000000000000000 ) ) ;
#60 = SURFACE_STYLE_FILL_AREA ( #279 ) ;
#61 = VECTOR ( 'NONE', #299, 39.37007874015748143 ) ;
#62 = SURFACE_STYLE_USAGE ( .BOTH. , #182 ) ;
#63 = DIRECTION ( 'NONE',  ( -0.000000000000000000, -1.000000000000000000, -0.000000000000000000 ) ) ;
#64 = ORIENTED_EDGE ( 'NONE', *, *, #183, .T. ) ;
#65 = PRODUCT ( '81407', '81407', '', ( #131 ) ) ;
#66 = ORIENTED_EDGE ( 'NONE', *, *, #44, .T. ) ;
#67 =( NAMED_UNIT ( * ) PLANE_ANGLE_UNIT ( ) SI_UNIT ( $, .RADIAN. ) );
#68 = STYLED_ITEM ( 'NONE', ( #254 ), #105 ) ;
#69 =( CONVERSION_BASED_UNIT ( 'INCH', #2 ) LENGTH_UNIT ( ) NAMED_UNIT ( #303 ) );
#70 = DIRECTION ( 'NONE',  ( -1.000000000000000000, 0.000000000000000000, 0.000000000000000000 ) ) ;
#71 =( CONVERSION_BASED_UNIT ( 'INCH', #101 ) LENGTH_UNIT ( ) NAMED_UNIT ( #95 ) );
#72 = EDGE_LOOP ( 'NONE', ( #29, #19, #286, #305 ) ) ;
#73 = DIRECTION ( 'NONE',  ( 1.000000000000000000, 3.498990854706722745E-17, 0.000000000000000000 ) ) ;
#74 = ADVANCED_BREP_SHAPE_REPRESENTATION ( '81407', ( #105, #1, #56 ), #17 ) ;
#75 = STYLED_ITEM ( 'NONE', ( #7 ), #119 ) ;
#76 = CARTESIAN_POINT ( 'NONE',  ( 0.000000000000000000, 0.000000000000000000, 0.000000000000000000 ) ) ;
#77 = EDGE_CURVE ( 'NONE', #134, #204, #268, .T. ) ;
#78 = FILL_AREA_STYLE_COLOUR ( '', #146 ) ;
#79 = FACE_OUTER_BOUND ( 'NONE', #244, .T. ) ;
#80 = SURFACE_SIDE_STYLE ('',( #297 ) ) ;
#81 = CARTESIAN_POINT ( 'NONE',  ( 9.564794532282251356E-35, 0.7500000000000001110, 0.000000000000000000 ) ) ;
#82 = ADVANCED_FACE ( 'NONE', ( #139 ), #217, .T. ) ;
#83 = LENGTH_MEASURE_WITH_UNIT ( LENGTH_MEASURE( 0.02539999999999999897 ), #293 );
#84 = EDGE_CURVE ( 'NONE', #240, #21, #306, .T. ) ;
#85 = CARTESIAN_POINT ( 'NONE',  ( 0.000000000000000000, 0.7500000000000001110, 0.000000000000000000 ) ) ;
#86 = CARTESIAN_POINT ( 'NONE',  ( -0.1562500000000000000, 0.7499999999999998890, 0.000000000000000000 ) ) ;
#87 = ORIENTED_EDGE ( 'NONE', *, *, #155, .F. ) ;
#88 = MECHANICAL_DESIGN_GEOMETRIC_PRESENTATION_REPRESENTATION (  '', ( #111 ), #153 ) ;
#89 = ORIENTED_EDGE ( 'NONE', *, *, #125, .T. ) ;
#90 = ORIENTED_EDGE ( 'NONE', *, *, #123, .T. ) ;
#91 = FACE_OUTER_BOUND ( 'NONE', #179, .T. ) ;
#92 = COLOUR_RGB ( '',1.000000000000000000, 0.000000000000000000, 0.000000000000000000 ) ;
#93 = CYLINDRICAL_SURFACE ( 'NONE', #40, 0.1562500000000000000 ) ;
#94 =( GEOMETRIC_REPRESENTATION_CONTEXT ( 3 ) GLOBAL_UNCERTAINTY_ASSIGNED_CONTEXT ( ( #167 ) ) GLOBAL_UNIT_ASSIGNED_CONTEXT ( ( #71, #222, #148 ) ) REPRESENTATION_CONTEXT ( 'NONE', 'WORKASPACE' ) );
#95 = DIMENSIONAL_EXPONENTS ( 1.000000000000000000, 0.000000000000000000, 0.000000000000000000, 0.000000000000000000, 0.000000000000000000, 0.000000000000000000, 0.000000000000000000 ) ;
#96 = EDGE_CURVE ( 'NONE', #236, #264, #221, .T. ) ;
#97 =( NAMED_UNIT ( * ) PLANE_ANGLE_UNIT ( ) SI_UNIT ( $, .RADIAN. ) );
#98 = UNCERTAINTY_MEASURE_WITH_UNIT (LENGTH_MEASURE( 1.000000000000000082E-05 ), #35, 'distance_accuracy_value', 'NONE');
#99 = PLANE ( 'NONE',  #258 ) ;
#100 =( LENGTH_UNIT ( ) NAMED_UNIT ( * ) SI_UNIT ( $, .METRE. ) );
#101 = LENGTH_MEASURE_WITH_UNIT ( LENGTH_MEASURE( 0.02539999999999999897 ), #100 );
#102 =( NAMED_UNIT ( * ) PLANE_ANGLE_UNIT ( ) SI_UNIT ( $, .RADIAN. ) );
#103 = AXIS2_PLACEMENT_3D ( 'NONE', #145, #53, #51 ) ;
#104 = CIRCLE ( 'NONE', #14, 0.1562500000000000000 ) ;
#105 = MANIFOLD_SOLID_BREP ( 'Revolve - Cutting Edge', #206 ) ;
#106 = CARTESIAN_POINT ( 'NONE',  ( 0.000000000000000000, 0.000000000000000000, -0.1562500000000000000 ) ) ;
#107 =( GEOMETRIC_REPRESENTATION_CONTEXT ( 3 ) GLOBAL_UNCERTAINTY_ASSIGNED_CONTEXT ( ( #247 ) ) GLOBAL_UNIT_ASSIGNED_CONTEXT ( ( #69, #191, #262 ) ) REPRESENTATION_CONTEXT ( 'NONE', 'WORKASPACE' ) );
#108 = CIRCLE ( 'NONE', #200, 0.1562500000000000833 ) ;
#109 = DIRECTION ( 'NONE',  ( -1.000000000000000000, 0.000000000000000000, 0.000000000000000000 ) ) ;
#110 = CARTESIAN_POINT ( 'NONE',  ( 0.000000000000000000, 0.7500000000000001110, 0.000000000000000000 ) ) ;
#111 = STYLED_ITEM ( 'NONE', ( #251 ), #234 ) ;
#112 = ORIENTED_EDGE ( 'NONE', *, *, #201, .F. ) ;
#113 = CYLINDRICAL_SURFACE ( 'NONE', #280, 0.1562500000000000278 ) ;
#114 = DIMENSIONAL_EXPONENTS ( 1.000000000000000000, 0.000000000000000000, 0.000000000000000000, 0.000000000000000000, 0.000000000000000000, 0.000000000000000000, 0.000000000000000000 ) ;
#115 = SURFACE_STYLE_FILL_AREA ( #295 ) ;
#116 = CARTESIAN_POINT ( 'NONE',  ( 0.1562500000000000000, 2.500000000000000000, 0.000000000000000000 ) ) ;
#117 =( CONVERSION_BASED_UNIT ( 'INCH', #31 ) LENGTH_UNIT ( ) NAMED_UNIT ( #209 ) );
#118 = FACE_OUTER_BOUND ( 'NONE', #238, .T. ) ;
#119 = ADVANCED_FACE ( 'NONE', ( #220 ), #93, .T. ) ;
#120 = DIRECTION ( 'NONE',  ( -3.498990854706722745E-17, 1.000000000000000000, -0.000000000000000000 ) ) ;
#121 = AXIS2_PLACEMENT_3D ( 'NONE', #163, #252, #58 ) ;
#122 = SURFACE_STYLE_USAGE ( .BOTH. , #269 ) ;
#123 = EDGE_CURVE ( 'NONE', #205, #240, #214, .T. ) ;
#124 = ORIENTED_EDGE ( 'NONE', *, *, #155, .T. ) ;
#125 = EDGE_CURVE ( 'NONE', #205, #282, #301, .T. ) ;
#126 = DIRECTION ( 'NONE',  ( -0.000000000000000000, -1.000000000000000000, -0.000000000000000000 ) ) ;
#127 = ORIENTED_EDGE ( 'NONE', *, *, #128, .F. ) ;
#128 = EDGE_CURVE ( 'NONE', #134, #236, #213, .T. ) ;
#129 = DIRECTION ( 'NONE',  ( -1.000000000000000000, 0.000000000000000000, 0.000000000000000000 ) ) ;
#130 = VECTOR ( 'NONE', #189, 39.37007874015748143 ) ;
#131 = PRODUCT_CONTEXT ( 'NONE', #199, 'mechanical' ) ;
#132 = DIRECTION ( 'NONE',  ( 0.000000000000000000, 0.000000000000000000, -1.000000000000000000 ) ) ;
#133 = DIRECTION ( 'NONE',  ( 0.000000000000000000, 0.000000000000000000, -1.000000000000000000 ) ) ;
#134 = VERTEX_POINT ( 'NONE', #41 ) ;
#135 = FILL_AREA_STYLE_COLOUR ( '', #275 ) ;
#136 = UNCERTAINTY_MEASURE_WITH_UNIT (LENGTH_MEASURE( 1.000000000000000082E-05 ), #42, 'distance_accuracy_value', 'NONE');
#137 =( CONVERSION_BASED_UNIT ( 'INCH', #45 ) LENGTH_UNIT ( ) NAMED_UNIT ( #162 ) );
#138 =( NAMED_UNIT ( * ) SI_UNIT ( $, .STERADIAN. ) SOLID_ANGLE_UNIT ( ) );
#139 = FACE_OUTER_BOUND ( 'NONE', #267, .T. ) ;
#140 = SURFACE_SIDE_STYLE ('',( #50 ) ) ;
#141 = EDGE_LOOP ( 'NONE', ( #127, #87 ) ) ;
#142 = VECTOR ( 'NONE', #241, 39.37007874015748143 ) ;
#143 = CIRCLE ( 'NONE', #256, 0.1562500000000000000 ) ;
#144 = DIRECTION ( 'NONE',  ( -3.498990854706722745E-17, 1.000000000000000000, -0.000000000000000000 ) ) ;
#145 = CARTESIAN_POINT ( 'NONE',  ( 0.000000000000000000, 0.000000000000000000, 0.000000000000000000 ) ) ;
#146 = COLOUR_RGB ( '',1.000000000000000000, 0.000000000000000000, 0.000000000000000000 ) ;
#147 = AXIS2_PLACEMENT_3D ( 'NONE', #81, #169, #225 ) ;
#148 =( NAMED_UNIT ( * ) SI_UNIT ( $, .STERADIAN. ) SOLID_ANGLE_UNIT ( ) );
#149 = FACE_OUTER_BOUND ( 'NONE', #141, .T. ) ;
#150 =( NAMED_UNIT ( * ) PLANE_ANGLE_UNIT ( ) SI_UNIT ( $, .RADIAN. ) );
#151 = EDGE_CURVE ( 'NONE', #204, #264, #143, .T. ) ;
#152 = PRESENTATION_LAYER_ASSIGNMENT (  '', '', ( #171 ) ) ;
#153 =( GEOMETRIC_REPRESENTATION_CONTEXT ( 3 ) GLOBAL_UNCERTAINTY_ASSIGNED_CONTEXT ( ( #98 ) ) GLOBAL_UNIT_ASSIGNED_CONTEXT ( ( #35, #102, #170 ) ) REPRESENTATION_CONTEXT ( 'NONE', 'WORKASPACE' ) );
#154 = CARTESIAN_POINT ( 'NONE',  ( 0.000000000000000000, 0.000000000000000000, 0.000000000000000000 ) ) ;
#155 = EDGE_CURVE ( 'NONE', #236, #134, #242, .T. ) ;
#156 = DIRECTION ( 'NONE',  ( 1.000000000000000000, 0.000000000000000000, 0.000000000000000000 ) ) ;
#157 = CYLINDRICAL_SURFACE ( 'NONE', #121, 0.1562500000000000000 ) ;
#158 = PRESENTATION_LAYER_ASSIGNMENT (  '', '', ( #68 ) ) ;
#159 = AXIS2_PLACEMENT_3D ( 'NONE', #276, #161, #133 ) ;
#160 =( LENGTH_UNIT ( ) NAMED_UNIT ( * ) SI_UNIT ( $, .METRE. ) );
#161 = DIRECTION ( 'NONE',  ( -0.000000000000000000, -1.000000000000000000, -0.000000000000000000 ) ) ;
#162 = DIMENSIONAL_EXPONENTS ( 1.000000000000000000, 0.000000000000000000, 0.000000000000000000, 0.000000000000000000, 0.000000000000000000, 0.000000000000000000, 0.000000000000000000 ) ;
#163 = CARTESIAN_POINT ( 'NONE',  ( 0.000000000000000000, 0.000000000000000000, 0.000000000000000000 ) ) ;
#164 = CLOSED_SHELL ( 'NONE', ( #37, #226, #82, #23 ) ) ;
#165 = ORIENTED_EDGE ( 'NONE', *, *, #84, .T. ) ;
#166 = SURFACE_STYLE_FILL_AREA ( #55 ) ;
#167 = UNCERTAINTY_MEASURE_WITH_UNIT (LENGTH_MEASURE( 1.000000000000000082E-05 ), #71, 'distance_accuracy_value', 'NONE');
#168 = DIRECTION ( 'NONE',  ( 0.000000000000000000, 0.000000000000000000, -1.000000000000000000 ) ) ;
#169 = DIRECTION ( 'NONE',  ( -3.498990854706722745E-17, 1.000000000000000000, 0.000000000000000000 ) ) ;
#170 =( NAMED_UNIT ( * ) SI_UNIT ( $, .STERADIAN. ) SOLID_ANGLE_UNIT ( ) );
#171 = STYLED_ITEM ( 'NONE', ( #57 ), #16 ) ;
#172 = AXIS2_PLACEMENT_3D ( 'NONE', #180, #18, #129 ) ;
#173 = PRESENTATION_STYLE_ASSIGNMENT (( #224 ) ) ;
#174 =( CONVERSION_BASED_UNIT ( 'INCH', #83 ) LENGTH_UNIT ( ) NAMED_UNIT ( #235 ) );
#175 = DIRECTION ( 'NONE',  ( 0.000000000000000000, 1.000000000000000000, 0.000000000000000000 ) ) ;
#176 = CARTESIAN_POINT ( 'NONE',  ( -6.123233995736766036E-17, 2.500000000000000000, 0.000000000000000000 ) ) ;
#177 = ORIENTED_EDGE ( 'NONE', *, *, #123, .F. ) ;
#178 = CARTESIAN_POINT ( 'NONE',  ( -0.1562500000000001110, 2.500000000000000000, 0.000000000000000000 ) ) ;
#179 = EDGE_LOOP ( 'NONE', ( #288, #124, #43, #112 ) ) ;
#180 = CARTESIAN_POINT ( 'NONE',  ( -7.582401355855259480E-33, 0.7499999999999998890, 0.000000000000000000 ) ) ;
#181 = ORIENTED_EDGE ( 'NONE', *, *, #290, .F. ) ;
#182 = SURFACE_SIDE_STYLE ('',( #60 ) ) ;
#183 = EDGE_CURVE ( 'NONE', #21, #240, #108, .T. ) ;
#184 = UNCERTAINTY_MEASURE_WITH_UNIT (LENGTH_MEASURE( 1.000000000000000082E-05 ), #117, 'distance_accuracy_value', 'NONE');
#185 = EDGE_LOOP ( 'NONE', ( #3, #243 ) ) ;
#186 = LINE ( 'NONE', #49, #142 ) ;
#187 =( GEOMETRIC_REPRESENTATION_CONTEXT ( 3 ) GLOBAL_UNCERTAINTY_ASSIGNED_CONTEXT ( ( #4 ) ) GLOBAL_UNIT_ASSIGNED_CONTEXT ( ( #137, #67, #138 ) ) REPRESENTATION_CONTEXT ( 'NONE', 'WORKASPACE' ) );
#188 = COLOUR_RGB ( '',1.000000000000000000, 0.000000000000000000, 0.000000000000000000 ) ;
#189 = DIRECTION ( 'NONE',  ( -0.000000000000000000, -1.000000000000000000, -0.000000000000000000 ) ) ;
#190 = ORIENTED_EDGE ( 'NONE', *, *, #44, .F. ) ;
#191 =( NAMED_UNIT ( * ) PLANE_ANGLE_UNIT ( ) SI_UNIT ( $, .RADIAN. ) );
#192 = DIRECTION ( 'NONE',  ( -3.498990854706722745E-17, 1.000000000000000000, -0.000000000000000000 ) ) ;
#193 =( LENGTH_UNIT ( ) NAMED_UNIT ( * ) SI_UNIT ( $, .METRE. ) );
#194 = PRODUCT_DEFINITION_FORMATION_WITH_SPECIFIED_SOURCE ( 'ANY', '', #65, .NOT_KNOWN. ) ;
#195 = FACE_OUTER_BOUND ( 'NONE', #308, .T. ) ;
#196 =( NAMED_UNIT ( * ) SI_UNIT ( $, .STERADIAN. ) SOLID_ANGLE_UNIT ( ) );
#197 = FILL_AREA_STYLE ('',( #36 ) ) ;
#198 = DIRECTION ( 'NONE',  ( 0.000000000000000000, -0.000000000000000000, 1.000000000000000000 ) ) ;
#199 = APPLICATION_CONTEXT ( 'automotive_design' ) ;
#200 = AXIS2_PLACEMENT_3D ( 'NONE', #176, #274, #109 ) ;
#201 = EDGE_CURVE ( 'NONE', #264, #204, #104, .T. ) ;
#202 = SURFACE_STYLE_USAGE ( .BOTH. , #80 ) ;
#203 = APPLICATION_PROTOCOL_DEFINITION ( 'draft international standard', 'automotive_design', 1998, #199 ) ;
#204 = VERTEX_POINT ( 'NONE', #106 ) ;
#205 = VERTEX_POINT ( 'NONE', #86 ) ;
#206 = CLOSED_SHELL ( 'NONE', ( #119, #234, #211, #16 ) ) ;
#207 =( NAMED_UNIT ( * ) SI_UNIT ( $, .STERADIAN. ) SOLID_ANGLE_UNIT ( ) );
#208 = FILL_AREA_STYLE_COLOUR ( '', #188 ) ;
#209 = DIMENSIONAL_EXPONENTS ( 1.000000000000000000, 0.000000000000000000, 0.000000000000000000, 0.000000000000000000, 0.000000000000000000, 0.000000000000000000, 0.000000000000000000 ) ;
#210 = DIRECTION ( 'NONE',  ( -0.000000000000000000, -1.000000000000000000, -0.000000000000000000 ) ) ;
#211 = ADVANCED_FACE ( 'NONE', ( #91 ), #157, .T. ) ;
#212 = AXIS2_PLACEMENT_3D ( 'NONE', #116, #248, #73 ) ;
#213 = CIRCLE ( 'NONE', #159, 0.1562500000000000000 ) ;
#214 = LINE ( 'NONE', #178, #61 ) ;
#215 = PRODUCT_DEFINITION_CONTEXT ( 'detailed design', #281, 'design' ) ;
#216 = CARTESIAN_POINT ( 'NONE',  ( -6.123233995736766036E-17, 2.500000000000000000, 0.000000000000000000 ) ) ;
#217 = CYLINDRICAL_SURFACE ( 'NONE', #13, 0.1562500000000000278 ) ;
#218 = SURFACE_SIDE_STYLE ('',( #115 ) ) ;
#219 = CARTESIAN_POINT ( 'NONE',  ( 0.1562500000000000000, 0.7499999999999998890, 1.913510623667739771E-17 ) ) ;
#220 = FACE_OUTER_BOUND ( 'NONE', #72, .T. ) ;
#221 = LINE ( 'NONE', #8, #298 ) ;
#222 =( NAMED_UNIT ( * ) PLANE_ANGLE_UNIT ( ) SI_UNIT ( $, .RADIAN. ) );
#223 = CIRCLE ( 'NONE', #307, 0.1562500000000000000 ) ;
#224 = SURFACE_STYLE_USAGE ( .BOTH. , #140 ) ;
#225 = DIRECTION ( 'NONE',  ( -1.000000000000000000, -3.498990854706722745E-17, 0.000000000000000000 ) ) ;
#226 = ADVANCED_FACE ( 'NONE', ( #79 ), #54, .F. ) ;
#227 = ORIENTED_EDGE ( 'NONE', *, *, #84, .F. ) ;
#228 = SURFACE_SIDE_STYLE ('',( #230 ) ) ;
#229 = PRESENTATION_LAYER_ASSIGNMENT (  '', '', ( #46 ) ) ;
#230 = SURFACE_STYLE_FILL_AREA ( #284 ) ;
#231 = DIRECTION ( 'NONE',  ( 0.000000000000000000, 0.000000000000000000, -1.000000000000000000 ) ) ;
#232 = COLOUR_RGB ( '',0.7921568627450980005, 0.8196078431372548767, 0.9333333333333333481 ) ;
#233 = PRODUCT_DEFINITION_SHAPE ( 'NONE', 'NONE',  #24 ) ;
#234 = ADVANCED_FACE ( 'NONE', ( #149 ), #99, .T. ) ;
#235 = DIMENSIONAL_EXPONENTS ( 1.000000000000000000, 0.000000000000000000, 0.000000000000000000, 0.000000000000000000, 0.000000000000000000, 0.000000000000000000, 0.000000000000000000 ) ;
#236 = VERTEX_POINT ( 'NONE', #32 ) ;
#237 = APPLICATION_PROTOCOL_DEFINITION ( 'draft international standard', 'automotive_design', 1998, #281 ) ;
#238 = EDGE_LOOP ( 'NONE', ( #165, #64 ) ) ;
#239 = AXIS2_PLACEMENT_3D ( 'NONE', #110, #210, #304 ) ;
#240 = VERTEX_POINT ( 'NONE', #246 ) ;
#241 = DIRECTION ( 'NONE',  ( -3.498990854706722745E-17, 1.000000000000000000, -0.000000000000000000 ) ) ;
#242 = CIRCLE ( 'NONE', #239, 0.1562500000000000000 ) ;
#243 = ORIENTED_EDGE ( 'NONE', *, *, #201, .T. ) ;
#244 = EDGE_LOOP ( 'NONE', ( #278, #181 ) ) ;
#245 = DIRECTION ( 'NONE',  ( -1.000000000000000000, 0.000000000000000000, 0.000000000000000000 ) ) ;
#246 = CARTESIAN_POINT ( 'NONE',  ( -0.1562500000000001388, 2.500000000000000000, 0.000000000000000000 ) ) ;
#247 = UNCERTAINTY_MEASURE_WITH_UNIT (LENGTH_MEASURE( 1.000000000000000082E-05 ), #69, 'distance_accuracy_value', 'NONE');
#248 = DIRECTION ( 'NONE',  ( 3.498990854706722745E-17, -1.000000000000000000, 0.000000000000000000 ) ) ;
#249 = PRODUCT_RELATED_PRODUCT_CATEGORY ( 'part', '', ( #65 ) ) ;
#250 = FACE_OUTER_BOUND ( 'NONE', #185, .T. ) ;
#251 = PRESENTATION_STYLE_ASSIGNMENT (( #122 ) ) ;
#252 = DIRECTION ( 'NONE',  ( -0.000000000000000000, -1.000000000000000000, -0.000000000000000000 ) ) ;
#253 = ORIENTED_EDGE ( 'NONE', *, *, #290, .T. ) ;
#254 = PRESENTATION_STYLE_ASSIGNMENT (( #15 ) ) ;
#255 = AXIS2_PLACEMENT_3D ( 'NONE', #216, #289, #70 ) ;
#256 = AXIS2_PLACEMENT_3D ( 'NONE', #20, #63, #231 ) ;
#257 = LENGTH_MEASURE_WITH_UNIT ( LENGTH_MEASURE( 0.02539999999999999897 ), #160 );
#258 = AXIS2_PLACEMENT_3D ( 'NONE', #85, #175, #198 ) ;
#259 = ORIENTED_EDGE ( 'NONE', *, *, #183, .F. ) ;
#260 = DIMENSIONAL_EXPONENTS ( 1.000000000000000000, 0.000000000000000000, 0.000000000000000000, 0.000000000000000000, 0.000000000000000000, 0.000000000000000000, 0.000000000000000000 ) ;
#261 = FILL_AREA_STYLE_COLOUR ( '', #232 ) ;
#262 =( NAMED_UNIT ( * ) SI_UNIT ( $, .STERADIAN. ) SOLID_ANGLE_UNIT ( ) );
#263 = FILL_AREA_STYLE ('',( #135 ) ) ;
#264 = VERTEX_POINT ( 'NONE', #11 ) ;
#265 = COLOUR_RGB ( '',1.000000000000000000, 0.000000000000000000, 0.000000000000000000 ) ;
#266 =( GEOMETRIC_REPRESENTATION_CONTEXT ( 3 ) GLOBAL_UNCERTAINTY_ASSIGNED_CONTEXT ( ( #136 ) ) GLOBAL_UNIT_ASSIGNED_CONTEXT ( ( #42, #48, #291 ) ) REPRESENTATION_CONTEXT ( 'NONE', 'WORKASPACE' ) );
#267 = EDGE_LOOP ( 'NONE', ( #190, #253, #90, #259 ) ) ;
#268 = LINE ( 'NONE', #287, #130 ) ;
#269 = SURFACE_SIDE_STYLE ('',( #166 ) ) ;
#270 = FILL_AREA_STYLE_COLOUR ( '', #92 ) ;
#271 = CARTESIAN_POINT ( 'NONE',  ( 0.000000000000000000, 0.000000000000000000, 0.000000000000000000 ) ) ;
#272 = STYLED_ITEM ( 'NONE', ( #173 ), #1 ) ;
#273 = CARTESIAN_POINT ( 'NONE',  ( -7.582401355855259480E-33, 0.7499999999999998890, 0.000000000000000000 ) ) ;
#274 = DIRECTION ( 'NONE',  ( -3.498990854706722745E-17, 1.000000000000000000, -0.000000000000000000 ) ) ;
#275 = COLOUR_RGB ( '',0.7921568627450980005, 0.8196078431372548767, 0.9333333333333333481 ) ;
#276 = CARTESIAN_POINT ( 'NONE',  ( 0.000000000000000000, 0.7500000000000001110, 0.000000000000000000 ) ) ;
#277 = PRESENTATION_STYLE_ASSIGNMENT (( #62 ) ) ;
#278 = ORIENTED_EDGE ( 'NONE', *, *, #125, .F. ) ;
#279 = FILL_AREA_STYLE ('',( #208 ) ) ;
#280 = AXIS2_PLACEMENT_3D ( 'NONE', #33, #144, #26 ) ;
#281 = APPLICATION_CONTEXT ( 'automotive_design' ) ;
#282 = VERTEX_POINT ( 'NONE', #219 ) ;
#283 = UNCERTAINTY_MEASURE_WITH_UNIT (LENGTH_MEASURE( 1.000000000000000082E-05 ), #174, 'distance_accuracy_value', 'NONE');
#284 = FILL_AREA_STYLE ('',( #261 ) ) ;
#285 = PRESENTATION_LAYER_ASSIGNMENT (  '', '', ( #75 ) ) ;
#286 = ORIENTED_EDGE ( 'NONE', *, *, #151, .F. ) ;
#287 = CARTESIAN_POINT ( 'NONE',  ( 0.000000000000000000, 0.000000000000000000, -0.1562500000000000000 ) ) ;
#288 = ORIENTED_EDGE ( 'NONE', *, *, #96, .F. ) ;
#289 = DIRECTION ( 'NONE',  ( -3.498990854706722745E-17, 1.000000000000000000, -0.000000000000000000 ) ) ;
#290 = EDGE_CURVE ( 'NONE', #282, #205, #223, .T. ) ;
#291 =( NAMED_UNIT ( * ) SI_UNIT ( $, .STERADIAN. ) SOLID_ANGLE_UNIT ( ) );
#292 =( LENGTH_UNIT ( ) NAMED_UNIT ( * ) SI_UNIT ( $, .METRE. ) );
#293 =( LENGTH_UNIT ( ) NAMED_UNIT ( * ) SI_UNIT ( $, .METRE. ) );
#294 = PRESENTATION_LAYER_ASSIGNMENT (  '', '', ( #111 ) ) ;
#295 = FILL_AREA_STYLE ('',( #78 ) ) ;
#296 = DIRECTION ( 'NONE',  ( 0.000000000000000000, 0.000000000000000000, 1.000000000000000000 ) ) ;
#297 = SURFACE_STYLE_FILL_AREA ( #197 ) ;
#298 = VECTOR ( 'NONE', #309, 39.37007874015748143 ) ;
#299 = DIRECTION ( 'NONE',  ( -3.498990854706722745E-17, 1.000000000000000000, -0.000000000000000000 ) ) ;
#300 = MECHANICAL_DESIGN_GEOMETRIC_PRESENTATION_REPRESENTATION (  '', ( #272 ), #94 ) ;
#301 = CIRCLE ( 'NONE', #172, 0.1562500000000000000 ) ;
#302 = SHAPE_DEFINITION_REPRESENTATION ( #233, #74 ) ;
#303 = DIMENSIONAL_EXPONENTS ( 1.000000000000000000, 0.000000000000000000, 0.000000000000000000, 0.000000000000000000, 0.000000000000000000, 0.000000000000000000, 0.000000000000000000 ) ;
#304 = DIRECTION ( 'NONE',  ( 0.000000000000000000, 0.000000000000000000, -1.000000000000000000 ) ) ;
#305 = ORIENTED_EDGE ( 'NONE', *, *, #77, .F. ) ;
#306 = CIRCLE ( 'NONE', #255, 0.1562500000000000833 ) ;
#307 = AXIS2_PLACEMENT_3D ( 'NONE', #273, #120, #59 ) ;
#308 = EDGE_LOOP ( 'NONE', ( #89, #66, #227, #177 ) ) ;
#309 = DIRECTION ( 'NONE',  ( -0.000000000000000000, -1.000000000000000000, -0.000000000000000000 ) ) ;
ENDSEC;
END-ISO-10303-21;
