ISO-10303-21;
HEADER;
FILE_DESCRIPTION (( 'STEP AP214' ),
    '1' );
FILE_NAME ('86077.STEP',
    '2023-07-01T00:01:52',
    ( '' ),
    ( '' ),
    'SwSTEP 2.0',
    'SolidWorks 2023',
    '' );
FILE_SCHEMA (( 'AUTOMOTIVE_DESIGN' ));
ENDSEC;

DATA;
#1 = ADVANCED_FACE ( 'NONE', ( #46 ), #49, .T. ) ;
#2 = FACE_OUTER_BOUND ( 'NONE', #264, .T. ) ;
#3 = EDGE_CURVE ( 'NONE', #135, #32, #357, .T. ) ;
#4 = ORIENTED_EDGE ( 'NONE', *, *, #203, .T. ) ;
#5 = CARTESIAN_POINT ( 'NONE',  ( 0.09374999999999980571, 4.000000000000000000, 1.148106374200642476E-17 ) ) ;
#6 = AXIS2_PLACEMENT_3D ( 'NONE', #273, #211, #336 ) ;
#7 = STYLED_ITEM ( 'NONE', ( #108 ), #185 ) ;
#8 =( CONVERSION_BASED_UNIT ( 'INCH', #88 ) LENGTH_UNIT ( ) NAMED_UNIT ( #93 ) );
#9 = VERTEX_POINT ( 'NONE', #76 ) ;
#10 = EDGE_LOOP ( 'NONE', ( #4, #355 ) ) ;
#11 = AXIS2_PLACEMENT_3D ( 'NONE', #206, #262, #122 ) ;
#12 = CIRCLE ( 'NONE', #305, 0.09374999999999968081 ) ;
#13 = VERTEX_POINT ( 'NONE', #190 ) ;
#14 = DIRECTION ( 'NONE',  ( 0.000000000000000000, 0.000000000000000000, -1.000000000000000000 ) ) ;
#15 = SURFACE_STYLE_FILL_AREA ( #72 ) ;
#16 = CLOSED_SHELL ( 'NONE', ( #263, #347, #180, #142 ) ) ;
#17 = AXIS2_PLACEMENT_3D ( 'NONE', #308, #52, #164 ) ;
#18 = COLOUR_RGB ( '',1.000000000000000000, 0.000000000000000000, 0.000000000000000000 ) ;
#19 = FILL_AREA_STYLE_COLOUR ( '', #123 ) ;
#20 = DIRECTION ( 'NONE',  ( 0.000000000000000000, 0.000000000000000000, 1.000000000000000000 ) ) ;
#21 = LENGTH_MEASURE_WITH_UNIT ( LENGTH_MEASURE( 0.02539999999999999897 ), #280 );
#22 =( NAMED_UNIT ( * ) PLANE_ANGLE_UNIT ( ) SI_UNIT ( $, .RADIAN. ) );
#23 = DIRECTION ( 'NONE',  ( -1.234313045635524517E-16, 1.000000000000000000, 0.000000000000000000 ) ) ;
#24 = VECTOR ( 'NONE', #266, 39.37007874015748143 ) ;
#25 = VECTOR ( 'NONE', #255, 39.37007874015748143 ) ;
#26 = LENGTH_MEASURE_WITH_UNIT ( LENGTH_MEASURE( 0.02539999999999999897 ), #78 );
#27 =( NAMED_UNIT ( * ) SI_UNIT ( $, .STERADIAN. ) SOLID_ANGLE_UNIT ( ) );
#28 = EDGE_CURVE ( 'NONE', #202, #315, #149, .T. ) ;
#29 = CARTESIAN_POINT ( 'NONE',  ( 0.000000000000000000, 1.562500000000000000, 0.000000000000000000 ) ) ;
#30 = COLOUR_RGB ( '',1.000000000000000000, 0.000000000000000000, 0.000000000000000000 ) ;
#31 = PRODUCT_DEFINITION_FORMATION_WITH_SPECIFIED_SOURCE ( 'ANY', '', #195, .NOT_KNOWN. ) ;
#32 = VERTEX_POINT ( 'NONE', #276 ) ;
#33 = EDGE_LOOP ( 'NONE', ( #147, #65, #121, #127 ) ) ;
#34 = SURFACE_SIDE_STYLE ('',( #209 ) ) ;
#35 = DIRECTION ( 'NONE',  ( 0.000000000000000000, -0.000000000000000000, 1.000000000000000000 ) ) ;
#36 = ORIENTED_EDGE ( 'NONE', *, *, #303, .F. ) ;
#37 = SURFACE_STYLE_USAGE ( .BOTH. , #34 ) ;
#38 = AXIS2_PLACEMENT_3D ( 'NONE', #217, #140, #80 ) ;
#39 = ORIENTED_EDGE ( 'NONE', *, *, #174, .F. ) ;
#40 = ADVANCED_FACE ( 'NONE', ( #278 ), #114, .T. ) ;
#41 = MANIFOLD_SOLID_BREP ( 'Revolve - Cutting Edge', #158 ) ;
#42 = FILL_AREA_STYLE ('',( #118 ) ) ;
#43 = PRODUCT_DEFINITION_CONTEXT ( 'detailed design', #75, 'design' ) ;
#44 = ORIENTED_EDGE ( 'NONE', *, *, #240, .F. ) ;
#45 = DIRECTION ( 'NONE',  ( -1.234313045635524517E-16, 1.000000000000000000, -0.000000000000000000 ) ) ;
#46 = FACE_OUTER_BOUND ( 'NONE', #269, .T. ) ;
#47 = PRESENTATION_LAYER_ASSIGNMENT (  '', '', ( #179 ) ) ;
#48 = AXIS2_PLACEMENT_3D ( 'NONE', #70, #187, #299 ) ;
#49 = CYLINDRICAL_SURFACE ( 'NONE', #281, 0.09374999999999988898 ) ;
#50 = CARTESIAN_POINT ( 'NONE',  ( -0.09375000000000002776, 4.000000000000000000, 0.000000000000000000 ) ) ;
#51 = DIRECTION ( 'NONE',  ( -1.000000000000000000, 0.000000000000000000, 0.000000000000000000 ) ) ;
#52 = DIRECTION ( 'NONE',  ( -1.234313045635524517E-16, 1.000000000000000000, -0.000000000000000000 ) ) ;
#53 = CARTESIAN_POINT ( 'NONE',  ( 1.171667850015561029E-16, 1.562500000000000000, 0.000000000000000000 ) ) ;
#54 = MECHANICAL_DESIGN_GEOMETRIC_PRESENTATION_REPRESENTATION (  '', ( #73 ), #172 ) ;
#55 = VECTOR ( 'NONE', #364, 39.37007874015748143 ) ;
#56 =( CONVERSION_BASED_UNIT ( 'INCH', #26 ) LENGTH_UNIT ( ) NAMED_UNIT ( #146 ) );
#57 =( NAMED_UNIT ( * ) SI_UNIT ( $, .STERADIAN. ) SOLID_ANGLE_UNIT ( ) );
#58 = EDGE_CURVE ( 'NONE', #265, #297, #189, .T. ) ;
#59 = DIMENSIONAL_EXPONENTS ( 1.000000000000000000, 0.000000000000000000, 0.000000000000000000, 0.000000000000000000, 0.000000000000000000, 0.000000000000000000, 0.000000000000000000 ) ;
#60 = CARTESIAN_POINT ( 'NONE',  ( 1.171667850015561029E-16, 1.562500000000000000, 0.000000000000000000 ) ) ;
#61 = SURFACE_STYLE_USAGE ( .BOTH. , #143 ) ;
#62 = AXIS2_PLACEMENT_3D ( 'NONE', #60, #23, #371 ) ;
#63 = DIMENSIONAL_EXPONENTS ( 1.000000000000000000, 0.000000000000000000, 0.000000000000000000, 0.000000000000000000, 0.000000000000000000, 0.000000000000000000, 0.000000000000000000 ) ;
#64 = FACE_OUTER_BOUND ( 'NONE', #10, .T. ) ;
#65 = ORIENTED_EDGE ( 'NONE', *, *, #338, .T. ) ;
#66 = EDGE_LOOP ( 'NONE', ( #155, #317, #358, #39, #293 ) ) ;
#67 = ORIENTED_EDGE ( 'NONE', *, *, #112, .F. ) ;
#68 = AXIS2_PLACEMENT_3D ( 'NONE', #301, #95, #328 ) ;
#69 = AXIS2_PLACEMENT_3D ( 'NONE', #160, #45, #51 ) ;
#70 = CARTESIAN_POINT ( 'NONE',  ( -1.148106374200643401E-17, 0.09374999999999998612, 0.000000000000000000 ) ) ;
#71 = DIRECTION ( 'NONE',  ( -0.000000000000000000, -1.000000000000000000, -0.000000000000000000 ) ) ;
#72 = FILL_AREA_STYLE ('',( #335 ) ) ;
#73 = STYLED_ITEM ( 'NONE', ( #228 ), #154 ) ;
#74 = AXIS2_PLACEMENT_3D ( 'NONE', #132, #334, #337 ) ;
#75 = APPLICATION_CONTEXT ( 'automotive_design' ) ;
#76 = CARTESIAN_POINT ( 'NONE',  ( 0.09374999999999998612, 0.09375000000000001388, 0.000000000000000000 ) ) ;
#77 = SURFACE_STYLE_USAGE ( .BOTH. , #137 ) ;
#78 =( LENGTH_UNIT ( ) NAMED_UNIT ( * ) SI_UNIT ( $, .METRE. ) );
#79 = CIRCLE ( 'NONE', #290, 0.09374999999999998612 ) ;
#80 = DIRECTION ( 'NONE',  ( -1.000000000000000000, 0.000000000000000000, 0.000000000000000000 ) ) ;
#81 =( LENGTH_UNIT ( ) NAMED_UNIT ( * ) SI_UNIT ( $, .METRE. ) );
#82 = FILL_AREA_STYLE_COLOUR ( '', #329 ) ;
#83 = FILL_AREA_STYLE ('',( #345 ) ) ;
#84 = SHAPE_DEFINITION_REPRESENTATION ( #177, #200 ) ;
#85 = UNCERTAINTY_MEASURE_WITH_UNIT (LENGTH_MEASURE( 1.000000000000000082E-05 ), #307, 'distance_accuracy_value', 'NONE');
#86 = MECHANICAL_DESIGN_GEOMETRIC_PRESENTATION_REPRESENTATION (  '', ( #201 ), #196 ) ;
#87 = AXIS2_PLACEMENT_3D ( 'NONE', #326, #182, #298 ) ;
#88 = LENGTH_MEASURE_WITH_UNIT ( LENGTH_MEASURE( 0.02539999999999999897 ), #98 );
#89 = EDGE_LOOP ( 'NONE', ( #205, #67 ) ) ;
#90 = EDGE_CURVE ( 'NONE', #9, #96, #369, .T. ) ;
#91 = CARTESIAN_POINT ( 'NONE',  ( 1.148106374200642322E-17, 0.000000000000000000, 0.09374999999999988898 ) ) ;
#92 =( GEOMETRIC_REPRESENTATION_CONTEXT ( 3 ) GLOBAL_UNCERTAINTY_ASSIGNED_CONTEXT ( ( #184 ) ) GLOBAL_UNIT_ASSIGNED_CONTEXT ( ( #349, #224, #27 ) ) REPRESENTATION_CONTEXT ( 'NONE', 'WORKASPACE' ) );
#93 = DIMENSIONAL_EXPONENTS ( 1.000000000000000000, 0.000000000000000000, 0.000000000000000000, 0.000000000000000000, 0.000000000000000000, 0.000000000000000000, 0.000000000000000000 ) ;
#94 = DIRECTION ( 'NONE',  ( -1.234313045635524517E-16, 1.000000000000000000, -0.000000000000000000 ) ) ;
#95 = DIRECTION ( 'NONE',  ( 1.234313045635524517E-16, -1.000000000000000000, 0.000000000000000000 ) ) ;
#96 = VERTEX_POINT ( 'NONE', #341 ) ;
#97 = DIRECTION ( 'NONE',  ( 0.000000000000000000, 0.000000000000000000, -1.000000000000000000 ) ) ;
#98 =( LENGTH_UNIT ( ) NAMED_UNIT ( * ) SI_UNIT ( $, .METRE. ) );
#99 = SURFACE_STYLE_USAGE ( .BOTH. , #246 ) ;
#100 = DIRECTION ( 'NONE',  ( -0.000000000000000000, -1.000000000000000000, -0.000000000000000000 ) ) ;
#101 = MECHANICAL_DESIGN_GEOMETRIC_PRESENTATION_REPRESENTATION (  '', ( #167 ), #242 ) ;
#102 = PLANE ( 'NONE',  #68 ) ;
#103 = PRESENTATION_STYLE_ASSIGNMENT (( #99 ) ) ;
#104 = CARTESIAN_POINT ( 'NONE',  ( 0.09374999999999980571, 1.562500000000000000, 1.148106374200642476E-17 ) ) ;
#105 = CYLINDRICAL_SURFACE ( 'NONE', #319, 0.09374999999999988898 ) ;
#106 = ORIENTED_EDGE ( 'NONE', *, *, #28, .F. ) ;
#107 = LENGTH_MEASURE_WITH_UNIT ( LENGTH_MEASURE( 0.02539999999999999897 ), #331 );
#108 = PRESENTATION_STYLE_ASSIGNMENT (( #188 ) ) ;
#109 = DIRECTION ( 'NONE',  ( 1.000000000000000000, 0.000000000000000000, 0.000000000000000000 ) ) ;
#110 = DIRECTION ( 'NONE',  ( -1.234313045635524517E-16, 1.000000000000000000, -0.000000000000000000 ) ) ;
#111 = LINE ( 'NONE', #343, #25 ) ;
#112 = EDGE_CURVE ( 'NONE', #204, #229, #247, .T. ) ;
#113 = AXIS2_PLACEMENT_3D ( 'NONE', #248, #169, #109 ) ;
#114 = SPHERICAL_SURFACE ( 'NONE', #113, 0.09374999999999998612 ) ;
#115 =( CONVERSION_BASED_UNIT ( 'INCH', #249 ) LENGTH_UNIT ( ) NAMED_UNIT ( #235 ) );
#116 =( NAMED_UNIT ( * ) PLANE_ANGLE_UNIT ( ) SI_UNIT ( $, .RADIAN. ) );
#117 = UNCERTAINTY_MEASURE_WITH_UNIT (LENGTH_MEASURE( 1.000000000000000082E-05 ), #8, 'distance_accuracy_value', 'NONE');
#118 = FILL_AREA_STYLE_COLOUR ( '', #304 ) ;
#119 = AXIS2_PLACEMENT_3D ( 'NONE', #230, #139, #219 ) ;
#120 = ADVANCED_FACE ( 'NONE', ( #279 ), #368, .T. ) ;
#121 = ORIENTED_EDGE ( 'NONE', *, *, #90, .F. ) ;
#122 = DIRECTION ( 'NONE',  ( 0.000000000000000000, 0.000000000000000000, -1.000000000000000000 ) ) ;
#123 = COLOUR_RGB ( '',0.7921568627450980005, 0.8196078431372548767, 0.9333333333333333481 ) ;
#124 = PRESENTATION_STYLE_ASSIGNMENT (( #37 ) ) ;
#125 =( LENGTH_UNIT ( ) NAMED_UNIT ( * ) SI_UNIT ( $, .METRE. ) );
#126 = ORIENTED_EDGE ( 'NONE', *, *, #133, .F. ) ;
#127 = ORIENTED_EDGE ( 'NONE', *, *, #303, .T. ) ;
#128 = FILL_AREA_STYLE ('',( #82 ) ) ;
#129 = CARTESIAN_POINT ( 'NONE',  ( 0.000000000000000000, 0.000000000000000000, 0.000000000000000000 ) ) ;
#130 = COLOUR_RGB ( '',1.000000000000000000, 0.000000000000000000, 0.000000000000000000 ) ;
#131 = ORIENTED_EDGE ( 'NONE', *, *, #203, .F. ) ;
#132 = CARTESIAN_POINT ( 'NONE',  ( 0.000000000000000000, 1.562500000000000000, 0.000000000000000000 ) ) ;
#133 = EDGE_CURVE ( 'NONE', #265, #202, #257, .T. ) ;
#134 = DIRECTION ( 'NONE',  ( 0.000000000000000000, 0.000000000000000000, -1.000000000000000000 ) ) ;
#135 = VERTEX_POINT ( 'NONE', #316 ) ;
#136 =( LENGTH_UNIT ( ) NAMED_UNIT ( * ) SI_UNIT ( $, .METRE. ) );
#137 = SURFACE_SIDE_STYLE ('',( #283 ) ) ;
#138 = CARTESIAN_POINT ( 'NONE',  ( 0.000000000000000000, 0.000000000000000000, 0.000000000000000000 ) ) ;
#139 = DIRECTION ( 'NONE',  ( 0.000000000000000000, 0.000000000000000000, 1.000000000000000000 ) ) ;
#140 = DIRECTION ( 'NONE',  ( 0.000000000000000000, 0.000000000000000000, -1.000000000000000000 ) ) ;
#141 = PRESENTATION_STYLE_ASSIGNMENT (( #77 ) ) ;
#142 = ADVANCED_FACE ( 'NONE', ( #64 ), #102, .F. ) ;
#143 = SURFACE_SIDE_STYLE ('',( #216 ) ) ;
#144 = CARTESIAN_POINT ( 'NONE',  ( 0.000000000000000000, 1.562500000000000000, -0.09374999999999980571 ) ) ;
#145 =( LENGTH_UNIT ( ) NAMED_UNIT ( * ) SI_UNIT ( $, .METRE. ) );
#146 = DIMENSIONAL_EXPONENTS ( 1.000000000000000000, 0.000000000000000000, 0.000000000000000000, 0.000000000000000000, 0.000000000000000000, 0.000000000000000000, 0.000000000000000000 ) ;
#147 = ORIENTED_EDGE ( 'NONE', *, *, #3, .T. ) ;
#148 = ORIENTED_EDGE ( 'NONE', *, *, #192, .T. ) ;
#149 = CIRCLE ( 'NONE', #17, 0.09374999999999998612 ) ;
#150 = CIRCLE ( 'NONE', #11, 0.09374999999999998612 ) ;
#151 = ORIENTED_EDGE ( 'NONE', *, *, #240, .T. ) ;
#152 = SURFACE_STYLE_FILL_AREA ( #42 ) ;
#153 = ORIENTED_EDGE ( 'NONE', *, *, #353, .F. ) ;
#154 = ADVANCED_FACE ( 'NONE', ( #2 ), #373, .T. ) ;
#155 = ORIENTED_EDGE ( 'NONE', *, *, #192, .F. ) ;
#156 = MANIFOLD_SOLID_BREP ( 'Revolve - Tool Body (Straight Shanked)', #16 ) ;
#157 = FACE_OUTER_BOUND ( 'NONE', #243, .T. ) ;
#158 = CLOSED_SHELL ( 'NONE', ( #40, #1, #120, #185, #154 ) ) ;
#159 = PRESENTATION_LAYER_ASSIGNMENT (  '', '', ( #201 ) ) ;
#160 = CARTESIAN_POINT ( 'NONE',  ( -1.836970198721029688E-16, 4.000000000000000000, 0.000000000000000000 ) ) ;
#161 = PRODUCT_RELATED_PRODUCT_CATEGORY ( 'part', '', ( #195 ) ) ;
#162 =( CONVERSION_BASED_UNIT ( 'INCH', #107 ) LENGTH_UNIT ( ) NAMED_UNIT ( #59 ) );
#163 = FACE_OUTER_BOUND ( 'NONE', #66, .T. ) ;
#164 = DIRECTION ( 'NONE',  ( -1.000000000000000000, 0.000000000000000000, 0.000000000000000000 ) ) ;
#165 =( NAMED_UNIT ( * ) PLANE_ANGLE_UNIT ( ) SI_UNIT ( $, .RADIAN. ) );
#166 = CARTESIAN_POINT ( 'NONE',  ( -0.09375000000000018041, 4.000000000000000000, 0.000000000000000000 ) ) ;
#167 = STYLED_ITEM ( 'NONE', ( #124 ), #156 ) ;
#168 = CIRCLE ( 'NONE', #370, 0.09374999999999998612 ) ;
#169 = DIRECTION ( 'NONE',  ( 0.000000000000000000, 0.000000000000000000, 1.000000000000000000 ) ) ;
#170 = DIRECTION ( 'NONE',  ( 0.000000000000000000, 0.000000000000000000, -1.000000000000000000 ) ) ;
#171 = FILL_AREA_STYLE ('',( #19 ) ) ;
#172 =( GEOMETRIC_REPRESENTATION_CONTEXT ( 3 ) GLOBAL_UNCERTAINTY_ASSIGNED_CONTEXT ( ( #85 ) ) GLOBAL_UNIT_ASSIGNED_CONTEXT ( ( #307, #116, #258 ) ) REPRESENTATION_CONTEXT ( 'NONE', 'WORKASPACE' ) );
#173 = AXIS2_PLACEMENT_3D ( 'NONE', #251, #20, #277 ) ;
#174 = EDGE_CURVE ( 'NONE', #32, #13, #79, .T. ) ;
#175 = PRESENTATION_STYLE_ASSIGNMENT (( #207 ) ) ;
#176 = DIRECTION ( 'NONE',  ( -0.000000000000000000, -1.000000000000000000, -0.000000000000000000 ) ) ;
#177 = PRODUCT_DEFINITION_SHAPE ( 'NONE', 'NONE',  #256 ) ;
#178 =( GEOMETRIC_REPRESENTATION_CONTEXT ( 3 ) GLOBAL_UNCERTAINTY_ASSIGNED_CONTEXT ( ( #117 ) ) GLOBAL_UNIT_ASSIGNED_CONTEXT ( ( #8, #225, #237 ) ) REPRESENTATION_CONTEXT ( 'NONE', 'WORKASPACE' ) );
#179 = STYLED_ITEM ( 'NONE', ( #175 ), #120 ) ;
#180 = ADVANCED_FACE ( 'NONE', ( #362 ), #332, .T. ) ;
#181 = EDGE_LOOP ( 'NONE', ( #126, #270, #294, #106 ) ) ;
#182 = DIRECTION ( 'NONE',  ( -1.234313045635524517E-16, 1.000000000000000000, -0.000000000000000000 ) ) ;
#183 = CARTESIAN_POINT ( 'NONE',  ( 0.000000000000000000, 0.09375000000000001388, 0.000000000000000000 ) ) ;
#184 = UNCERTAINTY_MEASURE_WITH_UNIT (LENGTH_MEASURE( 1.000000000000000082E-05 ), #349, 'distance_accuracy_value', 'NONE');
#185 = ADVANCED_FACE ( 'NONE', ( #163 ), #105, .T. ) ;
#186 = CARTESIAN_POINT ( 'NONE',  ( 0.09374999999999965306, 4.000000000000000000, 1.148106374200641552E-17 ) ) ;
#187 = DIRECTION ( 'NONE',  ( 1.224646799147353207E-16, -0.000000000000000000, 1.000000000000000000 ) ) ;
#188 = SURFACE_STYLE_USAGE ( .BOTH. , #245 ) ;
#189 = CIRCLE ( 'NONE', #313, 0.09374999999999968081 ) ;
#190 = CARTESIAN_POINT ( 'NONE',  ( 0.000000000000000000, 0.09375000000000001388, -0.09374999999999998612 ) ) ;
#191 = APPLICATION_CONTEXT ( 'automotive_design' ) ;
#192 = EDGE_CURVE ( 'NONE', #204, #135, #198, .T. ) ;
#193 = UNCERTAINTY_MEASURE_WITH_UNIT (LENGTH_MEASURE( 1.000000000000000082E-05 ), #56, 'distance_accuracy_value', 'NONE');
#194 =( NAMED_UNIT ( * ) SI_UNIT ( $, .STERADIAN. ) SOLID_ANGLE_UNIT ( ) );
#195 = PRODUCT ( '86077', '86077', '', ( #346 ) ) ;
#196 =( GEOMETRIC_REPRESENTATION_CONTEXT ( 3 ) GLOBAL_UNCERTAINTY_ASSIGNED_CONTEXT ( ( #193 ) ) GLOBAL_UNIT_ASSIGNED_CONTEXT ( ( #56, #309, #223 ) ) REPRESENTATION_CONTEXT ( 'NONE', 'WORKASPACE' ) );
#197 = SURFACE_SIDE_STYLE ('',( #285 ) ) ;
#198 = LINE ( 'NONE', #91, #352 ) ;
#199 = ORIENTED_EDGE ( 'NONE', *, *, #133, .T. ) ;
#200 = ADVANCED_BREP_SHAPE_REPRESENTATION ( '86077', ( #41, #156, #173 ), #268 ) ;
#201 = STYLED_ITEM ( 'NONE', ( #254 ), #40 ) ;
#202 = VERTEX_POINT ( 'NONE', #5 ) ;
#203 = EDGE_CURVE ( 'NONE', #315, #202, #168, .T. ) ;
#204 = VERTEX_POINT ( 'NONE', #286 ) ;
#205 = ORIENTED_EDGE ( 'NONE', *, *, #284, .F. ) ;
#206 = CARTESIAN_POINT ( 'NONE',  ( 0.000000000000000000, 0.09375000000000001388, 0.000000000000000000 ) ) ;
#207 = SURFACE_STYLE_USAGE ( .BOTH. , #197 ) ;
#208 = LINE ( 'NONE', #50, #55 ) ;
#209 = SURFACE_STYLE_FILL_AREA ( #128 ) ;
#210 =( NAMED_UNIT ( * ) PLANE_ANGLE_UNIT ( ) SI_UNIT ( $, .RADIAN. ) );
#211 = DIRECTION ( 'NONE',  ( -0.000000000000000000, -1.000000000000000000, -0.000000000000000000 ) ) ;
#212 = DIRECTION ( 'NONE',  ( -1.000000000000000000, 0.000000000000000000, 0.000000000000000000 ) ) ;
#213 = MECHANICAL_DESIGN_GEOMETRIC_PRESENTATION_REPRESENTATION (  '', ( #351 ), #344 ) ;
#214 = DIMENSIONAL_EXPONENTS ( 1.000000000000000000, 0.000000000000000000, 0.000000000000000000, 0.000000000000000000, 0.000000000000000000, 0.000000000000000000, 0.000000000000000000 ) ;
#215 = UNCERTAINTY_MEASURE_WITH_UNIT (LENGTH_MEASURE( 1.000000000000000082E-05 ), #162, 'distance_accuracy_value', 'NONE');
#216 = SURFACE_STYLE_FILL_AREA ( #339 ) ;
#217 = CARTESIAN_POINT ( 'NONE',  ( -1.148106374200643401E-17, 0.09374999999999998612, 0.000000000000000000 ) ) ;
#218 = PRESENTATION_LAYER_ASSIGNMENT (  '', '', ( #351 ) ) ;
#219 = DIRECTION ( 'NONE',  ( 1.000000000000000000, 0.000000000000000000, 0.000000000000000000 ) ) ;
#220 = CIRCLE ( 'NONE', #282, 0.09374999999999998612 ) ;
#221 = DIRECTION ( 'NONE',  ( -0.000000000000000000, -1.000000000000000000, -0.000000000000000000 ) ) ;
#222 = APPLICATION_PROTOCOL_DEFINITION ( 'draft international standard', 'automotive_design', 1998, #191 ) ;
#223 =( NAMED_UNIT ( * ) SI_UNIT ( $, .STERADIAN. ) SOLID_ANGLE_UNIT ( ) );
#224 =( NAMED_UNIT ( * ) PLANE_ANGLE_UNIT ( ) SI_UNIT ( $, .RADIAN. ) );
#225 =( NAMED_UNIT ( * ) PLANE_ANGLE_UNIT ( ) SI_UNIT ( $, .RADIAN. ) );
#226 = APPLICATION_PROTOCOL_DEFINITION ( 'draft international standard', 'automotive_design', 1998, #75 ) ;
#227 = AXIS2_PLACEMENT_3D ( 'NONE', #29, #350, #35 ) ;
#228 = PRESENTATION_STYLE_ASSIGNMENT (( #360 ) ) ;
#229 = VERTEX_POINT ( 'NONE', #144 ) ;
#230 = CARTESIAN_POINT ( 'NONE',  ( -1.148106374200643401E-17, 0.09374999999999998612, 0.000000000000000000 ) ) ;
#231 = ORIENTED_EDGE ( 'NONE', *, *, #58, .F. ) ;
#232 = FACE_OUTER_BOUND ( 'NONE', #320, .T. ) ;
#233 = PRESENTATION_LAYER_ASSIGNMENT (  '', '', ( #73 ) ) ;
#234 = MECHANICAL_DESIGN_GEOMETRIC_PRESENTATION_REPRESENTATION (  '', ( #7 ), #92 ) ;
#235 = DIMENSIONAL_EXPONENTS ( 1.000000000000000000, 0.000000000000000000, 0.000000000000000000, 0.000000000000000000, 0.000000000000000000, 0.000000000000000000, 0.000000000000000000 ) ;
#236 = LENGTH_MEASURE_WITH_UNIT ( LENGTH_MEASURE( 0.02539999999999999897 ), #145 );
#237 =( NAMED_UNIT ( * ) SI_UNIT ( $, .STERADIAN. ) SOLID_ANGLE_UNIT ( ) );
#238 = FILL_AREA_STYLE ('',( #302 ) ) ;
#239 = SURFACE_SIDE_STYLE ('',( #152 ) ) ;
#240 = EDGE_CURVE ( 'NONE', #13, #9, #150, .T. ) ;
#241 = COLOUR_RGB ( '',1.000000000000000000, 0.000000000000000000, 0.000000000000000000 ) ;
#242 =( GEOMETRIC_REPRESENTATION_CONTEXT ( 3 ) GLOBAL_UNCERTAINTY_ASSIGNED_CONTEXT ( ( #253 ) ) GLOBAL_UNIT_ASSIGNED_CONTEXT ( ( #323, #327, #300 ) ) REPRESENTATION_CONTEXT ( 'NONE', 'WORKASPACE' ) );
#243 = EDGE_LOOP ( 'NONE', ( #363, #231 ) ) ;
#244 = SURFACE_STYLE_FILL_AREA ( #238 ) ;
#245 = SURFACE_SIDE_STYLE ('',( #15 ) ) ;
#246 = SURFACE_SIDE_STYLE ('',( #244 ) ) ;
#247 = CIRCLE ( 'NONE', #267, 0.09374999999999980571 ) ;
#248 = CARTESIAN_POINT ( 'NONE',  ( -1.148106374200643401E-17, 0.09374999999999998612, 0.000000000000000000 ) ) ;
#249 = LENGTH_MEASURE_WITH_UNIT ( LENGTH_MEASURE( 0.02539999999999999897 ), #81 );
#250 = DIRECTION ( 'NONE',  ( -0.000000000000000000, -1.000000000000000000, -0.000000000000000000 ) ) ;
#251 = CARTESIAN_POINT ( 'NONE',  ( 0.000000000000000000, 0.000000000000000000, 0.000000000000000000 ) ) ;
#252 =( GEOMETRIC_REPRESENTATION_CONTEXT ( 3 ) GLOBAL_UNCERTAINTY_ASSIGNED_CONTEXT ( ( #215 ) ) GLOBAL_UNIT_ASSIGNED_CONTEXT ( ( #162, #210, #333 ) ) REPRESENTATION_CONTEXT ( 'NONE', 'WORKASPACE' ) );
#253 = UNCERTAINTY_MEASURE_WITH_UNIT (LENGTH_MEASURE( 1.000000000000000082E-05 ), #323, 'distance_accuracy_value', 'NONE');
#254 = PRESENTATION_STYLE_ASSIGNMENT (( #61 ) ) ;
#255 = DIRECTION ( 'NONE',  ( -0.000000000000000000, -1.000000000000000000, -0.000000000000000000 ) ) ;
#256 = PRODUCT_DEFINITION ( 'UNKNOWN', '', #31, #43 ) ;
#257 = LINE ( 'NONE', #186, #24 ) ;
#258 =( NAMED_UNIT ( * ) SI_UNIT ( $, .STERADIAN. ) SOLID_ANGLE_UNIT ( ) );
#259 = PRESENTATION_LAYER_ASSIGNMENT (  '', '', ( #167 ) ) ;
#260 = DIMENSIONAL_EXPONENTS ( 1.000000000000000000, 0.000000000000000000, 0.000000000000000000, 0.000000000000000000, 0.000000000000000000, 0.000000000000000000, 0.000000000000000000 ) ;
#261 = ORIENTED_EDGE ( 'NONE', *, *, #90, .T. ) ;
#262 = DIRECTION ( 'NONE',  ( -0.000000000000000000, -1.000000000000000000, -0.000000000000000000 ) ) ;
#263 = ADVANCED_FACE ( 'NONE', ( #232 ), #318, .T. ) ;
#264 = EDGE_LOOP ( 'NONE', ( #325, #354, #151, #261 ) ) ;
#265 = VERTEX_POINT ( 'NONE', #104 ) ;
#266 = DIRECTION ( 'NONE',  ( -1.234313045635524517E-16, 1.000000000000000000, -0.000000000000000000 ) ) ;
#267 = AXIS2_PLACEMENT_3D ( 'NONE', #311, #221, #170 ) ;
#268 =( GEOMETRIC_REPRESENTATION_CONTEXT ( 3 ) GLOBAL_UNCERTAINTY_ASSIGNED_CONTEXT ( ( #314 ) ) GLOBAL_UNIT_ASSIGNED_CONTEXT ( ( #115, #22, #57 ) ) REPRESENTATION_CONTEXT ( 'NONE', 'WORKASPACE' ) );
#269 = EDGE_LOOP ( 'NONE', ( #292, #148, #36, #44, #153 ) ) ;
#270 = ORIENTED_EDGE ( 'NONE', *, *, #58, .T. ) ;
#271 = MECHANICAL_DESIGN_GEOMETRIC_PRESENTATION_REPRESENTATION (  '', ( #179 ), #178 ) ;
#272 = LENGTH_MEASURE_WITH_UNIT ( LENGTH_MEASURE( 0.02539999999999999897 ), #125 );
#273 = CARTESIAN_POINT ( 'NONE',  ( 0.000000000000000000, 0.09375000000000001388, 0.000000000000000000 ) ) ;
#274 = PLANE ( 'NONE',  #62 ) ;
#275 = EDGE_CURVE ( 'NONE', #297, #265, #12, .T. ) ;
#276 = CARTESIAN_POINT ( 'NONE',  ( -0.09374999999999998612, 0.09375000000000001388, 1.148106374200643247E-17 ) ) ;
#277 = DIRECTION ( 'NONE',  ( 1.000000000000000000, 0.000000000000000000, 0.000000000000000000 ) ) ;
#278 = FACE_OUTER_BOUND ( 'NONE', #33, .T. ) ;
#279 = FACE_OUTER_BOUND ( 'NONE', #89, .T. ) ;
#280 =( LENGTH_UNIT ( ) NAMED_UNIT ( * ) SI_UNIT ( $, .METRE. ) );
#281 = AXIS2_PLACEMENT_3D ( 'NONE', #129, #306, #134 ) ;
#282 = AXIS2_PLACEMENT_3D ( 'NONE', #359, #100, #14 ) ;
#283 = SURFACE_STYLE_FILL_AREA ( #171 ) ;
#284 = EDGE_CURVE ( 'NONE', #229, #204, #291, .T. ) ;
#285 = SURFACE_STYLE_FILL_AREA ( #83 ) ;
#286 = CARTESIAN_POINT ( 'NONE',  ( 1.148106374200641706E-17, 1.562500000000000000, 0.09374999999999980571 ) ) ;
#287 = DIMENSIONAL_EXPONENTS ( 1.000000000000000000, 0.000000000000000000, 0.000000000000000000, 0.000000000000000000, 0.000000000000000000, 0.000000000000000000, 0.000000000000000000 ) ;
#288 = PRESENTATION_LAYER_ASSIGNMENT (  '', '', ( #289 ) ) ;
#289 = STYLED_ITEM ( 'NONE', ( #103 ), #1 ) ;
#290 = AXIS2_PLACEMENT_3D ( 'NONE', #183, #71, #366 ) ;
#291 = CIRCLE ( 'NONE', #74, 0.09374999999999980571 ) ;
#292 = ORIENTED_EDGE ( 'NONE', *, *, #284, .T. ) ;
#293 = ORIENTED_EDGE ( 'NONE', *, *, #3, .F. ) ;
#294 = ORIENTED_EDGE ( 'NONE', *, *, #324, .T. ) ;
#295 = MECHANICAL_DESIGN_GEOMETRIC_PRESENTATION_REPRESENTATION (  '', ( #289 ), #252 ) ;
#296 = CIRCLE ( 'NONE', #48, 0.09374999999999998612 ) ;
#297 = VERTEX_POINT ( 'NONE', #340 ) ;
#298 = DIRECTION ( 'NONE',  ( -1.000000000000000000, 0.000000000000000000, 0.000000000000000000 ) ) ;
#299 = DIRECTION ( 'NONE',  ( 1.000000000000000000, 0.000000000000000000, -1.224646799147353207E-16 ) ) ;
#300 =( NAMED_UNIT ( * ) SI_UNIT ( $, .STERADIAN. ) SOLID_ANGLE_UNIT ( ) );
#301 = CARTESIAN_POINT ( 'NONE',  ( 0.09374999999999980571, 4.000000000000000000, 0.000000000000000000 ) ) ;
#302 = FILL_AREA_STYLE_COLOUR ( '', #241 ) ;
#303 = EDGE_CURVE ( 'NONE', #9, #135, #220, .T. ) ;
#304 = COLOUR_RGB ( '',1.000000000000000000, 0.000000000000000000, 0.000000000000000000 ) ;
#305 = AXIS2_PLACEMENT_3D ( 'NONE', #53, #365, #212 ) ;
#306 = DIRECTION ( 'NONE',  ( -0.000000000000000000, -1.000000000000000000, -0.000000000000000000 ) ) ;
#307 =( CONVERSION_BASED_UNIT ( 'INCH', #272 ) LENGTH_UNIT ( ) NAMED_UNIT ( #260 ) );
#308 = CARTESIAN_POINT ( 'NONE',  ( -1.836970198721029688E-16, 4.000000000000000000, 0.000000000000000000 ) ) ;
#309 =( NAMED_UNIT ( * ) PLANE_ANGLE_UNIT ( ) SI_UNIT ( $, .RADIAN. ) );
#310 = UNCERTAINTY_MEASURE_WITH_UNIT (LENGTH_MEASURE( 1.000000000000000082E-05 ), #342, 'distance_accuracy_value', 'NONE');
#311 = CARTESIAN_POINT ( 'NONE',  ( 0.000000000000000000, 1.562500000000000000, 0.000000000000000000 ) ) ;
#312 = CARTESIAN_POINT ( 'NONE',  ( 1.171667850015561029E-16, 1.562500000000000000, 0.000000000000000000 ) ) ;
#313 = AXIS2_PLACEMENT_3D ( 'NONE', #312, #110, #367 ) ;
#314 = UNCERTAINTY_MEASURE_WITH_UNIT (LENGTH_MEASURE( 1.000000000000000082E-05 ), #115, 'distance_accuracy_value', 'NONE');
#315 = VERTEX_POINT ( 'NONE', #166 ) ;
#316 = CARTESIAN_POINT ( 'NONE',  ( 1.148106374200643555E-17, 0.09375000000000001388, 0.09374999999999998612 ) ) ;
#317 = ORIENTED_EDGE ( 'NONE', *, *, #112, .T. ) ;
#318 = CYLINDRICAL_SURFACE ( 'NONE', #87, 0.09374999999999983347 ) ;
#319 = AXIS2_PLACEMENT_3D ( 'NONE', #138, #250, #97 ) ;
#320 = EDGE_LOOP ( 'NONE', ( #361, #199, #131, #356 ) ) ;
#321 = CARTESIAN_POINT ( 'NONE',  ( -1.836970198721029688E-16, 4.000000000000000000, 0.000000000000000000 ) ) ;
#322 = DIRECTION ( 'NONE',  ( -1.000000000000000000, 0.000000000000000000, 0.000000000000000000 ) ) ;
#323 =( CONVERSION_BASED_UNIT ( 'INCH', #236 ) LENGTH_UNIT ( ) NAMED_UNIT ( #214 ) );
#324 = EDGE_CURVE ( 'NONE', #297, #315, #208, .T. ) ;
#325 = ORIENTED_EDGE ( 'NONE', *, *, #338, .F. ) ;
#326 = CARTESIAN_POINT ( 'NONE',  ( -1.836970198721029688E-16, 4.000000000000000000, 0.000000000000000000 ) ) ;
#327 =( NAMED_UNIT ( * ) PLANE_ANGLE_UNIT ( ) SI_UNIT ( $, .RADIAN. ) );
#328 = DIRECTION ( 'NONE',  ( 1.000000000000000000, 1.234313045635524517E-16, 0.000000000000000000 ) ) ;
#329 = COLOUR_RGB ( '',0.7921568627450980005, 0.8196078431372548767, 0.9333333333333333481 ) ;
#330 = PRESENTATION_LAYER_ASSIGNMENT (  '', '', ( #7 ) ) ;
#331 =( LENGTH_UNIT ( ) NAMED_UNIT ( * ) SI_UNIT ( $, .METRE. ) );
#332 = CYLINDRICAL_SURFACE ( 'NONE', #69, 0.09374999999999983347 ) ;
#333 =( NAMED_UNIT ( * ) SI_UNIT ( $, .STERADIAN. ) SOLID_ANGLE_UNIT ( ) );
#334 = DIRECTION ( 'NONE',  ( -0.000000000000000000, -1.000000000000000000, -0.000000000000000000 ) ) ;
#335 = FILL_AREA_STYLE_COLOUR ( '', #18 ) ;
#336 = DIRECTION ( 'NONE',  ( 0.000000000000000000, 0.000000000000000000, -1.000000000000000000 ) ) ;
#337 = DIRECTION ( 'NONE',  ( 0.000000000000000000, 0.000000000000000000, -1.000000000000000000 ) ) ;
#338 = EDGE_CURVE ( 'NONE', #32, #96, #296, .T. ) ;
#339 = FILL_AREA_STYLE ('',( #348 ) ) ;
#340 = CARTESIAN_POINT ( 'NONE',  ( -0.09374999999999956979, 1.562500000000000000, 0.000000000000000000 ) ) ;
#341 = CARTESIAN_POINT ( 'NONE',  ( -5.740531871003217003E-18, 0.000000000000000000, 0.000000000000000000 ) ) ;
#342 =( CONVERSION_BASED_UNIT ( 'INCH', #21 ) LENGTH_UNIT ( ) NAMED_UNIT ( #63 ) );
#343 = CARTESIAN_POINT ( 'NONE',  ( 0.000000000000000000, 0.000000000000000000, -0.09374999999999988898 ) ) ;
#344 =( GEOMETRIC_REPRESENTATION_CONTEXT ( 3 ) GLOBAL_UNCERTAINTY_ASSIGNED_CONTEXT ( ( #310 ) ) GLOBAL_UNIT_ASSIGNED_CONTEXT ( ( #342, #165, #194 ) ) REPRESENTATION_CONTEXT ( 'NONE', 'WORKASPACE' ) );
#345 = FILL_AREA_STYLE_COLOUR ( '', #30 ) ;
#346 = PRODUCT_CONTEXT ( 'NONE', #191, 'mechanical' ) ;
#347 = ADVANCED_FACE ( 'NONE', ( #157 ), #274, .F. ) ;
#348 = FILL_AREA_STYLE_COLOUR ( '', #130 ) ;
#349 =( CONVERSION_BASED_UNIT ( 'INCH', #372 ) LENGTH_UNIT ( ) NAMED_UNIT ( #287 ) );
#350 = DIRECTION ( 'NONE',  ( 0.000000000000000000, 1.000000000000000000, 0.000000000000000000 ) ) ;
#351 = STYLED_ITEM ( 'NONE', ( #141 ), #41 ) ;
#352 = VECTOR ( 'NONE', #176, 39.37007874015748143 ) ;
#353 = EDGE_CURVE ( 'NONE', #229, #13, #111, .T. ) ;
#354 = ORIENTED_EDGE ( 'NONE', *, *, #174, .T. ) ;
#355 = ORIENTED_EDGE ( 'NONE', *, *, #28, .T. ) ;
#356 = ORIENTED_EDGE ( 'NONE', *, *, #324, .F. ) ;
#357 = CIRCLE ( 'NONE', #6, 0.09374999999999998612 ) ;
#358 = ORIENTED_EDGE ( 'NONE', *, *, #353, .T. ) ;
#359 = CARTESIAN_POINT ( 'NONE',  ( 0.000000000000000000, 0.09375000000000001388, 0.000000000000000000 ) ) ;
#360 = SURFACE_STYLE_USAGE ( .BOTH. , #239 ) ;
#361 = ORIENTED_EDGE ( 'NONE', *, *, #275, .T. ) ;
#362 = FACE_OUTER_BOUND ( 'NONE', #181, .T. ) ;
#363 = ORIENTED_EDGE ( 'NONE', *, *, #275, .F. ) ;
#364 = DIRECTION ( 'NONE',  ( -1.234313045635524517E-16, 1.000000000000000000, -0.000000000000000000 ) ) ;
#365 = DIRECTION ( 'NONE',  ( -1.234313045635524517E-16, 1.000000000000000000, -0.000000000000000000 ) ) ;
#366 = DIRECTION ( 'NONE',  ( 0.000000000000000000, 0.000000000000000000, -1.000000000000000000 ) ) ;
#367 = DIRECTION ( 'NONE',  ( -1.000000000000000000, 0.000000000000000000, 0.000000000000000000 ) ) ;
#368 = PLANE ( 'NONE',  #227 ) ;
#369 = CIRCLE ( 'NONE', #38, 0.09374999999999998612 ) ;
#370 = AXIS2_PLACEMENT_3D ( 'NONE', #321, #94, #322 ) ;
#371 = DIRECTION ( 'NONE',  ( -1.000000000000000000, -1.234313045635524517E-16, 0.000000000000000000 ) ) ;
#372 = LENGTH_MEASURE_WITH_UNIT ( LENGTH_MEASURE( 0.02539999999999999897 ), #136 );
#373 = SPHERICAL_SURFACE ( 'NONE', #119, 0.09374999999999998612 ) ;
ENDSEC;
END-ISO-10303-21;
