ISO-10303-21;
HEADER;
FILE_DESCRIPTION (( 'STEP AP214' ),
    '1' );
FILE_NAME ('06540.STEP',
    '2023-07-05T16:04:27',
    ( '' ),
    ( '' ),
    'SwSTEP 2.0',
    'SolidWorks 2023',
    '' );
FILE_SCHEMA (( 'AUTOMOTIVE_DESIGN' ));
ENDSEC;

DATA;
#1 = CARTESIAN_POINT ( 'NONE',  ( 3.372124867179324756E-16, 0.2165063509461084557, 0.000000000000000000 ) ) ;
#2 =( NAMED_UNIT ( * ) PLANE_ANGLE_UNIT ( ) SI_UNIT ( $, .RADIAN. ) );
#3 = DIRECTION ( 'NONE',  ( -1.000000000000000000, 0.000000000000000000, 0.000000000000000000 ) ) ;
#4 = CARTESIAN_POINT ( 'NONE',  ( 0.000000000000000000, 0.000000000000000000, 0.000000000000000000 ) ) ;
#5 = EDGE_CURVE ( 'NONE', #128, #31, #56, .T. ) ;
#6 = APPLICATION_CONTEXT ( 'automotive_design' ) ;
#7 = ADVANCED_FACE ( 'NONE', ( #22 ), #60, .T. ) ;
#8 = MECHANICAL_DESIGN_GEOMETRIC_PRESENTATION_REPRESENTATION (  '', ( #187 ), #249 ) ;
#9 = CARTESIAN_POINT ( 'NONE',  ( 0.000000000000000000, 0.000000000000000000, 0.000000000000000000 ) ) ;
#10 = DIMENSIONAL_EXPONENTS ( 1.000000000000000000, 0.000000000000000000, 0.000000000000000000, 0.000000000000000000, 0.000000000000000000, 0.000000000000000000, 0.000000000000000000 ) ;
#11 = FACE_OUTER_BOUND ( 'NONE', #265, .T. ) ;
#12 = MECHANICAL_DESIGN_GEOMETRIC_PRESENTATION_REPRESENTATION (  '', ( #140 ), #106 ) ;
#13 =( CONVERSION_BASED_UNIT ( 'INCH', #148 ) LENGTH_UNIT ( ) NAMED_UNIT ( #50 ) );
#14 = SURFACE_STYLE_USAGE ( .BOTH. , #124 ) ;
#15 = CARTESIAN_POINT ( 'NONE',  ( 0.3749999999999999445, 0.2165063509461084834, 4.592425496802574219E-17 ) ) ;
#16 = LINE ( 'NONE', #112, #68 ) ;
#17 = CARTESIAN_POINT ( 'NONE',  ( 0.000000000000000000, 0.2165063509461085389, 0.000000000000000000 ) ) ;
#18 = ORIENTED_EDGE ( 'NONE', *, *, #5, .F. ) ;
#19 = PRODUCT_DEFINITION_CONTEXT ( 'detailed design', #6, 'design' ) ;
#20 = ORIENTED_EDGE ( 'NONE', *, *, #247, .T. ) ;
#21 =( CONVERSION_BASED_UNIT ( 'INCH', #155 ) LENGTH_UNIT ( ) NAMED_UNIT ( #142 ) );
#22 = FACE_OUTER_BOUND ( 'NONE', #131, .T. ) ;
#23 = VECTOR ( 'NONE', #177, 39.37007874015748143 ) ;
#24 = EDGE_LOOP ( 'NONE', ( #168, #208 ) ) ;
#25 = DIRECTION ( 'NONE',  ( 1.431455849776166882E-16, -1.000000000000000000, 0.000000000000000000 ) ) ;
#26 = EDGE_CURVE ( 'NONE', #246, #80, #135, .T. ) ;
#27 = EDGE_CURVE ( 'NONE', #233, #128, #16, .T. ) ;
#28 = CONICAL_SURFACE ( 'NONE', #209, 68.19097667594041923, 1.047197551196600074 ) ;
#29 = PLANE ( 'NONE',  #183 ) ;
#30 = DIRECTION ( 'NONE',  ( 0.000000000000000000, 1.000000000000000000, 0.000000000000000000 ) ) ;
#31 = VERTEX_POINT ( 'NONE', #192 ) ;
#32 = MECHANICAL_DESIGN_GEOMETRIC_PRESENTATION_REPRESENTATION (  '', ( #146 ), #229 ) ;
#33 = DIRECTION ( 'NONE',  ( -1.000000000000000000, -1.821231995776177451E-16, 0.000000000000000000 ) ) ;
#34 =( GEOMETRIC_REPRESENTATION_CONTEXT ( 3 ) GLOBAL_UNCERTAINTY_ASSIGNED_CONTEXT ( ( #125 ) ) GLOBAL_UNIT_ASSIGNED_CONTEXT ( ( #126, #2, #67 ) ) REPRESENTATION_CONTEXT ( 'NONE', 'WORKASPACE' ) );
#35 =( LENGTH_UNIT ( ) NAMED_UNIT ( * ) SI_UNIT ( $, .METRE. ) );
#36 = LENGTH_MEASURE_WITH_UNIT ( LENGTH_MEASURE( 0.02539999999999999897 ), #35 );
#37 = ORIENTED_EDGE ( 'NONE', *, *, #261, .F. ) ;
#38 = FILL_AREA_STYLE ('',( #161 ) ) ;
#39 = DIRECTION ( 'NONE',  ( -1.431455849776166882E-16, 1.000000000000000000, -0.000000000000000000 ) ) ;
#40 = AXIS2_PLACEMENT_3D ( 'NONE', #17, #185, #104 ) ;
#41 = EDGE_LOOP ( 'NONE', ( #110, #37 ) ) ;
#42 = UNCERTAINTY_MEASURE_WITH_UNIT (LENGTH_MEASURE( 1.000000000000000082E-05 ), #54, 'distance_accuracy_value', 'NONE');
#43 = ADVANCED_FACE ( 'NONE', ( #236 ), #46, .F. ) ;
#44 = DIRECTION ( 'NONE',  ( 0.000000000000000000, 0.000000000000000000, 1.000000000000000000 ) ) ;
#45 = ORIENTED_EDGE ( 'NONE', *, *, #27, .F. ) ;
#46 = PLANE ( 'NONE',  #136 ) ;
#47 =( NAMED_UNIT ( * ) PLANE_ANGLE_UNIT ( ) SI_UNIT ( $, .RADIAN. ) );
#48 = PRESENTATION_LAYER_ASSIGNMENT (  '', '', ( #130 ) ) ;
#49 = CARTESIAN_POINT ( 'NONE',  ( 3.372124867179324756E-16, 0.2165063509461084279, 0.000000000000000000 ) ) ;
#50 = DIMENSIONAL_EXPONENTS ( 1.000000000000000000, 0.000000000000000000, 0.000000000000000000, 0.000000000000000000, 0.000000000000000000, 0.000000000000000000, 0.000000000000000000 ) ;
#51 = ADVANCED_BREP_SHAPE_REPRESENTATION ( '06540', ( #189, #102, #141 ), #137 ) ;
#52 = PRESENTATION_LAYER_ASSIGNMENT (  '', '', ( #187 ) ) ;
#53 = CARTESIAN_POINT ( 'NONE',  ( 0.000000000000000000, 0.2165063509461085389, 0.3750000000000000555 ) ) ;
#54 =( CONVERSION_BASED_UNIT ( 'INCH', #188 ) LENGTH_UNIT ( ) NAMED_UNIT ( #10 ) );
#55 =( NAMED_UNIT ( * ) PLANE_ANGLE_UNIT ( ) SI_UNIT ( $, .RADIAN. ) );
#56 = CIRCLE ( 'NONE', #215, 0.3750000000000000555 ) ;
#57 = CIRCLE ( 'NONE', #216, 0.3749999999999996114 ) ;
#58 = CARTESIAN_POINT ( 'NONE',  ( 0.000000000000000000, 39.37007874015748143, 0.000000000000000000 ) ) ;
#59 = ORIENTED_EDGE ( 'NONE', *, *, #240, .T. ) ;
#60 = CYLINDRICAL_SURFACE ( 'NONE', #166, 0.3749999999999998335 ) ;
#61 = CARTESIAN_POINT ( 'NONE',  ( 0.000000000000000000, 0.000000000000000000, 0.000000000000000000 ) ) ;
#62 = VECTOR ( 'NONE', #179, 39.37007874015748854 ) ;
#63 = DIRECTION ( 'NONE',  ( -1.431455849776166882E-16, 1.000000000000000000, 0.000000000000000000 ) ) ;
#64 = CARTESIAN_POINT ( 'NONE',  ( -6.123233995736770966E-17, 3.000000000000000444, 0.000000000000000000 ) ) ;
#65 = ORIENTED_EDGE ( 'NONE', *, *, #82, .T. ) ;
#66 = DIRECTION ( 'NONE',  ( -1.000000000000000000, 0.000000000000000000, 0.000000000000000000 ) ) ;
#67 =( NAMED_UNIT ( * ) SI_UNIT ( $, .STERADIAN. ) SOLID_ANGLE_UNIT ( ) );
#68 = VECTOR ( 'NONE', #157, 39.37007874015748143 ) ;
#69 = PRODUCT_DEFINITION ( 'UNKNOWN', '', #167, #19 ) ;
#70 =( NAMED_UNIT ( * ) PLANE_ANGLE_UNIT ( ) SI_UNIT ( $, .RADIAN. ) );
#71 = FILL_AREA_STYLE_COLOUR ( '', #75 ) ;
#72 = PRODUCT ( '06540', '06540', '', ( #118 ) ) ;
#73 = ADVANCED_FACE ( 'NONE', ( #263 ), #28, .T. ) ;
#74 = DIRECTION ( 'NONE',  ( 0.000000000000000000, -0.000000000000000000, 1.000000000000000000 ) ) ;
#75 = COLOUR_RGB ( '',1.000000000000000000, 0.000000000000000000, 0.000000000000000000 ) ;
#76 = ADVANCED_FACE ( 'NONE', ( #237 ), #159, .T. ) ;
#77 = AXIS2_PLACEMENT_3D ( 'NONE', #250, #174, #211 ) ;
#78 = VECTOR ( 'NONE', #117, 39.37007874015748854 ) ;
#79 = SURFACE_STYLE_USAGE ( .BOTH. , #134 ) ;
#80 = VERTEX_POINT ( 'NONE', #53 ) ;
#81 = UNCERTAINTY_MEASURE_WITH_UNIT (LENGTH_MEASURE( 1.000000000000000082E-05 ), #21, 'distance_accuracy_value', 'NONE');
#82 = EDGE_CURVE ( 'NONE', #194, #233, #172, .T. ) ;
#83 = CARTESIAN_POINT ( 'NONE',  ( 4.592425496802575451E-17, 0.2165063509461085389, -0.3750000000000000555 ) ) ;
#84 = ORIENTED_EDGE ( 'NONE', *, *, #99, .F. ) ;
#85 =( NAMED_UNIT ( * ) SI_UNIT ( $, .STERADIAN. ) SOLID_ANGLE_UNIT ( ) );
#86 = STYLED_ITEM ( 'NONE', ( #184 ), #189 ) ;
#87 = FILL_AREA_STYLE ('',( #235 ) ) ;
#88 = APPLICATION_PROTOCOL_DEFINITION ( 'draft international standard', 'automotive_design', 1998, #6 ) ;
#89 = ORIENTED_EDGE ( 'NONE', *, *, #26, .T. ) ;
#90 = ADVANCED_FACE ( 'NONE', ( #11 ), #138, .T. ) ;
#91 = DIRECTION ( 'NONE',  ( 0.000000000000000000, 0.000000000000000000, 1.000000000000000000 ) ) ;
#92 = DIRECTION ( 'NONE',  ( -1.000000000000000000, -1.821231995776177451E-16, 0.000000000000000000 ) ) ;
#93 = CIRCLE ( 'NONE', #40, 0.3750000000000000555 ) ;
#94 = CONICAL_SURFACE ( 'NONE', #243, 68.19097667594041923, 1.047197551196600074 ) ;
#95 = ADVANCED_FACE ( 'NONE', ( #255 ), #29, .F. ) ;
#96 = EDGE_CURVE ( 'NONE', #191, #246, #198, .T. ) ;
#97 = DIRECTION ( 'NONE',  ( 1.000000000000000000, 1.431455849776166882E-16, 0.000000000000000000 ) ) ;
#98 = CIRCLE ( 'NONE', #180, 0.3750000000000000555 ) ;
#99 = EDGE_CURVE ( 'NONE', #191, #80, #195, .T. ) ;
#100 = SURFACE_STYLE_USAGE ( .BOTH. , #121 ) ;
#101 =( GEOMETRIC_REPRESENTATION_CONTEXT ( 3 ) GLOBAL_UNCERTAINTY_ASSIGNED_CONTEXT ( ( #150 ) ) GLOBAL_UNIT_ASSIGNED_CONTEXT ( ( #239, #238, #201 ) ) REPRESENTATION_CONTEXT ( 'NONE', 'WORKASPACE' ) );
#102 = MANIFOLD_SOLID_BREP ( 'Revolve - Tool Body (Pointed)', #113 ) ;
#103 = ADVANCED_FACE ( 'NONE', ( #164 ), #94, .T. ) ;
#104 = DIRECTION ( 'NONE',  ( 0.000000000000000000, 0.000000000000000000, -1.000000000000000000 ) ) ;
#105 = ORIENTED_EDGE ( 'NONE', *, *, #261, .T. ) ;
#106 =( GEOMETRIC_REPRESENTATION_CONTEXT ( 3 ) GLOBAL_UNCERTAINTY_ASSIGNED_CONTEXT ( ( #204 ) ) GLOBAL_UNIT_ASSIGNED_CONTEXT ( ( #13, #55, #205 ) ) REPRESENTATION_CONTEXT ( 'NONE', 'WORKASPACE' ) );
#107 = FILL_AREA_STYLE_COLOUR ( '', #203 ) ;
#108 = PRESENTATION_STYLE_ASSIGNMENT (( #79 ) ) ;
#109 = SURFACE_STYLE_FILL_AREA ( #260 ) ;
#110 = ORIENTED_EDGE ( 'NONE', *, *, #82, .F. ) ;
#111 =( LENGTH_UNIT ( ) NAMED_UNIT ( * ) SI_UNIT ( $, .METRE. ) );
#112 = CARTESIAN_POINT ( 'NONE',  ( 0.3749999999999997780, 3.000000000000000444, 4.592425496802572370E-17 ) ) ;
#113 = CLOSED_SHELL ( 'NONE', ( #90, #43, #7, #95 ) ) ;
#114 = DIRECTION ( 'NONE',  ( -1.000000000000000000, 0.000000000000000000, 0.000000000000000000 ) ) ;
#115 = COLOUR_RGB ( '',1.000000000000000000, 0.000000000000000000, 0.000000000000000000 ) ;
#116 = ORIENTED_EDGE ( 'NONE', *, *, #247, .F. ) ;
#117 = DIRECTION ( 'NONE',  ( 1.060575238724908024E-16, 0.4999999999999979461, -0.8660254037844397068 ) ) ;
#118 = PRODUCT_CONTEXT ( 'NONE', #154, 'mechanical' ) ;
#119 = CARTESIAN_POINT ( 'NONE',  ( 0.000000000000000000, 0.2165063509461085112, 0.000000000000000000 ) ) ;
#120 = PRESENTATION_LAYER_ASSIGNMENT (  '', '', ( #86 ) ) ;
#121 = SURFACE_SIDE_STYLE ('',( #242 ) ) ;
#122 = PRESENTATION_STYLE_ASSIGNMENT (( #100 ) ) ;
#123 = EDGE_CURVE ( 'NONE', #80, #246, #93, .T. ) ;
#124 = SURFACE_SIDE_STYLE ('',( #151 ) ) ;
#125 = UNCERTAINTY_MEASURE_WITH_UNIT (LENGTH_MEASURE( 1.000000000000000082E-05 ), #126, 'distance_accuracy_value', 'NONE');
#126 =( CONVERSION_BASED_UNIT ( 'INCH', #36 ) LENGTH_UNIT ( ) NAMED_UNIT ( #144 ) );
#127 = ORIENTED_EDGE ( 'NONE', *, *, #240, .F. ) ;
#128 = VERTEX_POINT ( 'NONE', #228 ) ;
#129 = UNCERTAINTY_MEASURE_WITH_UNIT (LENGTH_MEASURE( 1.000000000000000082E-05 ), #253, 'distance_accuracy_value', 'NONE');
#130 = STYLED_ITEM ( 'NONE', ( #108 ), #73 ) ;
#131 = EDGE_LOOP ( 'NONE', ( #45, #105, #59, #18 ) ) ;
#132 = ORIENTED_EDGE ( 'NONE', *, *, #96, .F. ) ;
#133 = DIRECTION ( 'NONE',  ( 1.000000000000000000, 0.000000000000000000, 0.000000000000000000 ) ) ;
#134 = SURFACE_SIDE_STYLE ('',( #264 ) ) ;
#135 = CIRCLE ( 'NONE', #77, 0.3750000000000000555 ) ;
#136 = AXIS2_PLACEMENT_3D ( 'NONE', #1, #63, #156 ) ;
#137 =( GEOMETRIC_REPRESENTATION_CONTEXT ( 3 ) GLOBAL_UNCERTAINTY_ASSIGNED_CONTEXT ( ( #81 ) ) GLOBAL_UNIT_ASSIGNED_CONTEXT ( ( #21, #47, #85 ) ) REPRESENTATION_CONTEXT ( 'NONE', 'WORKASPACE' ) );
#138 = CYLINDRICAL_SURFACE ( 'NONE', #158, 0.3749999999999998335 ) ;
#139 = DIRECTION ( 'NONE',  ( -1.431455849776166882E-16, 1.000000000000000000, -0.000000000000000000 ) ) ;
#140 = STYLED_ITEM ( 'NONE', ( #259 ), #103 ) ;
#141 = AXIS2_PLACEMENT_3D ( 'NONE', #178, #44, #133 ) ;
#142 = DIMENSIONAL_EXPONENTS ( 1.000000000000000000, 0.000000000000000000, 0.000000000000000000, 0.000000000000000000, 0.000000000000000000, 0.000000000000000000, 0.000000000000000000 ) ;
#143 = FILL_AREA_STYLE_COLOUR ( '', #226 ) ;
#144 = DIMENSIONAL_EXPONENTS ( 1.000000000000000000, 0.000000000000000000, 0.000000000000000000, 0.000000000000000000, 0.000000000000000000, 0.000000000000000000, 0.000000000000000000 ) ;
#145 = SURFACE_STYLE_FILL_AREA ( #241 ) ;
#146 = STYLED_ITEM ( 'NONE', ( #122 ), #76 ) ;
#147 = DIMENSIONAL_EXPONENTS ( 1.000000000000000000, 0.000000000000000000, 0.000000000000000000, 0.000000000000000000, 0.000000000000000000, 0.000000000000000000, 0.000000000000000000 ) ;
#148 = LENGTH_MEASURE_WITH_UNIT ( LENGTH_MEASURE( 0.02539999999999999897 ), #202 );
#149 = MECHANICAL_DESIGN_GEOMETRIC_PRESENTATION_REPRESENTATION (  '', ( #86 ), #34 ) ;
#150 = UNCERTAINTY_MEASURE_WITH_UNIT (LENGTH_MEASURE( 1.000000000000000082E-05 ), #239, 'distance_accuracy_value', 'NONE');
#151 = SURFACE_STYLE_FILL_AREA ( #38 ) ;
#152 = DIRECTION ( 'NONE',  ( -1.000000000000000000, 0.000000000000000000, 0.000000000000000000 ) ) ;
#153 = LENGTH_MEASURE_WITH_UNIT ( LENGTH_MEASURE( 0.02539999999999999897 ), #170 );
#154 = APPLICATION_CONTEXT ( 'automotive_design' ) ;
#155 = LENGTH_MEASURE_WITH_UNIT ( LENGTH_MEASURE( 0.02539999999999999897 ), #111 );
#156 = DIRECTION ( 'NONE',  ( -1.000000000000000000, -1.431455849776166882E-16, 0.000000000000000000 ) ) ;
#157 = DIRECTION ( 'NONE',  ( -1.431455849776166882E-16, 1.000000000000000000, -0.000000000000000000 ) ) ;
#158 = AXIS2_PLACEMENT_3D ( 'NONE', #221, #217, #66 ) ;
#159 = PLANE ( 'NONE',  #254 ) ;
#160 = SHAPE_DEFINITION_REPRESENTATION ( #257, #51 ) ;
#161 = FILL_AREA_STYLE_COLOUR ( '', #115 ) ;
#162 = DIRECTION ( 'NONE',  ( -1.431455849776166882E-16, 1.000000000000000000, -0.000000000000000000 ) ) ;
#163 = DIRECTION ( 'NONE',  ( 0.000000000000000000, 0.000000000000000000, 1.000000000000000000 ) ) ;
#164 = FACE_OUTER_BOUND ( 'NONE', #231, .T. ) ;
#165 =( NAMED_UNIT ( * ) SI_UNIT ( $, .STERADIAN. ) SOLID_ANGLE_UNIT ( ) );
#166 = AXIS2_PLACEMENT_3D ( 'NONE', #190, #171, #152 ) ;
#167 = PRODUCT_DEFINITION_FORMATION_WITH_SPECIFIED_SOURCE ( 'ANY', '', #72, .NOT_KNOWN. ) ;
#168 = ORIENTED_EDGE ( 'NONE', *, *, #123, .F. ) ;
#169 = SURFACE_STYLE_USAGE ( .BOTH. , #256 ) ;
#170 =( LENGTH_UNIT ( ) NAMED_UNIT ( * ) SI_UNIT ( $, .METRE. ) );
#171 = DIRECTION ( 'NONE',  ( -1.431455849776166882E-16, 1.000000000000000000, -0.000000000000000000 ) ) ;
#172 = CIRCLE ( 'NONE', #258, 0.3749999999999996114 ) ;
#173 = CARTESIAN_POINT ( 'NONE',  ( 3.372124867179324756E-16, 0.2165063509461084279, 0.000000000000000000 ) ) ;
#174 = DIRECTION ( 'NONE',  ( -0.000000000000000000, -1.000000000000000000, -0.000000000000000000 ) ) ;
#175 = DIRECTION ( 'NONE',  ( -1.431455849776166882E-16, 1.000000000000000000, -0.000000000000000000 ) ) ;
#176 = CARTESIAN_POINT ( 'NONE',  ( 0.000000000000000000, 39.37007874015748143, 0.000000000000000000 ) ) ;
#177 = DIRECTION ( 'NONE',  ( -1.431455849776166882E-16, 1.000000000000000000, -0.000000000000000000 ) ) ;
#178 = CARTESIAN_POINT ( 'NONE',  ( 0.000000000000000000, 0.000000000000000000, 0.000000000000000000 ) ) ;
#179 = DIRECTION ( 'NONE',  ( 0.000000000000000000, 0.4999999999999979461, 0.8660254037844397068 ) ) ;
#180 = AXIS2_PLACEMENT_3D ( 'NONE', #64, #175, #114 ) ;
#181 = CARTESIAN_POINT ( 'NONE',  ( 0.3749999999999999445, 3.000000000000000444, 0.000000000000000000 ) ) ;
#182 =( LENGTH_UNIT ( ) NAMED_UNIT ( * ) SI_UNIT ( $, .METRE. ) );
#183 = AXIS2_PLACEMENT_3D ( 'NONE', #181, #25, #97 ) ;
#184 = PRESENTATION_STYLE_ASSIGNMENT (( #245 ) ) ;
#185 = DIRECTION ( 'NONE',  ( -0.000000000000000000, -1.000000000000000000, -0.000000000000000000 ) ) ;
#186 = ORIENTED_EDGE ( 'NONE', *, *, #123, .T. ) ;
#187 = STYLED_ITEM ( 'NONE', ( #232 ), #102 ) ;
#188 = LENGTH_MEASURE_WITH_UNIT ( LENGTH_MEASURE( 0.02539999999999999897 ), #207 );
#189 = MANIFOLD_SOLID_BREP ( 'Revolve - Cutting Edge', #224 ) ;
#190 = CARTESIAN_POINT ( 'NONE',  ( -6.123233995736772199E-17, 3.000000000000000444, 0.000000000000000000 ) ) ;
#191 = VERTEX_POINT ( 'NONE', #61 ) ;
#192 = CARTESIAN_POINT ( 'NONE',  ( -0.3750000000000001110, 3.000000000000000444, 0.000000000000000000 ) ) ;
#193 = CARTESIAN_POINT ( 'NONE',  ( -0.3749999999999998890, 3.000000000000000444, 0.000000000000000000 ) ) ;
#194 = VERTEX_POINT ( 'NONE', #218 ) ;
#195 = LINE ( 'NONE', #4, #62 ) ;
#196 = PRESENTATION_LAYER_ASSIGNMENT (  '', '', ( #140 ) ) ;
#197 = DIRECTION ( 'NONE',  ( 0.000000000000000000, 1.000000000000000000, 0.000000000000000000 ) ) ;
#198 = LINE ( 'NONE', #9, #78 ) ;
#199 = PRESENTATION_LAYER_ASSIGNMENT (  '', '', ( #146 ) ) ;
#200 = PRODUCT_RELATED_PRODUCT_CATEGORY ( 'part', '', ( #72 ) ) ;
#201 =( NAMED_UNIT ( * ) SI_UNIT ( $, .STERADIAN. ) SOLID_ANGLE_UNIT ( ) );
#202 =( LENGTH_UNIT ( ) NAMED_UNIT ( * ) SI_UNIT ( $, .METRE. ) );
#203 = COLOUR_RGB ( '',0.7921568627450980005, 0.8196078431372548767, 0.9333333333333333481 ) ;
#204 = UNCERTAINTY_MEASURE_WITH_UNIT (LENGTH_MEASURE( 1.000000000000000082E-05 ), #13, 'distance_accuracy_value', 'NONE');
#205 =( NAMED_UNIT ( * ) SI_UNIT ( $, .STERADIAN. ) SOLID_ANGLE_UNIT ( ) );
#206 = ORIENTED_EDGE ( 'NONE', *, *, #99, .T. ) ;
#207 =( LENGTH_UNIT ( ) NAMED_UNIT ( * ) SI_UNIT ( $, .METRE. ) );
#208 = ORIENTED_EDGE ( 'NONE', *, *, #26, .F. ) ;
#209 = AXIS2_PLACEMENT_3D ( 'NONE', #176, #197, #91 ) ;
#210 =( NAMED_UNIT ( * ) PLANE_ANGLE_UNIT ( ) SI_UNIT ( $, .RADIAN. ) );
#211 = DIRECTION ( 'NONE',  ( 0.000000000000000000, 0.000000000000000000, -1.000000000000000000 ) ) ;
#212 = EDGE_LOOP ( 'NONE', ( #20, #252 ) ) ;
#213 = APPLICATION_PROTOCOL_DEFINITION ( 'draft international standard', 'automotive_design', 1998, #154 ) ;
#214 = CARTESIAN_POINT ( 'NONE',  ( -6.123233995736770966E-17, 3.000000000000000444, 0.000000000000000000 ) ) ;
#215 = AXIS2_PLACEMENT_3D ( 'NONE', #214, #39, #3 ) ;
#216 = AXIS2_PLACEMENT_3D ( 'NONE', #173, #139, #92 ) ;
#217 = DIRECTION ( 'NONE',  ( -1.431455849776166882E-16, 1.000000000000000000, -0.000000000000000000 ) ) ;
#218 = CARTESIAN_POINT ( 'NONE',  ( -0.3749999999999992784, 0.2165063509461083446, 0.000000000000000000 ) ) ;
#219 = MECHANICAL_DESIGN_GEOMETRIC_PRESENTATION_REPRESENTATION (  '', ( #130 ), #101 ) ;
#220 = DIMENSIONAL_EXPONENTS ( 1.000000000000000000, 0.000000000000000000, 0.000000000000000000, 0.000000000000000000, 0.000000000000000000, 0.000000000000000000, 0.000000000000000000 ) ;
#221 = CARTESIAN_POINT ( 'NONE',  ( -6.123233995736772199E-17, 3.000000000000000444, 0.000000000000000000 ) ) ;
#222 =( NAMED_UNIT ( * ) SI_UNIT ( $, .STERADIAN. ) SOLID_ANGLE_UNIT ( ) );
#223 = ORIENTED_EDGE ( 'NONE', *, *, #27, .T. ) ;
#224 = CLOSED_SHELL ( 'NONE', ( #103, #76, #73 ) ) ;
#225 = FILL_AREA_STYLE ('',( #71 ) ) ;
#226 = COLOUR_RGB ( '',0.7921568627450980005, 0.8196078431372548767, 0.9333333333333333481 ) ;
#227 = LENGTH_MEASURE_WITH_UNIT ( LENGTH_MEASURE( 0.02539999999999999897 ), #182 );
#228 = CARTESIAN_POINT ( 'NONE',  ( 0.3749999999999999445, 3.000000000000000444, 4.592425496802574219E-17 ) ) ;
#229 =( GEOMETRIC_REPRESENTATION_CONTEXT ( 3 ) GLOBAL_UNCERTAINTY_ASSIGNED_CONTEXT ( ( #129 ) ) GLOBAL_UNIT_ASSIGNED_CONTEXT ( ( #253, #70, #222 ) ) REPRESENTATION_CONTEXT ( 'NONE', 'WORKASPACE' ) );
#230 = DIRECTION ( 'NONE',  ( 0.000000000000000000, 1.000000000000000000, 0.000000000000000000 ) ) ;
#231 = EDGE_LOOP ( 'NONE', ( #84, #234, #89 ) ) ;
#232 = PRESENTATION_STYLE_ASSIGNMENT (( #169 ) ) ;
#233 = VERTEX_POINT ( 'NONE', #15 ) ;
#234 = ORIENTED_EDGE ( 'NONE', *, *, #96, .T. ) ;
#235 = FILL_AREA_STYLE_COLOUR ( '', #262 ) ;
#236 = FACE_OUTER_BOUND ( 'NONE', #41, .T. ) ;
#237 = FACE_OUTER_BOUND ( 'NONE', #24, .T. ) ;
#238 =( NAMED_UNIT ( * ) PLANE_ANGLE_UNIT ( ) SI_UNIT ( $, .RADIAN. ) );
#239 =( CONVERSION_BASED_UNIT ( 'INCH', #153 ) LENGTH_UNIT ( ) NAMED_UNIT ( #147 ) );
#240 = EDGE_CURVE ( 'NONE', #194, #31, #251, .T. ) ;
#241 = FILL_AREA_STYLE ('',( #143 ) ) ;
#242 = SURFACE_STYLE_FILL_AREA ( #225 ) ;
#243 = AXIS2_PLACEMENT_3D ( 'NONE', #58, #230, #163 ) ;
#244 = SURFACE_SIDE_STYLE ('',( #109 ) ) ;
#245 = SURFACE_STYLE_USAGE ( .BOTH. , #244 ) ;
#246 = VERTEX_POINT ( 'NONE', #83 ) ;
#247 = EDGE_CURVE ( 'NONE', #31, #128, #98, .T. ) ;
#248 = EDGE_LOOP ( 'NONE', ( #132, #206, #186 ) ) ;
#249 =( GEOMETRIC_REPRESENTATION_CONTEXT ( 3 ) GLOBAL_UNCERTAINTY_ASSIGNED_CONTEXT ( ( #42 ) ) GLOBAL_UNIT_ASSIGNED_CONTEXT ( ( #54, #210, #165 ) ) REPRESENTATION_CONTEXT ( 'NONE', 'WORKASPACE' ) );
#250 = CARTESIAN_POINT ( 'NONE',  ( 0.000000000000000000, 0.2165063509461085389, 0.000000000000000000 ) ) ;
#251 = LINE ( 'NONE', #193, #23 ) ;
#252 = ORIENTED_EDGE ( 'NONE', *, *, #5, .T. ) ;
#253 =( CONVERSION_BASED_UNIT ( 'INCH', #227 ) LENGTH_UNIT ( ) NAMED_UNIT ( #220 ) );
#254 = AXIS2_PLACEMENT_3D ( 'NONE', #119, #30, #74 ) ;
#255 = FACE_OUTER_BOUND ( 'NONE', #212, .T. ) ;
#256 = SURFACE_SIDE_STYLE ('',( #145 ) ) ;
#257 = PRODUCT_DEFINITION_SHAPE ( 'NONE', 'NONE',  #69 ) ;
#258 = AXIS2_PLACEMENT_3D ( 'NONE', #49, #162, #33 ) ;
#259 = PRESENTATION_STYLE_ASSIGNMENT (( #14 ) ) ;
#260 = FILL_AREA_STYLE ('',( #107 ) ) ;
#261 = EDGE_CURVE ( 'NONE', #233, #194, #57, .T. ) ;
#262 = COLOUR_RGB ( '',1.000000000000000000, 0.000000000000000000, 0.000000000000000000 ) ;
#263 = FACE_OUTER_BOUND ( 'NONE', #248, .T. ) ;
#264 = SURFACE_STYLE_FILL_AREA ( #87 ) ;
#265 = EDGE_LOOP ( 'NONE', ( #65, #223, #116, #127 ) ) ;
ENDSEC;
END-ISO-10303-21;
