ISO-10303-21;
HEADER;
FILE_DESCRIPTION (( 'STEP AP214' ),
    '1' );
FILE_NAME ('84759.STEP',
    '2023-06-30T23:47:13',
    ( '' ),
    ( '' ),
    'SwSTEP 2.0',
    'SolidWorks 2023',
    '' );
FILE_SCHEMA (( 'AUTOMOTIVE_DESIGN' ));
ENDSEC;

DATA;
#1 = AXIS2_PLACEMENT_3D ( 'NONE', #179, #205, #354 ) ;
#2 = PRODUCT_CONTEXT ( 'NONE', #325, 'mechanical' ) ;
#3 = CARTESIAN_POINT ( 'NONE',  ( -0.1249999999999994726, 1.750000000000000000, 0.000000000000000000 ) ) ;
#4 = VERTEX_POINT ( 'NONE', #21 ) ;
#5 = ORIENTED_EDGE ( 'NONE', *, *, #355, .F. ) ;
#6 = CYLINDRICAL_SURFACE ( 'NONE', #223, 0.1249999999999999029 ) ;
#7 = DIRECTION ( 'NONE',  ( -0.000000000000000000, -1.000000000000000000, -0.000000000000000000 ) ) ;
#8 =( NAMED_UNIT ( * ) PLANE_ANGLE_UNIT ( ) SI_UNIT ( $, .RADIAN. ) );
#9 = ORIENTED_EDGE ( 'NONE', *, *, #304, .F. ) ;
#10 = SURFACE_STYLE_USAGE ( .BOTH. , #230 ) ;
#11 = UNCERTAINTY_MEASURE_WITH_UNIT (LENGTH_MEASURE( 1.000000000000000082E-05 ), #86, 'distance_accuracy_value', 'NONE');
#12 = ORIENTED_EDGE ( 'NONE', *, *, #196, .T. ) ;
#13 =( GEOMETRIC_REPRESENTATION_CONTEXT ( 3 ) GLOBAL_UNCERTAINTY_ASSIGNED_CONTEXT ( ( #293 ) ) GLOBAL_UNIT_ASSIGNED_CONTEXT ( ( #219, #245, #188 ) ) REPRESENTATION_CONTEXT ( 'NONE', 'WORKASPACE' ) );
#14 = FILL_AREA_STYLE_COLOUR ( '', #249 ) ;
#15 =( NAMED_UNIT ( * ) SI_UNIT ( $, .STERADIAN. ) SOLID_ANGLE_UNIT ( ) );
#16 = ORIENTED_EDGE ( 'NONE', *, *, #89, .T. ) ;
#17 = COLOUR_RGB ( '',0.7921568627450980005, 0.8196078431372548767, 0.9333333333333333481 ) ;
#18 = APPLICATION_PROTOCOL_DEFINITION ( 'draft international standard', 'automotive_design', 1998, #325 ) ;
#19 = EDGE_CURVE ( 'NONE', #154, #244, #150, .T. ) ;
#20 = LENGTH_MEASURE_WITH_UNIT ( LENGTH_MEASURE( 0.02539999999999999897 ), #312 );
#21 = CARTESIAN_POINT ( 'NONE',  ( 0.000000000000000000, 1.750000000000000000, -0.1249999999999997780 ) ) ;
#22 = VECTOR ( 'NONE', #99, 39.37007874015748143 ) ;
#23 = PRODUCT_RELATED_PRODUCT_CATEGORY ( 'part', '', ( #204 ) ) ;
#24 = CARTESIAN_POINT ( 'NONE',  ( 1.530808498934190276E-17, 0.000000000000000000, 0.1249999999999999029 ) ) ;
#25 = ORIENTED_EDGE ( 'NONE', *, *, #19, .F. ) ;
#26 = CIRCLE ( 'NONE', #278, 0.1249999999999997780 ) ;
#27 = DIRECTION ( 'NONE',  ( -1.224646799147352961E-16, 1.000000000000000000, -0.000000000000000000 ) ) ;
#28 = PRESENTATION_STYLE_ASSIGNMENT (( #294 ) ) ;
#29 = SURFACE_STYLE_FILL_AREA ( #87 ) ;
#30 = DIRECTION ( 'NONE',  ( -1.224646799147352961E-16, 1.000000000000000000, -0.000000000000000000 ) ) ;
#31 = CARTESIAN_POINT ( 'NONE',  ( 0.000000000000000000, 0.1250000000000000000, -0.1250000000000000000 ) ) ;
#32 = CARTESIAN_POINT ( 'NONE',  ( 0.000000000000000000, 1.750000000000000000, 0.000000000000000000 ) ) ;
#33 = SURFACE_STYLE_FILL_AREA ( #115 ) ;
#34 = DIRECTION ( 'NONE',  ( 0.000000000000000000, 0.000000000000000000, -1.000000000000000000 ) ) ;
#35 =( LENGTH_UNIT ( ) NAMED_UNIT ( * ) SI_UNIT ( $, .METRE. ) );
#36 =( GEOMETRIC_REPRESENTATION_CONTEXT ( 3 ) GLOBAL_UNCERTAINTY_ASSIGNED_CONTEXT ( ( #119 ) ) GLOBAL_UNIT_ASSIGNED_CONTEXT ( ( #203, #326, #359 ) ) REPRESENTATION_CONTEXT ( 'NONE', 'WORKASPACE' ) );
#37 = ADVANCED_FACE ( 'NONE', ( #74 ), #321, .T. ) ;
#38 = SURFACE_STYLE_FILL_AREA ( #182 ) ;
#39 = AXIS2_PLACEMENT_3D ( 'NONE', #248, #100, #71 ) ;
#40 = AXIS2_PLACEMENT_3D ( 'NONE', #133, #295, #267 ) ;
#41 = CARTESIAN_POINT ( 'NONE',  ( 0.1249999999999997780, 4.000000000000000000, 0.000000000000000000 ) ) ;
#42 =( NAMED_UNIT ( * ) PLANE_ANGLE_UNIT ( ) SI_UNIT ( $, .RADIAN. ) );
#43 = ORIENTED_EDGE ( 'NONE', *, *, #268, .T. ) ;
#44 =( NAMED_UNIT ( * ) SI_UNIT ( $, .STERADIAN. ) SOLID_ANGLE_UNIT ( ) );
#45 = AXIS2_PLACEMENT_3D ( 'NONE', #195, #162, #310 ) ;
#46 = SURFACE_SIDE_STYLE ('',( #224 ) ) ;
#47 = ORIENTED_EDGE ( 'NONE', *, *, #213, .T. ) ;
#48 = ADVANCED_FACE ( 'NONE', ( #212 ), #6, .T. ) ;
#49 = SURFACE_STYLE_USAGE ( .BOTH. , #46 ) ;
#50 = VERTEX_POINT ( 'NONE', #238 ) ;
#51 =( LENGTH_UNIT ( ) NAMED_UNIT ( * ) SI_UNIT ( $, .METRE. ) );
#52 = SURFACE_SIDE_STYLE ('',( #300 ) ) ;
#53 = PRODUCT_DEFINITION ( 'UNKNOWN', '', #59, #365 ) ;
#54 =( NAMED_UNIT ( * ) PLANE_ANGLE_UNIT ( ) SI_UNIT ( $, .RADIAN. ) );
#55 = DIRECTION ( 'NONE',  ( -1.000000000000000000, 0.000000000000000000, 0.000000000000000000 ) ) ;
#56 =( NAMED_UNIT ( * ) PLANE_ANGLE_UNIT ( ) SI_UNIT ( $, .RADIAN. ) );
#57 = FACE_OUTER_BOUND ( 'NONE', #252, .T. ) ;
#58 = AXIS2_PLACEMENT_3D ( 'NONE', #215, #146, #126 ) ;
#59 = PRODUCT_DEFINITION_FORMATION_WITH_SPECIFIED_SOURCE ( 'ANY', '', #204, .NOT_KNOWN. ) ;
#60 = CARTESIAN_POINT ( 'NONE',  ( 0.000000000000000000, 0.1250000000000000000, 0.000000000000000000 ) ) ;
#61 = DIRECTION ( 'NONE',  ( 0.000000000000000000, -0.000000000000000000, 1.000000000000000000 ) ) ;
#62 =( NAMED_UNIT ( * ) SI_UNIT ( $, .STERADIAN. ) SOLID_ANGLE_UNIT ( ) );
#63 =( LENGTH_UNIT ( ) NAMED_UNIT ( * ) SI_UNIT ( $, .METRE. ) );
#64 = PRESENTATION_LAYER_ASSIGNMENT (  '', '', ( #105 ) ) ;
#65 = COLOUR_RGB ( '',1.000000000000000000, 0.000000000000000000, 0.000000000000000000 ) ;
#66 = EDGE_CURVE ( 'NONE', #244, #154, #209, .T. ) ;
#67 = CARTESIAN_POINT ( 'NONE',  ( 0.000000000000000000, 0.000000000000000000, 0.000000000000000000 ) ) ;
#68 = FILL_AREA_STYLE_COLOUR ( '', #349 ) ;
#69 = LENGTH_MEASURE_WITH_UNIT ( LENGTH_MEASURE( 0.02539999999999999897 ), #333 );
#70 = CARTESIAN_POINT ( 'NONE',  ( 0.1249999999999997641, 4.000000000000000000, 1.530808498934189352E-17 ) ) ;
#71 = DIRECTION ( 'NONE',  ( 0.000000000000000000, 0.000000000000000000, -1.000000000000000000 ) ) ;
#72 =( GEOMETRIC_REPRESENTATION_CONTEXT ( 3 ) GLOBAL_UNCERTAINTY_ASSIGNED_CONTEXT ( ( #180 ) ) GLOBAL_UNIT_ASSIGNED_CONTEXT ( ( #138, #8, #353 ) ) REPRESENTATION_CONTEXT ( 'NONE', 'WORKASPACE' ) );
#73 = PRESENTATION_LAYER_ASSIGNMENT (  '', '', ( #350 ) ) ;
#74 = FACE_OUTER_BOUND ( 'NONE', #344, .T. ) ;
#75 = VERTEX_POINT ( 'NONE', #172 ) ;
#76 = AXIS2_PLACEMENT_3D ( 'NONE', #234, #236, #61 ) ;
#77 = ORIENTED_EDGE ( 'NONE', *, *, #128, .F. ) ;
#78 = COLOUR_RGB ( '',1.000000000000000000, 0.000000000000000000, 0.000000000000000000 ) ;
#79 = FACE_OUTER_BOUND ( 'NONE', #132, .T. ) ;
#80 = DIMENSIONAL_EXPONENTS ( 1.000000000000000000, 0.000000000000000000, 0.000000000000000000, 0.000000000000000000, 0.000000000000000000, 0.000000000000000000, 0.000000000000000000 ) ;
#81 = SURFACE_STYLE_FILL_AREA ( #345 ) ;
#82 = ORIENTED_EDGE ( 'NONE', *, *, #19, .T. ) ;
#83 = DIMENSIONAL_EXPONENTS ( 1.000000000000000000, 0.000000000000000000, 0.000000000000000000, 0.000000000000000000, 0.000000000000000000, 0.000000000000000000, 0.000000000000000000 ) ;
#84 = AXIS2_PLACEMENT_3D ( 'NONE', #292, #30, #55 ) ;
#85 = MECHANICAL_DESIGN_GEOMETRIC_PRESENTATION_REPRESENTATION (  '', ( #114 ), #264 ) ;
#86 =( CONVERSION_BASED_UNIT ( 'INCH', #351 ) LENGTH_UNIT ( ) NAMED_UNIT ( #104 ) );
#87 = FILL_AREA_STYLE ('',( #141 ) ) ;
#88 = FILL_AREA_STYLE ('',( #269 ) ) ;
#89 = EDGE_CURVE ( 'NONE', #75, #142, #303, .T. ) ;
#90 = CLOSED_SHELL ( 'NONE', ( #261, #48, #37, #324, #372 ) ) ;
#91 = STYLED_ITEM ( 'NONE', ( #118 ), #324 ) ;
#92 = DIRECTION ( 'NONE',  ( 0.000000000000000000, 0.000000000000000000, -1.000000000000000000 ) ) ;
#93 = LINE ( 'NONE', #127, #274 ) ;
#94 = FACE_OUTER_BOUND ( 'NONE', #308, .T. ) ;
#95 = PRESENTATION_LAYER_ASSIGNMENT (  '', '', ( #286 ) ) ;
#96 = FACE_OUTER_BOUND ( 'NONE', #348, .T. ) ;
#97 = SURFACE_STYLE_USAGE ( .BOTH. , #147 ) ;
#98 = CARTESIAN_POINT ( 'NONE',  ( -7.654042494670957545E-18, 0.000000000000000000, 0.000000000000000000 ) ) ;
#99 = DIRECTION ( 'NONE',  ( -1.224646799147352961E-16, 1.000000000000000000, -0.000000000000000000 ) ) ;
#100 = DIRECTION ( 'NONE',  ( -0.000000000000000000, -1.000000000000000000, -0.000000000000000000 ) ) ;
#101 = ADVANCED_FACE ( 'NONE', ( #57 ), #174, .T. ) ;
#102 = FACE_OUTER_BOUND ( 'NONE', #320, .T. ) ;
#103 = EDGE_LOOP ( 'NONE', ( #43, #285, #109, #284 ) ) ;
#104 = DIMENSIONAL_EXPONENTS ( 1.000000000000000000, 0.000000000000000000, 0.000000000000000000, 0.000000000000000000, 0.000000000000000000, 0.000000000000000000, 0.000000000000000000 ) ;
#105 = STYLED_ITEM ( 'NONE', ( #276 ), #199 ) ;
#106 = PRESENTATION_LAYER_ASSIGNMENT (  '', '', ( #91 ) ) ;
#107 = ORIENTED_EDGE ( 'NONE', *, *, #309, .T. ) ;
#108 = FACE_OUTER_BOUND ( 'NONE', #103, .T. ) ;
#109 = ORIENTED_EDGE ( 'NONE', *, *, #89, .F. ) ;
#110 = PRESENTATION_STYLE_ASSIGNMENT (( #260 ) ) ;
#111 = VERTEX_POINT ( 'NONE', #70 ) ;
#112 = DIMENSIONAL_EXPONENTS ( 1.000000000000000000, 0.000000000000000000, 0.000000000000000000, 0.000000000000000000, 0.000000000000000000, 0.000000000000000000, 0.000000000000000000 ) ;
#113 = FACE_OUTER_BOUND ( 'NONE', #168, .T. ) ;
#114 = STYLED_ITEM ( 'NONE', ( #250 ), #261 ) ;
#115 = FILL_AREA_STYLE ('',( #14 ) ) ;
#116 = PRODUCT_DEFINITION_SHAPE ( 'NONE', 'NONE',  #53 ) ;
#117 = LENGTH_MEASURE_WITH_UNIT ( LENGTH_MEASURE( 0.02539999999999999897 ), #262 );
#118 = PRESENTATION_STYLE_ASSIGNMENT (( #10 ) ) ;
#119 = UNCERTAINTY_MEASURE_WITH_UNIT (LENGTH_MEASURE( 1.000000000000000082E-05 ), #203, 'distance_accuracy_value', 'NONE');
#120 = SPHERICAL_SURFACE ( 'NONE', #336, 0.1250000000000000000 ) ;
#121 = DIRECTION ( 'NONE',  ( -1.224646799147352961E-16, 1.000000000000000000, -0.000000000000000000 ) ) ;
#122 = CARTESIAN_POINT ( 'NONE',  ( 0.000000000000000000, 0.000000000000000000, -0.1249999999999999029 ) ) ;
#123 = PRESENTATION_LAYER_ASSIGNMENT (  '', '', ( #246 ) ) ;
#124 = PRESENTATION_STYLE_ASSIGNMENT (( #97 ) ) ;
#125 = CIRCLE ( 'NONE', #176, 0.1249999999999999029 ) ;
#126 = DIRECTION ( 'NONE',  ( 1.000000000000000000, 0.000000000000000000, -1.224646799147353207E-16 ) ) ;
#127 = CARTESIAN_POINT ( 'NONE',  ( -0.1249999999999998751, 4.000000000000000000, 0.000000000000000000 ) ) ;
#128 = EDGE_CURVE ( 'NONE', #50, #142, #231, .T. ) ;
#129 = APPLICATION_PROTOCOL_DEFINITION ( 'draft international standard', 'automotive_design', 1998, #181 ) ;
#130 = CIRCLE ( 'NONE', #39, 0.1250000000000000000 ) ;
#131 = DIRECTION ( 'NONE',  ( -1.224646799147352961E-16, 1.000000000000000000, 0.000000000000000000 ) ) ;
#132 = EDGE_LOOP ( 'NONE', ( #149, #25 ) ) ;
#133 = CARTESIAN_POINT ( 'NONE',  ( 0.000000000000000000, 0.1250000000000000000, 0.000000000000000000 ) ) ;
#134 = SHAPE_DEFINITION_REPRESENTATION ( #116, #357 ) ;
#135 = FILL_AREA_STYLE ('',( #68 ) ) ;
#136 = ORIENTED_EDGE ( 'NONE', *, *, #279, .F. ) ;
#137 = LENGTH_MEASURE_WITH_UNIT ( LENGTH_MEASURE( 0.02539999999999999897 ), #51 );
#138 =( CONVERSION_BASED_UNIT ( 'INCH', #266 ) LENGTH_UNIT ( ) NAMED_UNIT ( #112 ) );
#139 = DIRECTION ( 'NONE',  ( -1.000000000000000000, 0.000000000000000000, 0.000000000000000000 ) ) ;
#140 = VECTOR ( 'NONE', #332, 39.37007874015748143 ) ;
#141 = FILL_AREA_STYLE_COLOUR ( '', #65 ) ;
#142 = VERTEX_POINT ( 'NONE', #98 ) ;
#143 = CARTESIAN_POINT ( 'NONE',  ( -1.224646799147352714E-16, 4.000000000000000000, 0.000000000000000000 ) ) ;
#144 = DIRECTION ( 'NONE',  ( -0.000000000000000000, -1.000000000000000000, -0.000000000000000000 ) ) ;
#145 = DIRECTION ( 'NONE',  ( -0.000000000000000000, -1.000000000000000000, -0.000000000000000000 ) ) ;
#146 = DIRECTION ( 'NONE',  ( 1.224646799147353207E-16, -0.000000000000000000, 1.000000000000000000 ) ) ;
#147 = SURFACE_SIDE_STYLE ('',( #38 ) ) ;
#148 = DIRECTION ( 'NONE',  ( -1.000000000000000000, 0.000000000000000000, 0.000000000000000000 ) ) ;
#149 = ORIENTED_EDGE ( 'NONE', *, *, #66, .F. ) ;
#150 = CIRCLE ( 'NONE', #288, 0.1249999999999996253 ) ;
#151 = MECHANICAL_DESIGN_GEOMETRIC_PRESENTATION_REPRESENTATION (  '', ( #350 ), #337 ) ;
#152 = CARTESIAN_POINT ( 'NONE',  ( 0.1249999999999997641, 1.750000000000000000, 1.530808498934189352E-17 ) ) ;
#153 = DIRECTION ( 'NONE',  ( 1.224646799147352961E-16, -1.000000000000000000, 0.000000000000000000 ) ) ;
#154 = VERTEX_POINT ( 'NONE', #152 ) ;
#155 = PRESENTATION_LAYER_ASSIGNMENT (  '', '', ( #114 ) ) ;
#156 = CYLINDRICAL_SURFACE ( 'NONE', #45, 0.1249999999999997641 ) ;
#157 = DIMENSIONAL_EXPONENTS ( 1.000000000000000000, 0.000000000000000000, 0.000000000000000000, 0.000000000000000000, 0.000000000000000000, 0.000000000000000000, 0.000000000000000000 ) ;
#158 = ORIENTED_EDGE ( 'NONE', *, *, #213, .F. ) ;
#159 = SPHERICAL_SURFACE ( 'NONE', #232, 0.1250000000000000000 ) ;
#160 = ORIENTED_EDGE ( 'NONE', *, *, #183, .T. ) ;
#161 = ORIENTED_EDGE ( 'NONE', *, *, #313, .F. ) ;
#162 = DIRECTION ( 'NONE',  ( -1.224646799147352961E-16, 1.000000000000000000, -0.000000000000000000 ) ) ;
#163 = VERTEX_POINT ( 'NONE', #273 ) ;
#164 = CLOSED_SHELL ( 'NONE', ( #240, #216, #101, #190 ) ) ;
#165 = DIMENSIONAL_EXPONENTS ( 1.000000000000000000, 0.000000000000000000, 0.000000000000000000, 0.000000000000000000, 0.000000000000000000, 0.000000000000000000, 0.000000000000000000 ) ;
#166 = VECTOR ( 'NONE', #220, 39.37007874015748143 ) ;
#167 =( GEOMETRIC_REPRESENTATION_CONTEXT ( 3 ) GLOBAL_UNCERTAINTY_ASSIGNED_CONTEXT ( ( #11 ) ) GLOBAL_UNIT_ASSIGNED_CONTEXT ( ( #86, #54, #328 ) ) REPRESENTATION_CONTEXT ( 'NONE', 'WORKASPACE' ) );
#168 = EDGE_LOOP ( 'NONE', ( #158, #194, #12, #136, #287 ) ) ;
#169 = CYLINDRICAL_SURFACE ( 'NONE', #247, 0.1249999999999999029 ) ;
#170 = DIRECTION ( 'NONE',  ( 0.000000000000000000, 0.000000000000000000, -1.000000000000000000 ) ) ;
#171 = CARTESIAN_POINT ( 'NONE',  ( 0.000000000000000000, 0.000000000000000000, 0.000000000000000000 ) ) ;
#172 = CARTESIAN_POINT ( 'NONE',  ( 0.1250000000000000000, 0.1250000000000000000, 0.000000000000000000 ) ) ;
#173 = EDGE_CURVE ( 'NONE', #244, #258, #93, .T. ) ;
#174 = CYLINDRICAL_SURFACE ( 'NONE', #335, 0.1249999999999997641 ) ;
#175 = AXIS2_PLACEMENT_3D ( 'NONE', #323, #92, #139 ) ;
#176 = AXIS2_PLACEMENT_3D ( 'NONE', #143, #360, #265 ) ;
#177 = FILL_AREA_STYLE ('',( #327 ) ) ;
#178 = SURFACE_STYLE_USAGE ( .BOTH. , #362 ) ;
#179 = CARTESIAN_POINT ( 'NONE',  ( 0.000000000000000000, 0.1250000000000000000, 0.000000000000000000 ) ) ;
#180 = UNCERTAINTY_MEASURE_WITH_UNIT (LENGTH_MEASURE( 1.000000000000000082E-05 ), #138, 'distance_accuracy_value', 'NONE');
#181 = APPLICATION_CONTEXT ( 'automotive_design' ) ;
#182 = FILL_AREA_STYLE ('',( #307 ) ) ;
#183 = EDGE_CURVE ( 'NONE', #291, #75, #130, .T. ) ;
#184 = MECHANICAL_DESIGN_GEOMETRIC_PRESENTATION_REPRESENTATION (  '', ( #210 ), #167 ) ;
#185 = DIRECTION ( 'NONE',  ( 1.000000000000000000, 1.224646799147352961E-16, 0.000000000000000000 ) ) ;
#186 = DIRECTION ( 'NONE',  ( 0.000000000000000000, 0.000000000000000000, 1.000000000000000000 ) ) ;
#187 = MECHANICAL_DESIGN_GEOMETRIC_PRESENTATION_REPRESENTATION (  '', ( #286 ), #72 ) ;
#188 =( NAMED_UNIT ( * ) SI_UNIT ( $, .STERADIAN. ) SOLID_ANGLE_UNIT ( ) );
#189 = PLANE ( 'NONE',  #314 ) ;
#190 = ADVANCED_FACE ( 'NONE', ( #94 ), #189, .F. ) ;
#191 =( NAMED_UNIT ( * ) SI_UNIT ( $, .STERADIAN. ) SOLID_ANGLE_UNIT ( ) );
#192 = PLANE ( 'NONE',  #214 ) ;
#193 = CIRCLE ( 'NONE', #1, 0.1250000000000000000 ) ;
#194 = ORIENTED_EDGE ( 'NONE', *, *, #297, .T. ) ;
#195 = CARTESIAN_POINT ( 'NONE',  ( -1.224646799147352714E-16, 4.000000000000000000, 0.000000000000000000 ) ) ;
#196 = EDGE_CURVE ( 'NONE', #4, #291, #306, .T. ) ;
#197 = DIRECTION ( 'NONE',  ( 1.000000000000000000, 0.000000000000000000, 0.000000000000000000 ) ) ;
#198 = SURFACE_SIDE_STYLE ('',( #81 ) ) ;
#199 = MANIFOLD_SOLID_BREP ( 'Revolve - Cutting Edge', #90 ) ;
#200 = ORIENTED_EDGE ( 'NONE', *, *, #279, .T. ) ;
#201 = DIRECTION ( 'NONE',  ( -0.000000000000000000, -1.000000000000000000, -0.000000000000000000 ) ) ;
#202 = MECHANICAL_DESIGN_GEOMETRIC_PRESENTATION_REPRESENTATION (  '', ( #246 ), #36 ) ;
#203 =( CONVERSION_BASED_UNIT ( 'INCH', #243 ) LENGTH_UNIT ( ) NAMED_UNIT ( #165 ) );
#204 = PRODUCT ( '84759', '84759', '', ( #2 ) ) ;
#205 = DIRECTION ( 'NONE',  ( -0.000000000000000000, -1.000000000000000000, -0.000000000000000000 ) ) ;
#206 = CARTESIAN_POINT ( 'NONE',  ( 0.000000000000000000, 0.000000000000000000, 0.000000000000000000 ) ) ;
#207 = DIRECTION ( 'NONE',  ( 0.000000000000000000, 0.000000000000000000, -1.000000000000000000 ) ) ;
#208 = SURFACE_STYLE_FILL_AREA ( #88 ) ;
#209 = CIRCLE ( 'NONE', #84, 0.1249999999999996253 ) ;
#210 = STYLED_ITEM ( 'NONE', ( #110 ), #330 ) ;
#211 = CARTESIAN_POINT ( 'NONE',  ( -1.224646799147352714E-16, 4.000000000000000000, 0.000000000000000000 ) ) ;
#212 = FACE_OUTER_BOUND ( 'NONE', #319, .T. ) ;
#213 = EDGE_CURVE ( 'NONE', #163, #363, #334, .T. ) ;
#214 = AXIS2_PLACEMENT_3D ( 'NONE', #341, #131, #256 ) ;
#215 = CARTESIAN_POINT ( 'NONE',  ( -1.530808498934191509E-17, 0.1250000000000000000, 0.000000000000000000 ) ) ;
#216 = ADVANCED_FACE ( 'NONE', ( #79 ), #192, .F. ) ;
#217 =( CONVERSION_BASED_UNIT ( 'INCH', #368 ) LENGTH_UNIT ( ) NAMED_UNIT ( #157 ) );
#218 = DIRECTION ( 'NONE',  ( -1.224646799147352961E-16, 1.000000000000000000, -0.000000000000000000 ) ) ;
#219 =( CONVERSION_BASED_UNIT ( 'INCH', #69 ) LENGTH_UNIT ( ) NAMED_UNIT ( #290 ) );
#220 = DIRECTION ( 'NONE',  ( -0.000000000000000000, -1.000000000000000000, -0.000000000000000000 ) ) ;
#221 = DIRECTION ( 'NONE',  ( -1.000000000000000000, 0.000000000000000000, 0.000000000000000000 ) ) ;
#222 = CARTESIAN_POINT ( 'NONE',  ( -1.530808498934191509E-17, 0.1250000000000000000, 0.000000000000000000 ) ) ;
#223 = AXIS2_PLACEMENT_3D ( 'NONE', #206, #144, #170 ) ;
#224 = SURFACE_STYLE_FILL_AREA ( #135 ) ;
#225 = AXIS2_PLACEMENT_3D ( 'NONE', #60, #145, #305 ) ;
#226 = FILL_AREA_STYLE_COLOUR ( '', #263 ) ;
#227 =( LENGTH_UNIT ( ) NAMED_UNIT ( * ) SI_UNIT ( $, .METRE. ) );
#228 = UNCERTAINTY_MEASURE_WITH_UNIT (LENGTH_MEASURE( 1.000000000000000082E-05 ), #253, 'distance_accuracy_value', 'NONE');
#229 = ORIENTED_EDGE ( 'NONE', *, *, #304, .T. ) ;
#230 = SURFACE_SIDE_STYLE ('',( #29 ) ) ;
#231 = CIRCLE ( 'NONE', #58, 0.1250000000000000000 ) ;
#232 = AXIS2_PLACEMENT_3D ( 'NONE', #222, #316, #281 ) ;
#233 = CARTESIAN_POINT ( 'NONE',  ( 0.000000000000000000, 1.750000000000000000, 0.000000000000000000 ) ) ;
#234 = CARTESIAN_POINT ( 'NONE',  ( 0.000000000000000000, 1.750000000000000000, 0.000000000000000000 ) ) ;
#235 =( CONVERSION_BASED_UNIT ( 'INCH', #117 ) LENGTH_UNIT ( ) NAMED_UNIT ( #80 ) );
#236 = DIRECTION ( 'NONE',  ( 0.000000000000000000, 1.000000000000000000, 0.000000000000000000 ) ) ;
#237 = DIRECTION ( 'NONE',  ( -0.000000000000000000, -1.000000000000000000, -0.000000000000000000 ) ) ;
#238 = CARTESIAN_POINT ( 'NONE',  ( -0.1250000000000000000, 0.1250000000000000000, 1.530808498934191201E-17 ) ) ;
#239 = ORIENTED_EDGE ( 'NONE', *, *, #297, .F. ) ;
#240 = ADVANCED_FACE ( 'NONE', ( #102 ), #156, .T. ) ;
#241 = CIRCLE ( 'NONE', #225, 0.1250000000000000000 ) ;
#242 = CARTESIAN_POINT ( 'NONE',  ( -1.530808498934191509E-17, 0.1250000000000000000, 0.000000000000000000 ) ) ;
#243 = LENGTH_MEASURE_WITH_UNIT ( LENGTH_MEASURE( 0.02539999999999999897 ), #35 );
#244 = VERTEX_POINT ( 'NONE', #3 ) ;
#245 =( NAMED_UNIT ( * ) PLANE_ANGLE_UNIT ( ) SI_UNIT ( $, .RADIAN. ) );
#246 = STYLED_ITEM ( 'NONE', ( #301 ), #37 ) ;
#247 = AXIS2_PLACEMENT_3D ( 'NONE', #171, #201, #207 ) ;
#248 = CARTESIAN_POINT ( 'NONE',  ( 0.000000000000000000, 0.1250000000000000000, 0.000000000000000000 ) ) ;
#249 = COLOUR_RGB ( '',1.000000000000000000, 0.000000000000000000, 0.000000000000000000 ) ;
#250 = PRESENTATION_STYLE_ASSIGNMENT (( #318 ) ) ;
#251 = CARTESIAN_POINT ( 'NONE',  ( 1.530808498934191817E-16, 1.750000000000000000, 0.000000000000000000 ) ) ;
#252 = EDGE_LOOP ( 'NONE', ( #5, #82, #254, #317 ) ) ;
#253 =( CONVERSION_BASED_UNIT ( 'INCH', #137 ) LENGTH_UNIT ( ) NAMED_UNIT ( #83 ) );
#254 = ORIENTED_EDGE ( 'NONE', *, *, #173, .T. ) ;
#255 = ORIENTED_EDGE ( 'NONE', *, *, #183, .F. ) ;
#256 = DIRECTION ( 'NONE',  ( -1.000000000000000000, -1.224646799147352961E-16, 0.000000000000000000 ) ) ;
#257 = CIRCLE ( 'NONE', #289, 0.1249999999999999029 ) ;
#258 = VERTEX_POINT ( 'NONE', #338 ) ;
#259 = DIMENSIONAL_EXPONENTS ( 1.000000000000000000, 0.000000000000000000, 0.000000000000000000, 0.000000000000000000, 0.000000000000000000, 0.000000000000000000, 0.000000000000000000 ) ;
#260 = SURFACE_STYLE_USAGE ( .BOTH. , #52 ) ;
#261 = ADVANCED_FACE ( 'NONE', ( #108 ), #159, .T. ) ;
#262 =( LENGTH_UNIT ( ) NAMED_UNIT ( * ) SI_UNIT ( $, .METRE. ) );
#263 = COLOUR_RGB ( '',1.000000000000000000, 0.000000000000000000, 0.000000000000000000 ) ;
#264 =( GEOMETRIC_REPRESENTATION_CONTEXT ( 3 ) GLOBAL_UNCERTAINTY_ASSIGNED_CONTEXT ( ( #228 ) ) GLOBAL_UNIT_ASSIGNED_CONTEXT ( ( #253, #42, #44 ) ) REPRESENTATION_CONTEXT ( 'NONE', 'WORKASPACE' ) );
#265 = DIRECTION ( 'NONE',  ( -1.000000000000000000, 0.000000000000000000, 0.000000000000000000 ) ) ;
#266 = LENGTH_MEASURE_WITH_UNIT ( LENGTH_MEASURE( 0.02539999999999999897 ), #63 );
#267 = DIRECTION ( 'NONE',  ( 0.000000000000000000, 0.000000000000000000, -1.000000000000000000 ) ) ;
#268 = EDGE_CURVE ( 'NONE', #363, #50, #343, .T. ) ;
#269 = FILL_AREA_STYLE_COLOUR ( '', #370 ) ;
#270 =( NAMED_UNIT ( * ) PLANE_ANGLE_UNIT ( ) SI_UNIT ( $, .RADIAN. ) );
#271 = AXIS2_PLACEMENT_3D ( 'NONE', #67, #186, #197 ) ;
#272 =( LENGTH_UNIT ( ) NAMED_UNIT ( * ) SI_UNIT ( $, .METRE. ) );
#273 = CARTESIAN_POINT ( 'NONE',  ( 1.530808498934189352E-17, 1.750000000000000000, 0.1249999999999997780 ) ) ;
#274 = VECTOR ( 'NONE', #218, 39.37007874015748143 ) ;
#275 = CIRCLE ( 'NONE', #315, 0.1249999999999997780 ) ;
#276 = PRESENTATION_STYLE_ASSIGNMENT (( #49 ) ) ;
#277 =( GEOMETRIC_REPRESENTATION_CONTEXT ( 3 ) GLOBAL_UNCERTAINTY_ASSIGNED_CONTEXT ( ( #299 ) ) GLOBAL_UNIT_ASSIGNED_CONTEXT ( ( #339, #283, #191 ) ) REPRESENTATION_CONTEXT ( 'NONE', 'WORKASPACE' ) );
#278 = AXIS2_PLACEMENT_3D ( 'NONE', #233, #7, #34 ) ;
#279 = EDGE_CURVE ( 'NONE', #50, #291, #193, .T. ) ;
#280 = ORIENTED_EDGE ( 'NONE', *, *, #173, .F. ) ;
#281 = DIRECTION ( 'NONE',  ( 1.000000000000000000, 0.000000000000000000, 0.000000000000000000 ) ) ;
#282 = ORIENTED_EDGE ( 'NONE', *, *, #196, .F. ) ;
#283 =( NAMED_UNIT ( * ) PLANE_ANGLE_UNIT ( ) SI_UNIT ( $, .RADIAN. ) );
#284 = ORIENTED_EDGE ( 'NONE', *, *, #347, .T. ) ;
#285 = ORIENTED_EDGE ( 'NONE', *, *, #128, .T. ) ;
#286 = STYLED_ITEM ( 'NONE', ( #28 ), #48 ) ;
#287 = ORIENTED_EDGE ( 'NONE', *, *, #268, .F. ) ;
#288 = AXIS2_PLACEMENT_3D ( 'NONE', #251, #373, #221 ) ;
#289 = AXIS2_PLACEMENT_3D ( 'NONE', #211, #27, #322 ) ;
#290 = DIMENSIONAL_EXPONENTS ( 1.000000000000000000, 0.000000000000000000, 0.000000000000000000, 0.000000000000000000, 0.000000000000000000, 0.000000000000000000, 0.000000000000000000 ) ;
#291 = VERTEX_POINT ( 'NONE', #31 ) ;
#292 = CARTESIAN_POINT ( 'NONE',  ( 1.530808498934191817E-16, 1.750000000000000000, 0.000000000000000000 ) ) ;
#293 = UNCERTAINTY_MEASURE_WITH_UNIT (LENGTH_MEASURE( 1.000000000000000082E-05 ), #219, 'distance_accuracy_value', 'NONE');
#294 = SURFACE_STYLE_USAGE ( .BOTH. , #356 ) ;
#295 = DIRECTION ( 'NONE',  ( -0.000000000000000000, -1.000000000000000000, -0.000000000000000000 ) ) ;
#296 = CARTESIAN_POINT ( 'NONE',  ( -1.224646799147352714E-16, 4.000000000000000000, 0.000000000000000000 ) ) ;
#297 = EDGE_CURVE ( 'NONE', #163, #4, #275, .T. ) ;
#298 = DIRECTION ( 'NONE',  ( 0.000000000000000000, 0.000000000000000000, -1.000000000000000000 ) ) ;
#299 = UNCERTAINTY_MEASURE_WITH_UNIT (LENGTH_MEASURE( 1.000000000000000082E-05 ), #339, 'distance_accuracy_value', 'NONE');
#300 = SURFACE_STYLE_FILL_AREA ( #177 ) ;
#301 = PRESENTATION_STYLE_ASSIGNMENT (( #178 ) ) ;
#302 = CARTESIAN_POINT ( 'NONE',  ( 1.530808498934191509E-17, 0.1250000000000000000, 0.1250000000000000278 ) ) ;
#303 = CIRCLE ( 'NONE', #175, 0.1250000000000000000 ) ;
#304 = EDGE_CURVE ( 'NONE', #258, #111, #125, .T. ) ;
#305 = DIRECTION ( 'NONE',  ( 0.000000000000000000, 0.000000000000000000, -1.000000000000000000 ) ) ;
#306 = LINE ( 'NONE', #122, #140 ) ;
#307 = FILL_AREA_STYLE_COLOUR ( '', #78 ) ;
#308 = EDGE_LOOP ( 'NONE', ( #229, #107 ) ) ;
#309 = EDGE_CURVE ( 'NONE', #111, #258, #257, .T. ) ;
#310 = DIRECTION ( 'NONE',  ( -1.000000000000000000, 0.000000000000000000, 0.000000000000000000 ) ) ;
#311 = ORIENTED_EDGE ( 'NONE', *, *, #347, .F. ) ;
#312 =( LENGTH_UNIT ( ) NAMED_UNIT ( * ) SI_UNIT ( $, .METRE. ) );
#313 = EDGE_CURVE ( 'NONE', #4, #163, #26, .T. ) ;
#314 = AXIS2_PLACEMENT_3D ( 'NONE', #41, #153, #185 ) ;
#315 = AXIS2_PLACEMENT_3D ( 'NONE', #32, #237, #298 ) ;
#316 = DIRECTION ( 'NONE',  ( 0.000000000000000000, 0.000000000000000000, 1.000000000000000000 ) ) ;
#317 = ORIENTED_EDGE ( 'NONE', *, *, #309, .F. ) ;
#318 = SURFACE_STYLE_USAGE ( .BOTH. , #198 ) ;
#319 = EDGE_LOOP ( 'NONE', ( #346, #47, #311, #255, #282 ) ) ;
#320 = EDGE_LOOP ( 'NONE', ( #342, #340, #9, #280 ) ) ;
#321 = PLANE ( 'NONE',  #76 ) ;
#322 = DIRECTION ( 'NONE',  ( -1.000000000000000000, 0.000000000000000000, 0.000000000000000000 ) ) ;
#323 = CARTESIAN_POINT ( 'NONE',  ( -1.530808498934191509E-17, 0.1250000000000000000, 0.000000000000000000 ) ) ;
#324 = ADVANCED_FACE ( 'NONE', ( #113 ), #169, .T. ) ;
#325 = APPLICATION_CONTEXT ( 'automotive_design' ) ;
#326 =( NAMED_UNIT ( * ) PLANE_ANGLE_UNIT ( ) SI_UNIT ( $, .RADIAN. ) );
#327 = FILL_AREA_STYLE_COLOUR ( '', #17 ) ;
#328 =( NAMED_UNIT ( * ) SI_UNIT ( $, .STERADIAN. ) SOLID_ANGLE_UNIT ( ) );
#329 = DIRECTION ( 'NONE',  ( 1.000000000000000000, 0.000000000000000000, 0.000000000000000000 ) ) ;
#330 = MANIFOLD_SOLID_BREP ( 'Revolve - Tool Body (Straight Shanked)', #164 ) ;
#331 = PRESENTATION_LAYER_ASSIGNMENT (  '', '', ( #210 ) ) ;
#332 = DIRECTION ( 'NONE',  ( -0.000000000000000000, -1.000000000000000000, -0.000000000000000000 ) ) ;
#333 =( LENGTH_UNIT ( ) NAMED_UNIT ( * ) SI_UNIT ( $, .METRE. ) );
#334 = LINE ( 'NONE', #24, #166 ) ;
#335 = AXIS2_PLACEMENT_3D ( 'NONE', #296, #121, #148 ) ;
#336 = AXIS2_PLACEMENT_3D ( 'NONE', #242, #364, #329 ) ;
#337 =( GEOMETRIC_REPRESENTATION_CONTEXT ( 3 ) GLOBAL_UNCERTAINTY_ASSIGNED_CONTEXT ( ( #352 ) ) GLOBAL_UNIT_ASSIGNED_CONTEXT ( ( #217, #270, #15 ) ) REPRESENTATION_CONTEXT ( 'NONE', 'WORKASPACE' ) );
#338 = CARTESIAN_POINT ( 'NONE',  ( -0.1250000000000000278, 4.000000000000000000, 0.000000000000000000 ) ) ;
#339 =( CONVERSION_BASED_UNIT ( 'INCH', #20 ) LENGTH_UNIT ( ) NAMED_UNIT ( #259 ) );
#340 = ORIENTED_EDGE ( 'NONE', *, *, #355, .T. ) ;
#341 = CARTESIAN_POINT ( 'NONE',  ( 1.530808498934191817E-16, 1.750000000000000000, 0.000000000000000000 ) ) ;
#342 = ORIENTED_EDGE ( 'NONE', *, *, #66, .T. ) ;
#343 = CIRCLE ( 'NONE', #40, 0.1250000000000000000 ) ;
#344 = EDGE_LOOP ( 'NONE', ( #161, #239 ) ) ;
#345 = FILL_AREA_STYLE ('',( #226 ) ) ;
#346 = ORIENTED_EDGE ( 'NONE', *, *, #313, .T. ) ;
#347 = EDGE_CURVE ( 'NONE', #75, #363, #241, .T. ) ;
#348 = EDGE_LOOP ( 'NONE', ( #77, #200, #160, #16 ) ) ;
#349 = COLOUR_RGB ( '',0.7921568627450980005, 0.8196078431372548767, 0.9333333333333333481 ) ;
#350 = STYLED_ITEM ( 'NONE', ( #124 ), #372 ) ;
#351 = LENGTH_MEASURE_WITH_UNIT ( LENGTH_MEASURE( 0.02539999999999999897 ), #227 );
#352 = UNCERTAINTY_MEASURE_WITH_UNIT (LENGTH_MEASURE( 1.000000000000000082E-05 ), #217, 'distance_accuracy_value', 'NONE');
#353 =( NAMED_UNIT ( * ) SI_UNIT ( $, .STERADIAN. ) SOLID_ANGLE_UNIT ( ) );
#354 = DIRECTION ( 'NONE',  ( 0.000000000000000000, 0.000000000000000000, -1.000000000000000000 ) ) ;
#355 = EDGE_CURVE ( 'NONE', #154, #111, #366, .T. ) ;
#356 = SURFACE_SIDE_STYLE ('',( #33 ) ) ;
#357 = ADVANCED_BREP_SHAPE_REPRESENTATION ( '84759', ( #199, #330, #271 ), #13 ) ;
#358 = UNCERTAINTY_MEASURE_WITH_UNIT (LENGTH_MEASURE( 1.000000000000000082E-05 ), #235, 'distance_accuracy_value', 'NONE');
#359 =( NAMED_UNIT ( * ) SI_UNIT ( $, .STERADIAN. ) SOLID_ANGLE_UNIT ( ) );
#360 = DIRECTION ( 'NONE',  ( -1.224646799147352961E-16, 1.000000000000000000, -0.000000000000000000 ) ) ;
#361 = MECHANICAL_DESIGN_GEOMETRIC_PRESENTATION_REPRESENTATION (  '', ( #105 ), #277 ) ;
#362 = SURFACE_SIDE_STYLE ('',( #208 ) ) ;
#363 = VERTEX_POINT ( 'NONE', #302 ) ;
#364 = DIRECTION ( 'NONE',  ( 0.000000000000000000, 0.000000000000000000, 1.000000000000000000 ) ) ;
#365 = PRODUCT_DEFINITION_CONTEXT ( 'detailed design', #181, 'design' ) ;
#366 = LINE ( 'NONE', #369, #22 ) ;
#367 =( GEOMETRIC_REPRESENTATION_CONTEXT ( 3 ) GLOBAL_UNCERTAINTY_ASSIGNED_CONTEXT ( ( #358 ) ) GLOBAL_UNIT_ASSIGNED_CONTEXT ( ( #235, #56, #62 ) ) REPRESENTATION_CONTEXT ( 'NONE', 'WORKASPACE' ) );
#368 = LENGTH_MEASURE_WITH_UNIT ( LENGTH_MEASURE( 0.02539999999999999897 ), #272 );
#369 = CARTESIAN_POINT ( 'NONE',  ( 0.1249999999999996392, 4.000000000000000000, 1.530808498934188736E-17 ) ) ;
#370 = COLOUR_RGB ( '',1.000000000000000000, 0.000000000000000000, 0.000000000000000000 ) ;
#371 = MECHANICAL_DESIGN_GEOMETRIC_PRESENTATION_REPRESENTATION (  '', ( #91 ), #367 ) ;
#372 = ADVANCED_FACE ( 'NONE', ( #96 ), #120, .T. ) ;
#373 = DIRECTION ( 'NONE',  ( -1.224646799147352961E-16, 1.000000000000000000, -0.000000000000000000 ) ) ;
ENDSEC;
END-ISO-10303-21;
