ISO-10303-21;
HEADER;
FILE_DESCRIPTION (( 'STEP AP214' ),
    '1' );
FILE_NAME ('Micro_AECM-0101-4X.STEP',
    '2022-03-15T14:54:30',
    ( '' ),
    ( '' ),
    'SwSTEP 2.0',
    'SolidWorks 2022',
    '' );
FILE_SCHEMA (( 'AUTOMOTIVE_DESIGN' ));
ENDSEC;

DATA;
#1 = DIRECTION ( 'NONE',  ( 0.000000000000000000, 0.000000000000000000, 1.000000000000000000 ) ) ;
#2 = TOROIDAL_SURFACE ( 'NONE', #26, 0.01572831500000001007, 0.003937000000000000395 ) ;
#3 = ORIENTED_EDGE ( 'NONE', *, *, #129, .F. ) ;
#4 = FACE_OUTER_BOUND ( 'NONE', #134, .T. ) ;
#5 = PRESENTATION_LAYER_ASSIGNMENT (  '', '', ( #163 ) ) ;
#6 = ORIENTED_EDGE ( 'NONE', *, *, #252, .T. ) ;
#7 = VERTEX_POINT ( 'NONE', #87 ) ;
#8 = EDGE_LOOP ( 'NONE', ( #139, #260, #28, #284 ) ) ;
#9 = FACE_OUTER_BOUND ( 'NONE', #58, .T. ) ;
#10 = VERTEX_POINT ( 'NONE', #202 ) ;
#11 = CARTESIAN_POINT ( 'NONE',  ( -0.01966531499999999225, 2.408306506897445027E-18, 0.1574800000000000366 ) ) ;
#12 = ORIENTED_EDGE ( 'NONE', *, *, #264, .F. ) ;
#13 = LINE ( 'NONE', #11, #190 ) ;
#14 = DIRECTION ( 'NONE',  ( 0.000000000000000000, 0.000000000000000000, -1.000000000000000000 ) ) ;
#15 = DIRECTION ( 'NONE',  ( 1.000000000000000000, 0.000000000000000000, 0.000000000000000000 ) ) ;
#16 = EDGE_CURVE ( 'NONE', #7, #10, #304, .T. ) ;
#17 = AXIS2_PLACEMENT_3D ( 'NONE', #21, #199, #275 ) ;
#18 = VECTOR ( 'NONE', #268, 39.37007874015748143 ) ;
#19 = DIRECTION ( 'NONE',  ( -0.000000000000000000, -0.000000000000000000, -1.000000000000000000 ) ) ;
#20 = DIRECTION ( 'NONE',  ( 0.000000000000000000, 0.000000000000000000, 1.000000000000000000 ) ) ;
#21 = CARTESIAN_POINT ( 'NONE',  ( 1.928573779297252010E-17, 0.000000000000000000, 0.1574800000000000366 ) ) ;
#22 =( LENGTH_UNIT ( ) NAMED_UNIT ( * ) SI_UNIT ( $, .METRE. ) );
#23 = CYLINDRICAL_SURFACE ( 'NONE', #319, 0.07874000000000000443 ) ;
#24 = ORIENTED_EDGE ( 'NONE', *, *, #102, .F. ) ;
#25 = DIRECTION ( 'NONE',  ( 0.000000000000000000, 0.000000000000000000, 1.000000000000000000 ) ) ;
#26 = AXIS2_PLACEMENT_3D ( 'NONE', #165, #80, #271 ) ;
#27 = CYLINDRICAL_SURFACE ( 'NONE', #281, 0.07874000000000000443 ) ;
#28 = ORIENTED_EDGE ( 'NONE', *, *, #16, .T. ) ;
#29 = EDGE_CURVE ( 'NONE', #301, #88, #146, .T. ) ;
#30 = EDGE_CURVE ( 'NONE', #88, #10, #70, .T. ) ;
#31 = VERTEX_POINT ( 'NONE', #122 ) ;
#32 = PRODUCT ( 'Micro_AECM-0101-4X', 'Micro_AECM-0101-4X', '', ( #109 ) ) ;
#33 = ORIENTED_EDGE ( 'NONE', *, *, #149, .T. ) ;
#34 = APPLICATION_CONTEXT ( 'automotive_design' ) ;
#35 = VERTEX_POINT ( 'NONE', #290 ) ;
#36 = LINE ( 'NONE', #337, #298 ) ;
#37 = ORIENTED_EDGE ( 'NONE', *, *, #213, .F. ) ;
#38 = FILL_AREA_STYLE_COLOUR ( '', #274 ) ;
#39 = ORIENTED_EDGE ( 'NONE', *, *, #102, .T. ) ;
#40 = CARTESIAN_POINT ( 'NONE',  ( -0.01572831500000001007, 1.926163062073131331E-18, 0.003937000000000000395 ) ) ;
#41 = DIRECTION ( 'NONE',  ( 0.1736481776669313304, 0.000000000000000000, 0.9848077530122077983 ) ) ;
#42 = CARTESIAN_POINT ( 'NONE',  ( 0.000000000000000000, 0.000000000000000000, 1.968503999999999809 ) ) ;
#43 = DIRECTION ( 'NONE',  ( 0.000000000000000000, 0.000000000000000000, 1.000000000000000000 ) ) ;
#44 = CARTESIAN_POINT ( 'NONE',  ( 0.000000000000000000, 0.000000000000000000, 1.968503999999999809 ) ) ;
#45 = AXIS2_PLACEMENT_3D ( 'NONE', #225, #203, #258 ) ;
#46 = FACE_OUTER_BOUND ( 'NONE', #112, .T. ) ;
#47 = DIRECTION ( 'NONE',  ( 1.000000000000000000, 0.000000000000000000, 0.000000000000000000 ) ) ;
#48 = ADVANCED_FACE ( 'NONE', ( #345 ), #240, .T. ) ;
#49 = DIRECTION ( 'NONE',  ( -1.224646799147353207E-16, -0.000000000000000000, -1.000000000000000000 ) ) ;
#50 = CARTESIAN_POINT ( 'NONE',  ( -0.07874000000000000443, 0.000000000000000000, 1.968503999999999809 ) ) ;
#51 = CIRCLE ( 'NONE', #340, 0.07874000000000000443 ) ;
#52 = ORIENTED_EDGE ( 'NONE', *, *, #168, .F. ) ;
#53 = PRODUCT_DEFINITION_CONTEXT ( 'detailed design', #34, 'design' ) ;
#54 = ADVANCED_FACE ( 'NONE', ( #131 ), #127, .T. ) ;
#55 = VECTOR ( 'NONE', #282, 39.37007874015748143 ) ;
#56 = EDGE_CURVE ( 'NONE', #180, #31, #184, .T. ) ;
#57 = ORIENTED_EDGE ( 'NONE', *, *, #29, .T. ) ;
#58 = EDGE_LOOP ( 'NONE', ( #3, #24, #226, #261 ) ) ;
#59 = CIRCLE ( 'NONE', #17, 0.01966531500000001306 ) ;
#60 = CIRCLE ( 'NONE', #138, 0.07874000000000000443 ) ;
#61 = PRODUCT_RELATED_PRODUCT_CATEGORY ( 'part', '', ( #32 ) ) ;
#62 = CARTESIAN_POINT ( 'NONE',  ( -0.01966531500000000959, 0.000000000000000000, 2.408306506897444257E-18 ) ) ;
#63 = DIRECTION ( 'NONE',  ( 0.000000000000000000, 0.000000000000000000, -1.000000000000000000 ) ) ;
#64 = ORIENTED_EDGE ( 'NONE', *, *, #133, .T. ) ;
#65 = CARTESIAN_POINT ( 'NONE',  ( 0.000000000000000000, 0.000000000000000000, 1.968503999999999809 ) ) ;
#66 = ORIENTED_EDGE ( 'NONE', *, *, #129, .T. ) ;
#67 = FILL_AREA_STYLE ('',( #38 ) ) ;
#68 = CARTESIAN_POINT ( 'NONE',  ( 1.928573779297252010E-17, 0.000000000000000000, 0.1574800000000000366 ) ) ;
#69 = DIRECTION ( 'NONE',  ( -1.224646799147353207E-16, -0.000000000000000000, -1.000000000000000000 ) ) ;
#70 = CIRCLE ( 'NONE', #200, 0.01966531500000000959 ) ;
#71 = DIRECTION ( 'NONE',  ( 1.000000000000000000, 0.000000000000000000, -0.000000000000000000 ) ) ;
#72 = DIRECTION ( 'NONE',  ( 1.000000000000000000, 0.000000000000000000, 0.000000000000000000 ) ) ;
#73 =( GEOMETRIC_REPRESENTATION_CONTEXT ( 3 ) GLOBAL_UNCERTAINTY_ASSIGNED_CONTEXT ( ( #198 ) ) GLOBAL_UNIT_ASSIGNED_CONTEXT ( ( #351, #95, #160 ) ) REPRESENTATION_CONTEXT ( 'NONE', 'WORKASPACE' ) );
#74 = ADVANCED_FACE ( 'NONE', ( #46 ), #289, .T. ) ;
#75 = DIRECTION ( 'NONE',  ( -1.000000000000000000, 0.000000000000000000, 0.000000000000000000 ) ) ;
#76 = CARTESIAN_POINT ( 'NONE',  ( 0.07874000000000000443, 9.642868896486258509E-18, 1.968503999999999809 ) ) ;
#77 = TOROIDAL_SURFACE ( 'NONE', #333, 0.01572831500000001007, 0.003937000000000000395 ) ;
#78 = AXIS2_PLACEMENT_3D ( 'NONE', #159, #288, #75 ) ;
#79 = CARTESIAN_POINT ( 'NONE',  ( 0.000000000000000000, 0.000000000000000000, 1.968503999999999809 ) ) ;
#80 = DIRECTION ( 'NONE',  ( 0.000000000000000000, 0.000000000000000000, 1.000000000000000000 ) ) ;
#81 = CARTESIAN_POINT ( 'NONE',  ( 0.000000000000000000, 0.000000000000000000, 0.000000000000000000 ) ) ;
#82 = VERTEX_POINT ( 'NONE', #348 ) ;
#83 = CLOSED_SHELL ( 'NONE', ( #335, #144, #85, #249, #195, #91, #48, #259, #74, #54, #317, #342 ) ) ;
#84 = ORIENTED_EDGE ( 'NONE', *, *, #30, .F. ) ;
#85 = ADVANCED_FACE ( 'NONE', ( #216 ), #218, .T. ) ;
#86 = PRESENTATION_LAYER_ASSIGNMENT (  '', '', ( #188 ) ) ;
#87 = CARTESIAN_POINT ( 'NONE',  ( -0.01966531499999999225, 6.025587701691850612E-18, 0.1574800000000000366 ) ) ;
#88 = VERTEX_POINT ( 'NONE', #339 ) ;
#89 = ORIENTED_EDGE ( 'NONE', *, *, #322, .F. ) ;
#90 = ORIENTED_EDGE ( 'NONE', *, *, #321, .T. ) ;
#91 = ADVANCED_FACE ( 'NONE', ( #270 ), #23, .T. ) ;
#92 = CIRCLE ( 'NONE', #221, 0.01572831500000001007 ) ;
#93 = LINE ( 'NONE', #156, #314 ) ;
#94 = DIRECTION ( 'NONE',  ( 1.000000000000000000, 0.000000000000000000, 0.000000000000000000 ) ) ;
#95 =( NAMED_UNIT ( * ) PLANE_ANGLE_UNIT ( ) SI_UNIT ( $, .RADIAN. ) );
#96 = CARTESIAN_POINT ( 'NONE',  ( 0.000000000000000000, 0.000000000000000000, 0.000000000000000000 ) ) ;
#97 = FACE_OUTER_BOUND ( 'NONE', #229, .T. ) ;
#98 = DIRECTION ( 'NONE',  ( 1.224646799147353207E-16, 0.000000000000000000, 1.000000000000000000 ) ) ;
#99 = FILL_AREA_STYLE ('',( #186 ) ) ;
#100 = AXIS2_PLACEMENT_3D ( 'NONE', #96, #49, #313 ) ;
#101 = CARTESIAN_POINT ( 'NONE',  ( -0.07873999999999993504, 0.000000000000000000, 0.4925091870401411831 ) ) ;
#102 = EDGE_CURVE ( 'NONE', #145, #278, #326, .T. ) ;
#103 = MECHANICAL_DESIGN_GEOMETRIC_PRESENTATION_REPRESENTATION (  '', ( #188 ), #73 ) ;
#104 = CIRCLE ( 'NONE', #239, 0.07874000000000000443 ) ;
#105 = CIRCLE ( 'NONE', #323, 0.003936999999999999528 ) ;
#106 = UNCERTAINTY_MEASURE_WITH_UNIT (LENGTH_MEASURE( 1.000000000000000082E-05 ), #140, 'distance_accuracy_value', 'NONE');
#107 = ADVANCED_BREP_SHAPE_REPRESENTATION ( 'Micro_AECM-0101-4X', ( #230, #137 ), #158 ) ;
#108 = CARTESIAN_POINT ( 'NONE',  ( 6.031497994593740586E-17, 0.000000000000000000, 0.4925091870401411831 ) ) ;
#109 = PRODUCT_CONTEXT ( 'NONE', #236, 'mechanical' ) ;
#110 = VECTOR ( 'NONE', #41, 39.37007874015748143 ) ;
#111 = ORIENTED_EDGE ( 'NONE', *, *, #155, .F. ) ;
#112 = EDGE_LOOP ( 'NONE', ( #12, #175, #64, #150 ) ) ;
#113 = DIMENSIONAL_EXPONENTS ( 1.000000000000000000, 0.000000000000000000, 0.000000000000000000, 0.000000000000000000, 0.000000000000000000, 0.000000000000000000, 0.000000000000000000 ) ;
#114 = ORIENTED_EDGE ( 'NONE', *, *, #178, .F. ) ;
#115 = DIRECTION ( 'NONE',  ( -0.000000000000000000, -0.000000000000000000, -1.000000000000000000 ) ) ;
#116 = CONICAL_SURFACE ( 'NONE', #294, 0.06374000000000018540, 0.7853981633974522758 ) ;
#117 = ORIENTED_EDGE ( 'NONE', *, *, #303, .F. ) ;
#118 = CARTESIAN_POINT ( 'NONE',  ( 4.821434448243130217E-19, 0.000000000000000000, 0.000000000000000000 ) ) ;
#119 = EDGE_CURVE ( 'NONE', #301, #7, #170, .T. ) ;
#120 = VERTEX_POINT ( 'NONE', #185 ) ;
#121 = DIRECTION ( 'NONE',  ( -0.1736481776669311639, 2.126576849575782392E-17, 0.9848077530122080203 ) ) ;
#122 = CARTESIAN_POINT ( 'NONE',  ( 0.07874000000000000443, 9.642868896486258509E-18, 1.953504000000000129 ) ) ;
#123 = DIRECTION ( 'NONE',  ( 1.000000000000000000, 0.000000000000000000, 0.000000000000000000 ) ) ;
#124 = AXIS2_PLACEMENT_3D ( 'NONE', #42, #147, #232 ) ;
#125 = DIRECTION ( 'NONE',  ( 0.000000000000000000, 0.000000000000000000, 1.000000000000000000 ) ) ;
#126 = EDGE_CURVE ( 'NONE', #10, #88, #350, .T. ) ;
#127 = CYLINDRICAL_SURFACE ( 'NONE', #100, 0.01966531500000000959 ) ;
#128 = LINE ( 'NONE', #76, #18 ) ;
#129 = EDGE_CURVE ( 'NONE', #278, #31, #93, .T. ) ;
#130 = CARTESIAN_POINT ( 'NONE',  ( 0.000000000000000000, 0.000000000000000000, 1.968503999999999809 ) ) ;
#131 = FACE_OUTER_BOUND ( 'NONE', #8, .T. ) ;
#132 = DIRECTION ( 'NONE',  ( 1.000000000000000000, 0.000000000000000000, 0.000000000000000000 ) ) ;
#133 = EDGE_CURVE ( 'NONE', #301, #82, #318, .T. ) ;
#134 = EDGE_LOOP ( 'NONE', ( #141, #66, #256, #37 ) ) ;
#135 = SURFACE_STYLE_USAGE ( .BOTH. , #241 ) ;
#136 = SHAPE_DEFINITION_REPRESENTATION ( #142, #107 ) ;
#137 = AXIS2_PLACEMENT_3D ( 'NONE', #299, #1, #224 ) ;
#138 = AXIS2_PLACEMENT_3D ( 'NONE', #245, #346, #47 ) ;
#139 = ORIENTED_EDGE ( 'NONE', *, *, #29, .F. ) ;
#140 =( CONVERSION_BASED_UNIT ( 'INCH', #212 ) LENGTH_UNIT ( ) NAMED_UNIT ( #331 ) );
#141 = ORIENTED_EDGE ( 'NONE', *, *, #220, .F. ) ;
#142 = PRODUCT_DEFINITION_SHAPE ( 'NONE', 'NONE',  #279 ) ;
#143 = AXIS2_PLACEMENT_3D ( 'NONE', #118, #115, #183 ) ;
#144 = ADVANCED_FACE ( 'NONE', ( #191 ), #153, .T. ) ;
#145 = VERTEX_POINT ( 'NONE', #265 ) ;
#146 = LINE ( 'NONE', #257, #277 ) ;
#147 = DIRECTION ( 'NONE',  ( 0.000000000000000000, 0.000000000000000000, 1.000000000000000000 ) ) ;
#148 = ORIENTED_EDGE ( 'NONE', *, *, #264, .T. ) ;
#149 = EDGE_CURVE ( 'NONE', #31, #180, #51, .T. ) ;
#150 = ORIENTED_EDGE ( 'NONE', *, *, #172, .T. ) ;
#151 = DIRECTION ( 'NONE',  ( 1.224646799147353207E-16, 1.000000000000000000, -0.000000000000000000 ) ) ;
#152 = AXIS2_PLACEMENT_3D ( 'NONE', #343, #98, #94 ) ;
#153 = CYLINDRICAL_SURFACE ( 'NONE', #311, 0.01966531500000000959 ) ;
#154 = FACE_OUTER_BOUND ( 'NONE', #234, .T. ) ;
#155 = EDGE_CURVE ( 'NONE', #120, #35, #92, .T. ) ;
#156 = CARTESIAN_POINT ( 'NONE',  ( 0.06374000000000018540, 7.805898697765251255E-18, 1.968503999999999809 ) ) ;
#157 = PLANE ( 'NONE',  #174 ) ;
#158 =( GEOMETRIC_REPRESENTATION_CONTEXT ( 3 ) GLOBAL_UNCERTAINTY_ASSIGNED_CONTEXT ( ( #324 ) ) GLOBAL_UNIT_ASSIGNED_CONTEXT ( ( #320, #296, #347 ) ) REPRESENTATION_CONTEXT ( 'NONE', 'WORKASPACE' ) );
#159 = CARTESIAN_POINT ( 'NONE',  ( 1.928573779297252010E-17, 0.000000000000000000, 0.1574800000000000366 ) ) ;
#160 =( NAMED_UNIT ( * ) SI_UNIT ( $, .STERADIAN. ) SOLID_ANGLE_UNIT ( ) );
#161 = DIRECTION ( 'NONE',  ( -1.224646799147353207E-16, -0.000000000000000000, -1.000000000000000000 ) ) ;
#162 = DIRECTION ( 'NONE',  ( 1.000000000000000000, 0.000000000000000000, 0.000000000000000000 ) ) ;
#163 = STYLED_ITEM ( 'NONE', ( #341 ), #230 ) ;
#164 = EDGE_LOOP ( 'NONE', ( #89, #33, #90, #235 ) ) ;
#165 = CARTESIAN_POINT ( 'NONE',  ( 4.821434448243130217E-19, 0.000000000000000000, 0.003937000000000000395 ) ) ;
#166 = PRODUCT_DEFINITION_FORMATION_WITH_SPECIFIED_SOURCE ( 'ANY', '', #32, .NOT_KNOWN. ) ;
#167 = VECTOR ( 'NONE', #349, 39.37007874015748143 ) ;
#168 = EDGE_CURVE ( 'NONE', #7, #301, #59, .T. ) ;
#169 =( NAMED_UNIT ( * ) SI_UNIT ( $, .STERADIAN. ) SOLID_ANGLE_UNIT ( ) );
#170 = CIRCLE ( 'NONE', #78, 0.01966531500000001306 ) ;
#171 = ORIENTED_EDGE ( 'NONE', *, *, #328, .F. ) ;
#172 = EDGE_CURVE ( 'NONE', #82, #336, #104, .T. ) ;
#173 = EDGE_LOOP ( 'NONE', ( #52, #148, #204, #308 ) ) ;
#174 = AXIS2_PLACEMENT_3D ( 'NONE', #81, #25, #344 ) ;
#175 = ORIENTED_EDGE ( 'NONE', *, *, #119, .F. ) ;
#176 = CARTESIAN_POINT ( 'NONE',  ( -0.07874000000000000443, 0.000000000000000000, 1.953504000000000129 ) ) ;
#177 = ORIENTED_EDGE ( 'NONE', *, *, #168, .T. ) ;
#178 = EDGE_CURVE ( 'NONE', #35, #120, #210, .T. ) ;
#179 = SURFACE_STYLE_FILL_AREA ( #67 ) ;
#180 = VERTEX_POINT ( 'NONE', #176 ) ;
#181 = CARTESIAN_POINT ( 'NONE',  ( 0.06374000000000018540, 8.724383797125754882E-18, 1.968503999999999809 ) ) ;
#182 = DIRECTION ( 'NONE',  ( 0.000000000000000000, 0.000000000000000000, 1.000000000000000000 ) ) ;
#183 = DIRECTION ( 'NONE',  ( 1.000000000000000000, 0.000000000000000000, 0.000000000000000000 ) ) ;
#184 = CIRCLE ( 'NONE', #247, 0.07874000000000000443 ) ;
#185 = CARTESIAN_POINT ( 'NONE',  ( 0.01572831500000001007, 0.000000000000000000, 0.000000000000000000 ) ) ;
#186 = FILL_AREA_STYLE_COLOUR ( '', #248 ) ;
#187 = DIRECTION ( 'NONE',  ( -0.000000000000000000, -0.000000000000000000, -1.000000000000000000 ) ) ;
#188 = STYLED_ITEM ( 'NONE', ( #217 ), #107 ) ;
#189 = APPLICATION_PROTOCOL_DEFINITION ( 'draft international standard', 'automotive_design', 1998, #236 ) ;
#190 = VECTOR ( 'NONE', #121, 39.37007874015747433 ) ;
#191 = FACE_OUTER_BOUND ( 'NONE', #338, .T. ) ;
#192 = LENGTH_MEASURE_WITH_UNIT ( LENGTH_MEASURE( 0.02539999999999999897 ), #22 );
#193 = DIRECTION ( 'NONE',  ( 1.000000000000000000, 0.000000000000000000, 0.000000000000000000 ) ) ;
#194 = LENGTH_MEASURE_WITH_UNIT ( LENGTH_MEASURE( 0.02539999999999999897 ), #293 );
#195 = ADVANCED_FACE ( 'NONE', ( #154 ), #27, .T. ) ;
#196 = SURFACE_STYLE_FILL_AREA ( #99 ) ;
#197 = CIRCLE ( 'NONE', #124, 0.06374000000000018540 ) ;
#198 = UNCERTAINTY_MEASURE_WITH_UNIT (LENGTH_MEASURE( 1.000000000000000082E-05 ), #351, 'distance_accuracy_value', 'NONE');
#199 = DIRECTION ( 'NONE',  ( -1.224646799147353207E-16, -0.000000000000000000, -1.000000000000000000 ) ) ;
#200 = AXIS2_PLACEMENT_3D ( 'NONE', #246, #125, #244 ) ;
#201 = ORIENTED_EDGE ( 'NONE', *, *, #303, .T. ) ;
#202 = CARTESIAN_POINT ( 'NONE',  ( -0.01966531500000000959, 0.000000000000000000, 0.003937000000000000395 ) ) ;
#203 = DIRECTION ( 'NONE',  ( 0.000000000000000000, -1.000000000000000000, 0.000000000000000000 ) ) ;
#204 = ORIENTED_EDGE ( 'NONE', *, *, #328, .T. ) ;
#205 = DIRECTION ( 'NONE',  ( 0.000000000000000000, 0.000000000000000000, -1.000000000000000000 ) ) ;
#206 = ORIENTED_EDGE ( 'NONE', *, *, #252, .F. ) ;
#207 = SURFACE_SIDE_STYLE ('',( #179 ) ) ;
#208 = DIRECTION ( 'NONE',  ( -1.000000000000000000, 0.000000000000000000, 0.000000000000000000 ) ) ;
#209 = DIRECTION ( 'NONE',  ( -0.7071067811865502373, 0.000000000000000000, -0.7071067811865446862 ) ) ;
#210 = CIRCLE ( 'NONE', #143, 0.01572831500000001007 ) ;
#211 = DIRECTION ( 'NONE',  ( -1.224646799147353207E-16, -0.000000000000000000, -1.000000000000000000 ) ) ;
#212 = LENGTH_MEASURE_WITH_UNIT ( LENGTH_MEASURE( 0.02539999999999999897 ), #263 );
#213 = EDGE_CURVE ( 'NONE', #145, #180, #36, .T. ) ;
#214 = DIRECTION ( 'NONE',  ( 0.7071067811865502373, 8.659560562354966138E-17, -0.7071067811865446862 ) ) ;
#215 = DIRECTION ( 'NONE',  ( 1.224646799147353207E-16, 0.000000000000000000, 1.000000000000000000 ) ) ;
#216 = FACE_OUTER_BOUND ( 'NONE', #173, .T. ) ;
#217 = PRESENTATION_STYLE_ASSIGNMENT (( #135 ) ) ;
#218 = CONICAL_SURFACE ( 'NONE', #152, 0.01966531500000001306, 0.1745329251994338360 ) ;
#219 = CARTESIAN_POINT ( 'NONE',  ( 4.821434448243130217E-19, 0.000000000000000000, 0.003937000000000000395 ) ) ;
#220 = EDGE_CURVE ( 'NONE', #278, #145, #197, .T. ) ;
#221 = AXIS2_PLACEMENT_3D ( 'NONE', #267, #187, #292 ) ;
#222 = CIRCLE ( 'NONE', #45, 0.003937000000000000395 ) ;
#223 = ORIENTED_EDGE ( 'NONE', *, *, #16, .F. ) ;
#224 = DIRECTION ( 'NONE',  ( 1.000000000000000000, 0.000000000000000000, 0.000000000000000000 ) ) ;
#225 = CARTESIAN_POINT ( 'NONE',  ( 0.01572831500000001007, 0.000000000000000000, 0.003937000000000000395 ) ) ;
#226 = ORIENTED_EDGE ( 'NONE', *, *, #213, .T. ) ;
#227 = AXIS2_PLACEMENT_3D ( 'NONE', #79, #242, #71 ) ;
#228 = ORIENTED_EDGE ( 'NONE', *, *, #321, .F. ) ;
#229 = EDGE_LOOP ( 'NONE', ( #114, #201, #84, #206 ) ) ;
#230 = MANIFOLD_SOLID_BREP ( 'Fillet1', #83 ) ;
#231 = ORIENTED_EDGE ( 'NONE', *, *, #30, .T. ) ;
#232 = DIRECTION ( 'NONE',  ( 1.000000000000000000, 0.000000000000000000, 0.000000000000000000 ) ) ;
#233 =( GEOMETRIC_REPRESENTATION_CONTEXT ( 3 ) GLOBAL_UNCERTAINTY_ASSIGNED_CONTEXT ( ( #106 ) ) GLOBAL_UNIT_ASSIGNED_CONTEXT ( ( #140, #334, #169 ) ) REPRESENTATION_CONTEXT ( 'NONE', 'WORKASPACE' ) );
#234 = EDGE_LOOP ( 'NONE', ( #254, #330, #171, #228 ) ) ;
#235 = ORIENTED_EDGE ( 'NONE', *, *, #172, .F. ) ;
#236 = APPLICATION_CONTEXT ( 'automotive_design' ) ;
#237 = FACE_OUTER_BOUND ( 'NONE', #286, .T. ) ;
#238 = CARTESIAN_POINT ( 'NONE',  ( 0.000000000000000000, 0.000000000000000000, 1.953504000000000129 ) ) ;
#239 = AXIS2_PLACEMENT_3D ( 'NONE', #108, #69, #123 ) ;
#240 = PLANE ( 'NONE',  #227 ) ;
#241 = SURFACE_SIDE_STYLE ('',( #196 ) ) ;
#242 = DIRECTION ( 'NONE',  ( 0.000000000000000000, 0.000000000000000000, 1.000000000000000000 ) ) ;
#243 = LINE ( 'NONE', #50, #167 ) ;
#244 = DIRECTION ( 'NONE',  ( 1.000000000000000000, 0.000000000000000000, 0.000000000000000000 ) ) ;
#245 = CARTESIAN_POINT ( 'NONE',  ( 6.031497994593740586E-17, 0.000000000000000000, 0.4925091870401411831 ) ) ;
#246 = CARTESIAN_POINT ( 'NONE',  ( 4.821434448243130217E-19, 0.000000000000000000, 0.003937000000000000395 ) ) ;
#247 = AXIS2_PLACEMENT_3D ( 'NONE', #238, #273, #193 ) ;
#248 = COLOUR_RGB ( '',0.7921568627450980005, 0.8196078431372548767, 0.9333333333333333481 ) ;
#249 = ADVANCED_FACE ( 'NONE', ( #4 ), #116, .T. ) ;
#250 = CONICAL_SURFACE ( 'NONE', #269, 0.06374000000000018540, 0.7853981633974522758 ) ;
#251 = SURFACE_STYLE_USAGE ( .BOTH. , #207 ) ;
#252 = EDGE_CURVE ( 'NONE', #120, #88, #222, .T. ) ;
#253 = APPLICATION_PROTOCOL_DEFINITION ( 'draft international standard', 'automotive_design', 1998, #34 ) ;
#254 = ORIENTED_EDGE ( 'NONE', *, *, #56, .T. ) ;
#255 = MECHANICAL_DESIGN_GEOMETRIC_PRESENTATION_REPRESENTATION (  '', ( #163 ), #233 ) ;
#256 = ORIENTED_EDGE ( 'NONE', *, *, #56, .F. ) ;
#257 = CARTESIAN_POINT ( 'NONE',  ( 0.01966531500000000959, 2.408306506897444257E-18, -2.408306506897444257E-18 ) ) ;
#258 = DIRECTION ( 'NONE',  ( 0.000000000000000000, 0.000000000000000000, -1.000000000000000000 ) ) ;
#259 = ADVANCED_FACE ( 'NONE', ( #9 ), #250, .T. ) ;
#260 = ORIENTED_EDGE ( 'NONE', *, *, #119, .T. ) ;
#261 = ORIENTED_EDGE ( 'NONE', *, *, #149, .F. ) ;
#262 = AXIS2_PLACEMENT_3D ( 'NONE', #68, #215, #162 ) ;
#263 =( LENGTH_UNIT ( ) NAMED_UNIT ( * ) SI_UNIT ( $, .METRE. ) );
#264 = EDGE_CURVE ( 'NONE', #7, #336, #13, .T. ) ;
#265 = CARTESIAN_POINT ( 'NONE',  ( -0.06374000000000018540, 0.000000000000000000, 1.968503999999999809 ) ) ;
#266 = CARTESIAN_POINT ( 'NONE',  ( 0.000000000000000000, 0.000000000000000000, 1.968503999999999809 ) ) ;
#267 = CARTESIAN_POINT ( 'NONE',  ( 4.821434448243130217E-19, 0.000000000000000000, 0.000000000000000000 ) ) ;
#268 = DIRECTION ( 'NONE',  ( -0.000000000000000000, -0.000000000000000000, -1.000000000000000000 ) ) ;
#269 = AXIS2_PLACEMENT_3D ( 'NONE', #65, #205, #285 ) ;
#270 = FACE_OUTER_BOUND ( 'NONE', #164, .T. ) ;
#271 = DIRECTION ( 'NONE',  ( 1.000000000000000000, 0.000000000000000000, 0.000000000000000000 ) ) ;
#272 = DIRECTION ( 'NONE',  ( -1.000000000000000000, 0.000000000000000000, 1.224646799147353207E-16 ) ) ;
#273 = DIRECTION ( 'NONE',  ( 0.000000000000000000, 0.000000000000000000, -1.000000000000000000 ) ) ;
#274 = COLOUR_RGB ( '',0.7921568627450980005, 0.8196078431372548767, 0.9333333333333333481 ) ;
#275 = DIRECTION ( 'NONE',  ( -1.000000000000000000, 0.000000000000000000, 0.000000000000000000 ) ) ;
#276 = CARTESIAN_POINT ( 'NONE',  ( 0.000000000000000000, 0.000000000000000000, 1.968503999999999809 ) ) ;
#277 = VECTOR ( 'NONE', #211, 39.37007874015748143 ) ;
#278 = VERTEX_POINT ( 'NONE', #181 ) ;
#279 = PRODUCT_DEFINITION ( 'UNKNOWN', '', #166, #53 ) ;
#280 = EDGE_LOOP ( 'NONE', ( #117, #111, #6, #302 ) ) ;
#281 = AXIS2_PLACEMENT_3D ( 'NONE', #266, #283, #309 ) ;
#282 = DIRECTION ( 'NONE',  ( -1.224646799147353207E-16, -0.000000000000000000, -1.000000000000000000 ) ) ;
#283 = DIRECTION ( 'NONE',  ( -0.000000000000000000, -0.000000000000000000, -1.000000000000000000 ) ) ;
#284 = ORIENTED_EDGE ( 'NONE', *, *, #126, .T. ) ;
#285 = DIRECTION ( 'NONE',  ( -1.000000000000000000, 0.000000000000000000, 0.000000000000000000 ) ) ;
#286 = EDGE_LOOP ( 'NONE', ( #306, #327 ) ) ;
#287 = CARTESIAN_POINT ( 'NONE',  ( 0.01966531500000003735, 0.000000000000000000, 0.1574800000000000366 ) ) ;
#288 = DIRECTION ( 'NONE',  ( -1.224646799147353207E-16, -0.000000000000000000, -1.000000000000000000 ) ) ;
#289 = CONICAL_SURFACE ( 'NONE', #262, 0.01966531500000001306, 0.1745329251994338360 ) ;
#290 = CARTESIAN_POINT ( 'NONE',  ( -0.01572831500000001007, 2.167234784485287794E-18, 0.000000000000000000 ) ) ;
#291 = FACE_OUTER_BOUND ( 'NONE', #280, .T. ) ;
#292 = DIRECTION ( 'NONE',  ( 1.000000000000000000, 0.000000000000000000, 0.000000000000000000 ) ) ;
#293 =( LENGTH_UNIT ( ) NAMED_UNIT ( * ) SI_UNIT ( $, .METRE. ) );
#294 = AXIS2_PLACEMENT_3D ( 'NONE', #276, #63, #305 ) ;
#295 = CARTESIAN_POINT ( 'NONE',  ( 0.000000000000000000, 0.000000000000000000, 0.000000000000000000 ) ) ;
#296 =( NAMED_UNIT ( * ) PLANE_ANGLE_UNIT ( ) SI_UNIT ( $, .RADIAN. ) );
#297 = CARTESIAN_POINT ( 'NONE',  ( 4.821434448243130217E-19, 0.000000000000000000, 0.003937000000000000395 ) ) ;
#298 = VECTOR ( 'NONE', #209, 39.37007874015748854 ) ;
#299 = CARTESIAN_POINT ( 'NONE',  ( 0.000000000000000000, 0.000000000000000000, 0.000000000000000000 ) ) ;
#300 = AXIS2_PLACEMENT_3D ( 'NONE', #130, #182, #316 ) ;
#301 = VERTEX_POINT ( 'NONE', #287 ) ;
#302 = ORIENTED_EDGE ( 'NONE', *, *, #126, .F. ) ;
#303 = EDGE_CURVE ( 'NONE', #35, #10, #105, .T. ) ;
#304 = LINE ( 'NONE', #62, #55 ) ;
#305 = DIRECTION ( 'NONE',  ( -1.000000000000000000, 0.000000000000000000, 0.000000000000000000 ) ) ;
#306 = ORIENTED_EDGE ( 'NONE', *, *, #155, .T. ) ;
#307 = AXIS2_PLACEMENT_3D ( 'NONE', #297, #43, #15 ) ;
#308 = ORIENTED_EDGE ( 'NONE', *, *, #133, .F. ) ;
#309 = DIRECTION ( 'NONE',  ( -1.000000000000000000, 0.000000000000000000, 0.000000000000000000 ) ) ;
#310 = CARTESIAN_POINT ( 'NONE',  ( 0.01966531500000003735, 0.000000000000000000, 0.1574800000000000366 ) ) ;
#311 = AXIS2_PLACEMENT_3D ( 'NONE', #295, #161, #272 ) ;
#312 = DIRECTION ( 'NONE',  ( -1.000000000000000000, 1.224646799147352714E-16, 0.000000000000000000 ) ) ;
#313 = DIRECTION ( 'NONE',  ( -1.000000000000000000, 0.000000000000000000, 1.224646799147353207E-16 ) ) ;
#314 = VECTOR ( 'NONE', #214, 39.37007874015748854 ) ;
#315 = CARTESIAN_POINT ( 'NONE',  ( 0.000000000000000000, 0.000000000000000000, 1.953504000000000129 ) ) ;
#316 = DIRECTION ( 'NONE',  ( 1.000000000000000000, 0.000000000000000000, 0.000000000000000000 ) ) ;
#317 = ADVANCED_FACE ( 'NONE', ( #237 ), #157, .F. ) ;
#318 = LINE ( 'NONE', #310, #110 ) ;
#319 = AXIS2_PLACEMENT_3D ( 'NONE', #44, #19, #208 ) ;
#320 =( CONVERSION_BASED_UNIT ( 'INCH', #192 ) LENGTH_UNIT ( ) NAMED_UNIT ( #113 ) );
#321 = EDGE_CURVE ( 'NONE', #180, #336, #243, .T. ) ;
#322 = EDGE_CURVE ( 'NONE', #31, #82, #128, .T. ) ;
#323 = AXIS2_PLACEMENT_3D ( 'NONE', #40, #151, #312 ) ;
#324 = UNCERTAINTY_MEASURE_WITH_UNIT (LENGTH_MEASURE( 1.000000000000000082E-05 ), #320, 'distance_accuracy_value', 'NONE');
#325 = EDGE_LOOP ( 'NONE', ( #39, #332 ) ) ;
#326 = CIRCLE ( 'NONE', #300, 0.06374000000000018540 ) ;
#327 = ORIENTED_EDGE ( 'NONE', *, *, #178, .T. ) ;
#328 = EDGE_CURVE ( 'NONE', #336, #82, #60, .T. ) ;
#329 = DIMENSIONAL_EXPONENTS ( 1.000000000000000000, 0.000000000000000000, 0.000000000000000000, 0.000000000000000000, 0.000000000000000000, 0.000000000000000000, 0.000000000000000000 ) ;
#330 = ORIENTED_EDGE ( 'NONE', *, *, #322, .T. ) ;
#331 = DIMENSIONAL_EXPONENTS ( 1.000000000000000000, 0.000000000000000000, 0.000000000000000000, 0.000000000000000000, 0.000000000000000000, 0.000000000000000000, 0.000000000000000000 ) ;
#332 = ORIENTED_EDGE ( 'NONE', *, *, #220, .T. ) ;
#333 = AXIS2_PLACEMENT_3D ( 'NONE', #219, #20, #132 ) ;
#334 =( NAMED_UNIT ( * ) PLANE_ANGLE_UNIT ( ) SI_UNIT ( $, .RADIAN. ) );
#335 = ADVANCED_FACE ( 'NONE', ( #97 ), #77, .T. ) ;
#336 = VERTEX_POINT ( 'NONE', #101 ) ;
#337 = CARTESIAN_POINT ( 'NONE',  ( -0.06374000000000018540, 0.000000000000000000, 1.968503999999999809 ) ) ;
#338 = EDGE_LOOP ( 'NONE', ( #177, #57, #231, #223 ) ) ;
#339 = CARTESIAN_POINT ( 'NONE',  ( 0.01966531500000000959, 2.408306506897444257E-18, 0.003937000000000000395 ) ) ;
#340 = AXIS2_PLACEMENT_3D ( 'NONE', #315, #14, #72 ) ;
#341 = PRESENTATION_STYLE_ASSIGNMENT (( #251 ) ) ;
#342 = ADVANCED_FACE ( 'NONE', ( #291 ), #2, .T. ) ;
#343 = CARTESIAN_POINT ( 'NONE',  ( 1.928573779297252010E-17, 0.000000000000000000, 0.1574800000000000366 ) ) ;
#344 = DIRECTION ( 'NONE',  ( 1.000000000000000000, 0.000000000000000000, -0.000000000000000000 ) ) ;
#345 = FACE_OUTER_BOUND ( 'NONE', #325, .T. ) ;
#346 = DIRECTION ( 'NONE',  ( -1.224646799147353207E-16, -0.000000000000000000, -1.000000000000000000 ) ) ;
#347 =( NAMED_UNIT ( * ) SI_UNIT ( $, .STERADIAN. ) SOLID_ANGLE_UNIT ( ) );
#348 = CARTESIAN_POINT ( 'NONE',  ( 0.07874000000000007382, 9.642868896486267753E-18, 0.4925091870401411831 ) ) ;
#349 = DIRECTION ( 'NONE',  ( -0.000000000000000000, -0.000000000000000000, -1.000000000000000000 ) ) ;
#350 = CIRCLE ( 'NONE', #307, 0.01966531500000000959 ) ;
#351 =( CONVERSION_BASED_UNIT ( 'INCH', #194 ) LENGTH_UNIT ( ) NAMED_UNIT ( #329 ) );
ENDSEC;
END-ISO-10303-21;
