ISO-10303-21;
HEADER;
FILE_DESCRIPTION (( 'STEP AP214' ),
    '1' );
FILE_NAME ('82266W.STEP',
    '2023-06-23T04:51:23',
    ( '' ),
    ( '' ),
    'SwSTEP 2.0',
    'SolidWorks 2023',
    '' );
FILE_SCHEMA (( 'AUTOMOTIVE_DESIGN' ));
ENDSEC;

DATA;
#1 = VERTEX_POINT ( 'NONE', #265 ) ;
#2 = PLANE ( 'NONE',  #152 ) ;
#3 = PRODUCT_DEFINITION_CONTEXT ( 'detailed design', #123, 'design' ) ;
#4 = VECTOR ( 'NONE', #103, 39.37007874015748143 ) ;
#5 =( LENGTH_UNIT ( ) NAMED_UNIT ( * ) SI_UNIT ( $, .METRE. ) );
#6 = PRESENTATION_STYLE_ASSIGNMENT (( #284 ) ) ;
#7 = VERTEX_POINT ( 'NONE', #173 ) ;
#8 = FACE_OUTER_BOUND ( 'NONE', #156, .T. ) ;
#9 = DIRECTION ( 'NONE',  ( 8.164311994315692567E-17, 1.000000000000000000, -0.000000000000000000 ) ) ;
#10 = AXIS2_PLACEMENT_3D ( 'NONE', #289, #226, #229 ) ;
#11 = LINE ( 'NONE', #55, #85 ) ;
#12 =( GEOMETRIC_REPRESENTATION_CONTEXT ( 3 ) GLOBAL_UNCERTAINTY_ASSIGNED_CONTEXT ( ( #155 ) ) GLOBAL_UNIT_ASSIGNED_CONTEXT ( ( #52, #118, #119 ) ) REPRESENTATION_CONTEXT ( 'NONE', 'WORKASPACE' ) );
#13 = PRESENTATION_LAYER_ASSIGNMENT (  '', '', ( #133 ) ) ;
#14 = DIRECTION ( 'NONE',  ( 8.164311994315692567E-17, 1.000000000000000000, -0.000000000000000000 ) ) ;
#15 = FACE_OUTER_BOUND ( 'NONE', #83, .T. ) ;
#16 = DIRECTION ( 'NONE',  ( -1.000000000000000000, 0.000000000000000000, 0.000000000000000000 ) ) ;
#17 = STYLED_ITEM ( 'NONE', ( #108 ), #304 ) ;
#18 = ORIENTED_EDGE ( 'NONE', *, *, #295, .F. ) ;
#19 = VERTEX_POINT ( 'NONE', #208 ) ;
#20 =( GEOMETRIC_REPRESENTATION_CONTEXT ( 3 ) GLOBAL_UNCERTAINTY_ASSIGNED_CONTEXT ( ( #231 ) ) GLOBAL_UNIT_ASSIGNED_CONTEXT ( ( #117, #25, #169 ) ) REPRESENTATION_CONTEXT ( 'NONE', 'WORKASPACE' ) );
#21 =( NAMED_UNIT ( * ) PLANE_ANGLE_UNIT ( ) SI_UNIT ( $, .RADIAN. ) );
#22 = ORIENTED_EDGE ( 'NONE', *, *, #268, .F. ) ;
#23 = SURFACE_SIDE_STYLE ('',( #207 ) ) ;
#24 = ORIENTED_EDGE ( 'NONE', *, *, #124, .T. ) ;
#25 =( NAMED_UNIT ( * ) PLANE_ANGLE_UNIT ( ) SI_UNIT ( $, .RADIAN. ) );
#26 = SURFACE_SIDE_STYLE ('',( #267 ) ) ;
#27 = AXIS2_PLACEMENT_3D ( 'NONE', #269, #191, #137 ) ;
#28 = DIRECTION ( 'NONE',  ( 8.164311994315692567E-17, 1.000000000000000000, -0.000000000000000000 ) ) ;
#29 = AXIS2_PLACEMENT_3D ( 'NONE', #188, #286, #45 ) ;
#30 = EDGE_LOOP ( 'NONE', ( #168, #65, #61, #187 ) ) ;
#31 = DIRECTION ( 'NONE',  ( 8.164311994315692567E-17, 1.000000000000000000, -0.000000000000000000 ) ) ;
#32 = EDGE_CURVE ( 'NONE', #134, #204, #217, .T. ) ;
#33 = COLOUR_RGB ( '',0.7921568627450980005, 0.8196078431372548767, 0.9333333333333333481 ) ;
#34 = CARTESIAN_POINT ( 'NONE',  ( 1.224646799147353700E-16, 2.000000000000000000, 0.000000000000000000 ) ) ;
#35 = DIMENSIONAL_EXPONENTS ( 1.000000000000000000, 0.000000000000000000, 0.000000000000000000, 0.000000000000000000, 0.000000000000000000, 0.000000000000000000, 0.000000000000000000 ) ;
#36 = CARTESIAN_POINT ( 'NONE',  ( 0.000000000000000000, 0.5000000000000000000, 0.000000000000000000 ) ) ;
#37 = FACE_OUTER_BOUND ( 'NONE', #237, .T. ) ;
#38 = SURFACE_STYLE_FILL_AREA ( #282 ) ;
#39 = UNCERTAINTY_MEASURE_WITH_UNIT (LENGTH_MEASURE( 1.000000000000000082E-05 ), #233, 'distance_accuracy_value', 'NONE');
#40 = ORIENTED_EDGE ( 'NONE', *, *, #130, .T. ) ;
#41 = FILL_AREA_STYLE ('',( #157 ) ) ;
#42 = SURFACE_STYLE_USAGE ( .BOTH. , #154 ) ;
#43 = ADVANCED_FACE ( 'NONE', ( #247 ), #242, .F. ) ;
#44 = MECHANICAL_DESIGN_GEOMETRIC_PRESENTATION_REPRESENTATION (  '', ( #261 ), #189 ) ;
#45 = DIRECTION ( 'NONE',  ( 0.000000000000000000, 0.000000000000000000, -1.000000000000000000 ) ) ;
#46 = SURFACE_STYLE_USAGE ( .BOTH. , #236 ) ;
#47 = AXIS2_PLACEMENT_3D ( 'NONE', #121, #220, #16 ) ;
#48 = APPLICATION_PROTOCOL_DEFINITION ( 'draft international standard', 'automotive_design', 1998, #123 ) ;
#49 = FACE_OUTER_BOUND ( 'NONE', #104, .T. ) ;
#50 = CARTESIAN_POINT ( 'NONE',  ( 0.000000000000000000, 0.000000000000000000, -0.1875000000000000278 ) ) ;
#51 = CARTESIAN_POINT ( 'NONE',  ( -0.1874999999999997502, 2.000000000000000000, 0.000000000000000000 ) ) ;
#52 =( CONVERSION_BASED_UNIT ( 'INCH', #177 ) LENGTH_UNIT ( ) NAMED_UNIT ( #176 ) );
#53 = CYLINDRICAL_SURFACE ( 'NONE', #90, 0.1874999999999999445 ) ;
#54 = DIMENSIONAL_EXPONENTS ( 1.000000000000000000, 0.000000000000000000, 0.000000000000000000, 0.000000000000000000, 0.000000000000000000, 0.000000000000000000, 0.000000000000000000 ) ;
#55 = CARTESIAN_POINT ( 'NONE',  ( -0.1874999999999998057, 2.000000000000000000, 0.000000000000000000 ) ) ;
#56 = DIMENSIONAL_EXPONENTS ( 1.000000000000000000, 0.000000000000000000, 0.000000000000000000, 0.000000000000000000, 0.000000000000000000, 0.000000000000000000, 0.000000000000000000 ) ;
#57 = SURFACE_STYLE_FILL_AREA ( #148 ) ;
#58 = DIRECTION ( 'NONE',  ( 0.000000000000000000, -1.000000000000000000, -0.000000000000000000 ) ) ;
#59 = CIRCLE ( 'NONE', #101, 0.1875000000000000278 ) ;
#60 =( CONVERSION_BASED_UNIT ( 'INCH', #280 ) LENGTH_UNIT ( ) NAMED_UNIT ( #35 ) );
#61 = ORIENTED_EDGE ( 'NONE', *, *, #32, .F. ) ;
#62 = DIRECTION ( 'NONE',  ( 0.000000000000000000, 0.000000000000000000, -1.000000000000000000 ) ) ;
#63 = FILL_AREA_STYLE_COLOUR ( '', #33 ) ;
#64 = ORIENTED_EDGE ( 'NONE', *, *, #215, .F. ) ;
#65 = ORIENTED_EDGE ( 'NONE', *, *, #70, .T. ) ;
#66 = PRODUCT_DEFINITION_SHAPE ( 'NONE', 'NONE',  #245 ) ;
#67 = COLOUR_RGB ( '',1.000000000000000000, 0.000000000000000000, 0.000000000000000000 ) ;
#68 = CARTESIAN_POINT ( 'NONE',  ( 0.1875000000000000278, 2.000000000000000000, 0.000000000000000000 ) ) ;
#69 = DIRECTION ( 'NONE',  ( 0.000000000000000000, 0.000000000000000000, -1.000000000000000000 ) ) ;
#70 = EDGE_CURVE ( 'NONE', #186, #204, #213, .T. ) ;
#71 = ADVANCED_BREP_SHAPE_REPRESENTATION ( '82266W', ( #246, #256, #75 ), #20 ) ;
#72 = DIRECTION ( 'NONE',  ( 1.000000000000000000, -8.164311994315692567E-17, 0.000000000000000000 ) ) ;
#73 =( NAMED_UNIT ( * ) SI_UNIT ( $, .STERADIAN. ) SOLID_ANGLE_UNIT ( ) );
#74 = CIRCLE ( 'NONE', #47, 0.1875000000000000278 ) ;
#75 = AXIS2_PLACEMENT_3D ( 'NONE', #248, #272, #300 ) ;
#76 = CARTESIAN_POINT ( 'NONE',  ( 0.1875000000000000278, 2.000000000000000000, 2.296212748401286801E-17 ) ) ;
#77 = FACE_OUTER_BOUND ( 'NONE', #30, .T. ) ;
#78 = CARTESIAN_POINT ( 'NONE',  ( 0.000000000000000000, 0.000000000000000000, 0.000000000000000000 ) ) ;
#79 = PRESENTATION_LAYER_ASSIGNMENT (  '', '', ( #209 ) ) ;
#80 = DIRECTION ( 'NONE',  ( 0.000000000000000000, 0.000000000000000000, -1.000000000000000000 ) ) ;
#81 = VERTEX_POINT ( 'NONE', #140 ) ;
#82 = DIRECTION ( 'NONE',  ( 0.000000000000000000, -0.000000000000000000, 1.000000000000000000 ) ) ;
#83 = EDGE_LOOP ( 'NONE', ( #110, #40, #281, #64 ) ) ;
#84 =( NAMED_UNIT ( * ) SI_UNIT ( $, .STERADIAN. ) SOLID_ANGLE_UNIT ( ) );
#85 = VECTOR ( 'NONE', #31, 39.37007874015748143 ) ;
#86 = PRESENTATION_LAYER_ASSIGNMENT (  '', '', ( #17 ) ) ;
#87 = ORIENTED_EDGE ( 'NONE', *, *, #239, .F. ) ;
#88 = CARTESIAN_POINT ( 'NONE',  ( 0.000000000000000000, 0.5000000000000000000, 0.000000000000000000 ) ) ;
#89 = ORIENTED_EDGE ( 'NONE', *, *, #275, .T. ) ;
#90 = AXIS2_PLACEMENT_3D ( 'NONE', #34, #222, #98 ) ;
#91 = CARTESIAN_POINT ( 'NONE',  ( 0.000000000000000000, 0.000000000000000000, 0.000000000000000000 ) ) ;
#92 = LENGTH_MEASURE_WITH_UNIT ( LENGTH_MEASURE( 0.02539999999999999897 ), #165 );
#93 = LINE ( 'NONE', #50, #199 ) ;
#94 = PRESENTATION_STYLE_ASSIGNMENT (( #302 ) ) ;
#95 = CARTESIAN_POINT ( 'NONE',  ( 1.224646799147353700E-16, 2.000000000000000000, 0.000000000000000000 ) ) ;
#96 = COLOUR_RGB ( '',1.000000000000000000, 0.000000000000000000, 0.000000000000000000 ) ;
#97 = DIMENSIONAL_EXPONENTS ( 1.000000000000000000, 0.000000000000000000, 0.000000000000000000, 0.000000000000000000, 0.000000000000000000, 0.000000000000000000, 0.000000000000000000 ) ;
#98 = DIRECTION ( 'NONE',  ( -1.000000000000000000, 0.000000000000000000, 0.000000000000000000 ) ) ;
#99 = CARTESIAN_POINT ( 'NONE',  ( 0.1875000000000000278, 0.5000000000000001110, 2.296212748401286801E-17 ) ) ;
#100 = PRESENTATION_LAYER_ASSIGNMENT (  '', '', ( #106 ) ) ;
#101 = AXIS2_PLACEMENT_3D ( 'NONE', #91, #244, #69 ) ;
#102 = PRODUCT_DEFINITION_FORMATION_WITH_SPECIFIED_SOURCE ( 'ANY', '', #164, .NOT_KNOWN. ) ;
#103 = DIRECTION ( 'NONE',  ( -0.000000000000000000, -1.000000000000000000, -0.000000000000000000 ) ) ;
#104 = EDGE_LOOP ( 'NONE', ( #206, #89 ) ) ;
#105 =( NAMED_UNIT ( * ) SI_UNIT ( $, .STERADIAN. ) SOLID_ANGLE_UNIT ( ) );
#106 = STYLED_ITEM ( 'NONE', ( #94 ), #185 ) ;
#107 = APPLICATION_CONTEXT ( 'automotive_design' ) ;
#108 = PRESENTATION_STYLE_ASSIGNMENT (( #232 ) ) ;
#109 = PRESENTATION_STYLE_ASSIGNMENT (( #46 ) ) ;
#110 = ORIENTED_EDGE ( 'NONE', *, *, #70, .F. ) ;
#111 = CIRCLE ( 'NONE', #221, 0.1874999999999998890 ) ;
#112 = PRESENTATION_STYLE_ASSIGNMENT (( #116 ) ) ;
#113 = DIRECTION ( 'NONE',  ( -8.164311994315692567E-17, -1.000000000000000000, 0.000000000000000000 ) ) ;
#114 = LENGTH_MEASURE_WITH_UNIT ( LENGTH_MEASURE( 0.02539999999999999897 ), #243 );
#115 = UNCERTAINTY_MEASURE_WITH_UNIT (LENGTH_MEASURE( 1.000000000000000082E-05 ), #296, 'distance_accuracy_value', 'NONE');
#116 = SURFACE_STYLE_USAGE ( .BOTH. , #26 ) ;
#117 =( CONVERSION_BASED_UNIT ( 'INCH', #114 ) LENGTH_UNIT ( ) NAMED_UNIT ( #97 ) );
#118 =( NAMED_UNIT ( * ) PLANE_ANGLE_UNIT ( ) SI_UNIT ( $, .RADIAN. ) );
#119 =( NAMED_UNIT ( * ) SI_UNIT ( $, .STERADIAN. ) SOLID_ANGLE_UNIT ( ) );
#120 = EDGE_CURVE ( 'NONE', #19, #7, #59, .T. ) ;
#121 = CARTESIAN_POINT ( 'NONE',  ( 0.000000000000000000, 0.5000000000000001110, 0.000000000000000000 ) ) ;
#122 = STYLED_ITEM ( 'NONE', ( #6 ), #246 ) ;
#123 = APPLICATION_CONTEXT ( 'automotive_design' ) ;
#124 = EDGE_CURVE ( 'NONE', #193, #19, #93, .T. ) ;
#125 = DIRECTION ( 'NONE',  ( -0.000000000000000000, -1.000000000000000000, -0.000000000000000000 ) ) ;
#126 = SURFACE_STYLE_FILL_AREA ( #161 ) ;
#127 = CIRCLE ( 'NONE', #249, 0.1875000000000000278 ) ;
#128 = COLOUR_RGB ( '',1.000000000000000000, 0.000000000000000000, 0.000000000000000000 ) ;
#129 = CARTESIAN_POINT ( 'NONE',  ( 6.248999094424413542E-34, 0.5000000000000000000, 0.000000000000000000 ) ) ;
#130 = EDGE_CURVE ( 'NONE', #186, #1, #127, .T. ) ;
#131 = DIMENSIONAL_EXPONENTS ( 1.000000000000000000, 0.000000000000000000, 0.000000000000000000, 0.000000000000000000, 0.000000000000000000, 0.000000000000000000, 0.000000000000000000 ) ;
#132 = LENGTH_MEASURE_WITH_UNIT ( LENGTH_MEASURE( 0.02539999999999999897 ), #5 );
#133 = STYLED_ITEM ( 'NONE', ( #109 ), #264 ) ;
#134 = VERTEX_POINT ( 'NONE', #51 ) ;
#135 = ADVANCED_FACE ( 'NONE', ( #294 ), #171, .T. ) ;
#136 = LENGTH_MEASURE_WITH_UNIT ( LENGTH_MEASURE( 0.02539999999999999897 ), #214 );
#137 = DIRECTION ( 'NONE',  ( -1.000000000000000000, 0.000000000000000000, 0.000000000000000000 ) ) ;
#138 =( NAMED_UNIT ( * ) PLANE_ANGLE_UNIT ( ) SI_UNIT ( $, .RADIAN. ) );
#139 = UNCERTAINTY_MEASURE_WITH_UNIT (LENGTH_MEASURE( 1.000000000000000082E-05 ), #298, 'distance_accuracy_value', 'NONE');
#140 = CARTESIAN_POINT ( 'NONE',  ( 2.296212748401287726E-17, 0.5000000000000000000, 0.1875000000000000278 ) ) ;
#141 = SHAPE_DEFINITION_REPRESENTATION ( #66, #71 ) ;
#142 = ORIENTED_EDGE ( 'NONE', *, *, #275, .F. ) ;
#143 = CARTESIAN_POINT ( 'NONE',  ( 0.1875000000000000833, 2.000000000000000000, 2.296212748401286493E-17 ) ) ;
#144 = MECHANICAL_DESIGN_GEOMETRIC_PRESENTATION_REPRESENTATION (  '', ( #133 ), #195 ) ;
#145 = SURFACE_SIDE_STYLE ('',( #57 ) ) ;
#146 = FACE_OUTER_BOUND ( 'NONE', #285, .T. ) ;
#147 = FILL_AREA_STYLE_COLOUR ( '', #96 ) ;
#148 = FILL_AREA_STYLE ('',( #147 ) ) ;
#149 = CARTESIAN_POINT ( 'NONE',  ( 0.000000000000000000, 0.000000000000000000, 0.000000000000000000 ) ) ;
#150 =( NAMED_UNIT ( * ) SI_UNIT ( $, .STERADIAN. ) SOLID_ANGLE_UNIT ( ) );
#151 = CLOSED_SHELL ( 'NONE', ( #219, #252, #194, #43 ) ) ;
#152 = AXIS2_PLACEMENT_3D ( 'NONE', #88, #201, #82 ) ;
#153 = EDGE_CURVE ( 'NONE', #1, #134, #11, .T. ) ;
#154 = SURFACE_SIDE_STYLE ('',( #38 ) ) ;
#155 = UNCERTAINTY_MEASURE_WITH_UNIT (LENGTH_MEASURE( 1.000000000000000082E-05 ), #52, 'distance_accuracy_value', 'NONE');
#156 = EDGE_LOOP ( 'NONE', ( #22, #87 ) ) ;
#157 = FILL_AREA_STYLE_COLOUR ( '', #67 ) ;
#158 =( NAMED_UNIT ( * ) PLANE_ANGLE_UNIT ( ) SI_UNIT ( $, .RADIAN. ) );
#159 = ORIENTED_EDGE ( 'NONE', *, *, #215, .T. ) ;
#160 = ORIENTED_EDGE ( 'NONE', *, *, #295, .T. ) ;
#161 = FILL_AREA_STYLE ('',( #279 ) ) ;
#162 = MECHANICAL_DESIGN_GEOMETRIC_PRESENTATION_REPRESENTATION (  '', ( #122 ), #241 ) ;
#163 = ORIENTED_EDGE ( 'NONE', *, *, #32, .T. ) ;
#164 = PRODUCT ( '82266W', '82266W', '', ( #270 ) ) ;
#165 =( LENGTH_UNIT ( ) NAMED_UNIT ( * ) SI_UNIT ( $, .METRE. ) );
#166 = PRODUCT_RELATED_PRODUCT_CATEGORY ( 'part', '', ( #164 ) ) ;
#167 =( CONVERSION_BASED_UNIT ( 'INCH', #192 ) LENGTH_UNIT ( ) NAMED_UNIT ( #56 ) );
#168 = ORIENTED_EDGE ( 'NONE', *, *, #211, .T. ) ;
#169 =( NAMED_UNIT ( * ) SI_UNIT ( $, .STERADIAN. ) SOLID_ANGLE_UNIT ( ) );
#170 = CLOSED_SHELL ( 'NONE', ( #185, #304, #135, #264 ) ) ;
#171 = CYLINDRICAL_SURFACE ( 'NONE', #253, 0.1875000000000000278 ) ;
#172 =( NAMED_UNIT ( * ) SI_UNIT ( $, .STERADIAN. ) SOLID_ANGLE_UNIT ( ) );
#173 = CARTESIAN_POINT ( 'NONE',  ( 2.296212748401287726E-17, 0.000000000000000000, 0.1875000000000000278 ) ) ;
#174 = AXIS2_PLACEMENT_3D ( 'NONE', #95, #197, #277 ) ;
#175 = CARTESIAN_POINT ( 'NONE',  ( 0.000000000000000000, 0.5000000000000000000, -0.1875000000000000278 ) ) ;
#176 = DIMENSIONAL_EXPONENTS ( 1.000000000000000000, 0.000000000000000000, 0.000000000000000000, 0.000000000000000000, 0.000000000000000000, 0.000000000000000000, 0.000000000000000000 ) ;
#177 = LENGTH_MEASURE_WITH_UNIT ( LENGTH_MEASURE( 0.02539999999999999897 ), #196 );
#178 = CARTESIAN_POINT ( 'NONE',  ( 1.224646799147353700E-16, 2.000000000000000000, 0.000000000000000000 ) ) ;
#179 = PLANE ( 'NONE',  #308 ) ;
#180 = ORIENTED_EDGE ( 'NONE', *, *, #239, .T. ) ;
#181 = PLANE ( 'NONE',  #301 ) ;
#182 = ORIENTED_EDGE ( 'NONE', *, *, #211, .F. ) ;
#183 = COLOUR_RGB ( '',1.000000000000000000, 0.000000000000000000, 0.000000000000000000 ) ;
#184 = LINE ( 'NONE', #235, #4 ) ;
#185 = ADVANCED_FACE ( 'NONE', ( #146 ), #255, .T. ) ;
#186 = VERTEX_POINT ( 'NONE', #99 ) ;
#187 = ORIENTED_EDGE ( 'NONE', *, *, #153, .F. ) ;
#188 = CARTESIAN_POINT ( 'NONE',  ( 0.000000000000000000, 0.000000000000000000, 0.000000000000000000 ) ) ;
#189 =( GEOMETRIC_REPRESENTATION_CONTEXT ( 3 ) GLOBAL_UNCERTAINTY_ASSIGNED_CONTEXT ( ( #139 ) ) GLOBAL_UNIT_ASSIGNED_CONTEXT ( ( #298, #278, #73 ) ) REPRESENTATION_CONTEXT ( 'NONE', 'WORKASPACE' ) );
#190 = CIRCLE ( 'NONE', #203, 0.1875000000000000278 ) ;
#191 = DIRECTION ( 'NONE',  ( 8.164311994315692567E-17, 1.000000000000000000, -0.000000000000000000 ) ) ;
#192 = LENGTH_MEASURE_WITH_UNIT ( LENGTH_MEASURE( 0.02539999999999999897 ), #293 );
#193 = VERTEX_POINT ( 'NONE', #175 ) ;
#194 = ADVANCED_FACE ( 'NONE', ( #15 ), #251, .T. ) ;
#195 =( GEOMETRIC_REPRESENTATION_CONTEXT ( 3 ) GLOBAL_UNCERTAINTY_ASSIGNED_CONTEXT ( ( #216 ) ) GLOBAL_UNIT_ASSIGNED_CONTEXT ( ( #167, #138, #84 ) ) REPRESENTATION_CONTEXT ( 'NONE', 'WORKASPACE' ) );
#196 =( LENGTH_UNIT ( ) NAMED_UNIT ( * ) SI_UNIT ( $, .METRE. ) );
#197 = DIRECTION ( 'NONE',  ( 8.164311994315692567E-17, 1.000000000000000000, -0.000000000000000000 ) ) ;
#198 = COLOUR_RGB ( '',0.7921568627450980005, 0.8196078431372548767, 0.9333333333333333481 ) ;
#199 = VECTOR ( 'NONE', #297, 39.37007874015748143 ) ;
#200 = CIRCLE ( 'NONE', #10, 0.1875000000000000278 ) ;
#201 = DIRECTION ( 'NONE',  ( 0.000000000000000000, 1.000000000000000000, 0.000000000000000000 ) ) ;
#202 = AXIS2_PLACEMENT_3D ( 'NONE', #68, #113, #72 ) ;
#203 = AXIS2_PLACEMENT_3D ( 'NONE', #36, #125, #80 ) ;
#204 = VERTEX_POINT ( 'NONE', #76 ) ;
#205 = SURFACE_SIDE_STYLE ('',( #126 ) ) ;
#206 = ORIENTED_EDGE ( 'NONE', *, *, #120, .T. ) ;
#207 = SURFACE_STYLE_FILL_AREA ( #41 ) ;
#208 = CARTESIAN_POINT ( 'NONE',  ( 0.000000000000000000, 0.000000000000000000, -0.1875000000000000278 ) ) ;
#209 = STYLED_ITEM ( 'NONE', ( #258 ), #256 ) ;
#210 =( NAMED_UNIT ( * ) PLANE_ANGLE_UNIT ( ) SI_UNIT ( $, .RADIAN. ) );
#211 = EDGE_CURVE ( 'NONE', #1, #186, #74, .T. ) ;
#212 = UNCERTAINTY_MEASURE_WITH_UNIT (LENGTH_MEASURE( 1.000000000000000082E-05 ), #60, 'distance_accuracy_value', 'NONE');
#213 = LINE ( 'NONE', #143, #288 ) ;
#214 =( LENGTH_UNIT ( ) NAMED_UNIT ( * ) SI_UNIT ( $, .METRE. ) );
#215 = EDGE_CURVE ( 'NONE', #204, #134, #111, .T. ) ;
#216 = UNCERTAINTY_MEASURE_WITH_UNIT (LENGTH_MEASURE( 1.000000000000000082E-05 ), #167, 'distance_accuracy_value', 'NONE');
#217 = CIRCLE ( 'NONE', #27, 0.1874999999999998890 ) ;
#218 = APPLICATION_PROTOCOL_DEFINITION ( 'draft international standard', 'automotive_design', 1998, #107 ) ;
#219 = ADVANCED_FACE ( 'NONE', ( #77 ), #53, .T. ) ;
#220 = DIRECTION ( 'NONE',  ( 8.164311994315692567E-17, 1.000000000000000000, -0.000000000000000000 ) ) ;
#221 = AXIS2_PLACEMENT_3D ( 'NONE', #178, #14, #306 ) ;
#222 = DIRECTION ( 'NONE',  ( 8.164311994315692567E-17, 1.000000000000000000, -0.000000000000000000 ) ) ;
#223 = DIRECTION ( 'NONE',  ( 0.000000000000000000, 0.000000000000000000, -1.000000000000000000 ) ) ;
#224 = MECHANICAL_DESIGN_GEOMETRIC_PRESENTATION_REPRESENTATION (  '', ( #106 ), #12 ) ;
#225 = MECHANICAL_DESIGN_GEOMETRIC_PRESENTATION_REPRESENTATION (  '', ( #209 ), #257 ) ;
#226 = DIRECTION ( 'NONE',  ( -0.000000000000000000, -1.000000000000000000, -0.000000000000000000 ) ) ;
#227 = DIRECTION ( 'NONE',  ( 8.164311994315692567E-17, 1.000000000000000000, -0.000000000000000000 ) ) ;
#228 = ORIENTED_EDGE ( 'NONE', *, *, #124, .F. ) ;
#229 = DIRECTION ( 'NONE',  ( 0.000000000000000000, 0.000000000000000000, -1.000000000000000000 ) ) ;
#230 = DIRECTION ( 'NONE',  ( -1.000000000000000000, 8.164311994315692567E-17, 0.000000000000000000 ) ) ;
#231 = UNCERTAINTY_MEASURE_WITH_UNIT (LENGTH_MEASURE( 1.000000000000000082E-05 ), #117, 'distance_accuracy_value', 'NONE');
#232 = SURFACE_STYLE_USAGE ( .BOTH. , #23 ) ;
#233 =( CONVERSION_BASED_UNIT ( 'INCH', #132 ) LENGTH_UNIT ( ) NAMED_UNIT ( #131 ) );
#234 = EDGE_LOOP ( 'NONE', ( #163, #159 ) ) ;
#235 = CARTESIAN_POINT ( 'NONE',  ( 2.296212748401287726E-17, 0.000000000000000000, 0.1875000000000000278 ) ) ;
#236 = SURFACE_SIDE_STYLE ('',( #238 ) ) ;
#237 = EDGE_LOOP ( 'NONE', ( #182, #259 ) ) ;
#238 = SURFACE_STYLE_FILL_AREA ( #291 ) ;
#239 = EDGE_CURVE ( 'NONE', #81, #193, #190, .T. ) ;
#240 = PRESENTATION_LAYER_ASSIGNMENT (  '', '', ( #261 ) ) ;
#241 =( GEOMETRIC_REPRESENTATION_CONTEXT ( 3 ) GLOBAL_UNCERTAINTY_ASSIGNED_CONTEXT ( ( #212 ) ) GLOBAL_UNIT_ASSIGNED_CONTEXT ( ( #60, #158, #150 ) ) REPRESENTATION_CONTEXT ( 'NONE', 'WORKASPACE' ) );
#242 = PLANE ( 'NONE',  #202 ) ;
#243 =( LENGTH_UNIT ( ) NAMED_UNIT ( * ) SI_UNIT ( $, .METRE. ) );
#244 = DIRECTION ( 'NONE',  ( -0.000000000000000000, -1.000000000000000000, -0.000000000000000000 ) ) ;
#245 = PRODUCT_DEFINITION ( 'UNKNOWN', '', #102, #3 ) ;
#246 = MANIFOLD_SOLID_BREP ( 'Revolve - Cutting Edge', #170 ) ;
#247 = FACE_OUTER_BOUND ( 'NONE', #234, .T. ) ;
#248 = CARTESIAN_POINT ( 'NONE',  ( 0.000000000000000000, 0.000000000000000000, 0.000000000000000000 ) ) ;
#249 = AXIS2_PLACEMENT_3D ( 'NONE', #299, #28, #271 ) ;
#250 = FILL_AREA_STYLE_COLOUR ( '', #183 ) ;
#251 = CYLINDRICAL_SURFACE ( 'NONE', #174, 0.1874999999999999445 ) ;
#252 = ADVANCED_FACE ( 'NONE', ( #37 ), #179, .F. ) ;
#253 = AXIS2_PLACEMENT_3D ( 'NONE', #149, #274, #223 ) ;
#254 =( GEOMETRIC_REPRESENTATION_CONTEXT ( 3 ) GLOBAL_UNCERTAINTY_ASSIGNED_CONTEXT ( ( #39 ) ) GLOBAL_UNIT_ASSIGNED_CONTEXT ( ( #233, #21, #105 ) ) REPRESENTATION_CONTEXT ( 'NONE', 'WORKASPACE' ) );
#255 = CYLINDRICAL_SURFACE ( 'NONE', #307, 0.1875000000000000278 ) ;
#256 = MANIFOLD_SOLID_BREP ( 'Revolve - Tool Body (Straight Shanked)', #151 ) ;
#257 =( GEOMETRIC_REPRESENTATION_CONTEXT ( 3 ) GLOBAL_UNCERTAINTY_ASSIGNED_CONTEXT ( ( #115 ) ) GLOBAL_UNIT_ASSIGNED_CONTEXT ( ( #296, #210, #172 ) ) REPRESENTATION_CONTEXT ( 'NONE', 'WORKASPACE' ) );
#258 = PRESENTATION_STYLE_ASSIGNMENT (( #42 ) ) ;
#259 = ORIENTED_EDGE ( 'NONE', *, *, #130, .F. ) ;
#260 = CARTESIAN_POINT ( 'NONE',  ( 0.000000000000000000, 0.000000000000000000, 0.000000000000000000 ) ) ;
#261 = STYLED_ITEM ( 'NONE', ( #112 ), #135 ) ;
#262 = FILL_AREA_STYLE_COLOUR ( '', #128 ) ;
#263 = ORIENTED_EDGE ( 'NONE', *, *, #120, .F. ) ;
#264 = ADVANCED_FACE ( 'NONE', ( #49 ), #181, .T. ) ;
#265 = CARTESIAN_POINT ( 'NONE',  ( -0.1875000000000000278, 0.5000000000000001110, 0.000000000000000000 ) ) ;
#266 = MECHANICAL_DESIGN_GEOMETRIC_PRESENTATION_REPRESENTATION (  '', ( #17 ), #254 ) ;
#267 = SURFACE_STYLE_FILL_AREA ( #292 ) ;
#268 = EDGE_CURVE ( 'NONE', #193, #81, #200, .T. ) ;
#269 = CARTESIAN_POINT ( 'NONE',  ( 1.224646799147353700E-16, 2.000000000000000000, 0.000000000000000000 ) ) ;
#270 = PRODUCT_CONTEXT ( 'NONE', #107, 'mechanical' ) ;
#271 = DIRECTION ( 'NONE',  ( -1.000000000000000000, 0.000000000000000000, 0.000000000000000000 ) ) ;
#272 = DIRECTION ( 'NONE',  ( 0.000000000000000000, 0.000000000000000000, 1.000000000000000000 ) ) ;
#273 = CIRCLE ( 'NONE', #29, 0.1875000000000000278 ) ;
#274 = DIRECTION ( 'NONE',  ( -0.000000000000000000, -1.000000000000000000, -0.000000000000000000 ) ) ;
#275 = EDGE_CURVE ( 'NONE', #7, #19, #273, .T. ) ;
#276 = DIMENSIONAL_EXPONENTS ( 1.000000000000000000, 0.000000000000000000, 0.000000000000000000, 0.000000000000000000, 0.000000000000000000, 0.000000000000000000, 0.000000000000000000 ) ;
#277 = DIRECTION ( 'NONE',  ( -1.000000000000000000, 0.000000000000000000, 0.000000000000000000 ) ) ;
#278 =( NAMED_UNIT ( * ) PLANE_ANGLE_UNIT ( ) SI_UNIT ( $, .RADIAN. ) );
#279 = FILL_AREA_STYLE_COLOUR ( '', #198 ) ;
#280 = LENGTH_MEASURE_WITH_UNIT ( LENGTH_MEASURE( 0.02539999999999999897 ), #287 );
#281 = ORIENTED_EDGE ( 'NONE', *, *, #153, .T. ) ;
#282 = FILL_AREA_STYLE ('',( #63 ) ) ;
#283 = ORIENTED_EDGE ( 'NONE', *, *, #268, .T. ) ;
#284 = SURFACE_STYLE_USAGE ( .BOTH. , #205 ) ;
#285 = EDGE_LOOP ( 'NONE', ( #283, #160, #263, #228 ) ) ;
#286 = DIRECTION ( 'NONE',  ( -0.000000000000000000, -1.000000000000000000, -0.000000000000000000 ) ) ;
#287 =( LENGTH_UNIT ( ) NAMED_UNIT ( * ) SI_UNIT ( $, .METRE. ) );
#288 = VECTOR ( 'NONE', #9, 39.37007874015748143 ) ;
#289 = CARTESIAN_POINT ( 'NONE',  ( 0.000000000000000000, 0.5000000000000000000, 0.000000000000000000 ) ) ;
#290 = PRESENTATION_LAYER_ASSIGNMENT (  '', '', ( #122 ) ) ;
#291 = FILL_AREA_STYLE ('',( #262 ) ) ;
#292 = FILL_AREA_STYLE ('',( #250 ) ) ;
#293 =( LENGTH_UNIT ( ) NAMED_UNIT ( * ) SI_UNIT ( $, .METRE. ) );
#294 = FACE_OUTER_BOUND ( 'NONE', #309, .T. ) ;
#295 = EDGE_CURVE ( 'NONE', #81, #7, #184, .T. ) ;
#296 =( CONVERSION_BASED_UNIT ( 'INCH', #136 ) LENGTH_UNIT ( ) NAMED_UNIT ( #54 ) );
#297 = DIRECTION ( 'NONE',  ( -0.000000000000000000, -1.000000000000000000, -0.000000000000000000 ) ) ;
#298 =( CONVERSION_BASED_UNIT ( 'INCH', #92 ) LENGTH_UNIT ( ) NAMED_UNIT ( #276 ) );
#299 = CARTESIAN_POINT ( 'NONE',  ( 0.000000000000000000, 0.5000000000000001110, 0.000000000000000000 ) ) ;
#300 = DIRECTION ( 'NONE',  ( 1.000000000000000000, 0.000000000000000000, 0.000000000000000000 ) ) ;
#301 = AXIS2_PLACEMENT_3D ( 'NONE', #260, #58, #62 ) ;
#302 = SURFACE_STYLE_USAGE ( .BOTH. , #145 ) ;
#303 = DIRECTION ( 'NONE',  ( -0.000000000000000000, -1.000000000000000000, -0.000000000000000000 ) ) ;
#304 = ADVANCED_FACE ( 'NONE', ( #8 ), #2, .T. ) ;
#305 = DIRECTION ( 'NONE',  ( 0.000000000000000000, 0.000000000000000000, -1.000000000000000000 ) ) ;
#306 = DIRECTION ( 'NONE',  ( -1.000000000000000000, 0.000000000000000000, 0.000000000000000000 ) ) ;
#307 = AXIS2_PLACEMENT_3D ( 'NONE', #78, #303, #305 ) ;
#308 = AXIS2_PLACEMENT_3D ( 'NONE', #129, #227, #230 ) ;
#309 = EDGE_LOOP ( 'NONE', ( #18, #180, #24, #142 ) ) ;
ENDSEC;
END-ISO-10303-21;
