ISO-10303-21;
HEADER;
FILE_DESCRIPTION (( 'STEP AP214' ),
    '1' );
FILE_NAME ('Micro_SFPM-060-30.STEP',
    '2021-09-02T07:23:46',
    ( '' ),
    ( '' ),
    'SwSTEP 2.0',
    'SolidWorks 2020',
    '' );
FILE_SCHEMA (( 'AUTOMOTIVE_DESIGN' ));
ENDSEC;

DATA;
#1 = FACE_OUTER_BOUND ( 'NONE', #229, .T. ) ;
#2 = ORIENTED_EDGE ( 'NONE', *, *, #235, .F. ) ;
#3 = EDGE_CURVE ( 'NONE', #157, #164, #14, .T. ) ;
#4 = EDGE_LOOP ( 'NONE', ( #152, #39, #27, #52 ) ) ;
#5 = CIRCLE ( 'NONE', #202, 0.1031099999999991607 ) ;
#6 = PRODUCT_DEFINITION_FORMATION_WITH_SPECIFIED_SOURCE ( 'ANY', '', #144, .NOT_KNOWN. ) ;
#7 = ORIENTED_EDGE ( 'NONE', *, *, #262, .F. ) ;
#8 = FACE_OUTER_BOUND ( 'NONE', #233, .T. ) ;
#9 = DIRECTION ( 'NONE',  ( 1.000000000000000000, 0.0000000000000000000, 0.0000000000000000000 ) ) ;
#10 = ORIENTED_EDGE ( 'NONE', *, *, #292, .T. ) ;
#11 = AXIS2_PLACEMENT_3D ( 'NONE', #274, #296, #297 ) ;
#12 = DIRECTION ( 'NONE',  ( -1.000000000000000000, 0.0000000000000000000, 0.0000000000000000000 ) ) ;
#13 = VECTOR ( 'NONE', #184, 39.37007874015748143 ) ;
#14 = CIRCLE ( 'NONE', #167, 0.1031099999999991607 ) ;
#15 = DIRECTION ( 'NONE',  ( 1.000000000000000000, 0.0000000000000000000, -0.0000000000000000000 ) ) ;
#16 = CARTESIAN_POINT ( 'NONE',  ( 0.0000000000000000000, 0.0000000000000000000, 2.952755999999999936 ) ) ;
#17 = ADVANCED_FACE ( 'NONE', ( #8 ), #101, .T. ) ;
#18 = SURFACE_STYLE_FILL_AREA ( #276 ) ;
#19 = AXIS2_PLACEMENT_3D ( 'NONE', #206, #25, #259 ) ;
#20 = DIRECTION ( 'NONE',  ( -1.000000000000000000, 0.0000000000000000000, 0.0000000000000000000 ) ) ;
#21 = SURFACE_STYLE_USAGE ( .BOTH. , #201 ) ;
#22 = CARTESIAN_POINT ( 'NONE',  ( 0.1179918899999999882, 1.444983904138465938E-17, 0.0000000000000000000 ) ) ;
#23 = LINE ( 'NONE', #163, #13 ) ;
#24 = EDGE_CURVE ( 'NONE', #210, #123, #221, .T. ) ;
#25 = DIRECTION ( 'NONE',  ( -1.224646799147353207E-16, -0.0000000000000000000, -1.000000000000000000 ) ) ;
#26 = PRODUCT_DEFINITION_CONTEXT ( 'detailed design', #43, 'design' ) ;
#27 = ORIENTED_EDGE ( 'NONE', *, *, #280, .T. ) ;
#28 = DIRECTION ( 'NONE',  ( -1.224646799147353207E-16, -0.0000000000000000000, -1.000000000000000000 ) ) ;
#29 = ORIENTED_EDGE ( 'NONE', *, *, #57, .T. ) ;
#30 = SURFACE_STYLE_USAGE ( .BOTH. , #279 ) ;
#31 = ORIENTED_EDGE ( 'NONE', *, *, #82, .F. ) ;
#32 = EDGE_LOOP ( 'NONE', ( #260, #258, #170, #78 ) ) ;
#33 = EDGE_CURVE ( 'NONE', #187, #212, #277, .T. ) ;
#34 = AXIS2_PLACEMENT_3D ( 'NONE', #84, #289, #130 ) ;
#35 = DIRECTION ( 'NONE',  ( -0.0000000000000000000, -0.0000000000000000000, -1.000000000000000000 ) ) ;
#36 = DIRECTION ( 'NONE',  ( 0.0000000000000000000, 0.0000000000000000000, 1.000000000000000000 ) ) ;
#37 = DIRECTION ( 'NONE',  ( 1.000000000000000000, 0.0000000000000000000, 0.0000000000000000000 ) ) ;
#38 = AXIS2_PLACEMENT_3D ( 'NONE', #263, #35, #171 ) ;
#39 = ORIENTED_EDGE ( 'NONE', *, *, #271, .T. ) ;
#40 =( GEOMETRIC_REPRESENTATION_CONTEXT ( 3 ) GLOBAL_UNCERTAINTY_ASSIGNED_CONTEXT ( ( #256 ) ) GLOBAL_UNIT_ASSIGNED_CONTEXT ( ( #231, #213, #181 ) ) REPRESENTATION_CONTEXT ( 'NONE', 'WORKASPACE' ) );
#41 = DIRECTION ( 'NONE',  ( 0.0000000000000000000, 0.0000000000000000000, -1.000000000000000000 ) ) ;
#42 = DIRECTION ( 'NONE',  ( 0.1736481776669314414, 0.0000000000000000000, 0.9848077530122077983 ) ) ;
#43 = APPLICATION_CONTEXT ( 'automotive_design' ) ;
#44 = DIMENSIONAL_EXPONENTS ( 1.000000000000000000, 0.0000000000000000000, 0.0000000000000000000, 0.0000000000000000000, 0.0000000000000000000, 0.0000000000000000000, 0.0000000000000000000 ) ;
#45 = LENGTH_MEASURE_WITH_UNIT ( LENGTH_MEASURE( 0.02539999999999999897 ), #110 );
#46 = LINE ( 'NONE', #135, #288 ) ;
#47 = DIRECTION ( 'NONE',  ( -1.224646799147353207E-16, -0.0000000000000000000, -1.000000000000000000 ) ) ;
#48 = VECTOR ( 'NONE', #220, 39.37007874015748143 ) ;
#49 = AXIS2_PLACEMENT_3D ( 'NONE', #242, #240, #193 ) ;
#50 = EDGE_CURVE ( 'NONE', #87, #126, #230, .T. ) ;
#51 =( NAMED_UNIT ( * ) PLANE_ANGLE_UNIT ( ) SI_UNIT ( $, .RADIAN. ) );
#52 = ORIENTED_EDGE ( 'NONE', *, *, #153, .F. ) ;
#53 = LENGTH_MEASURE_WITH_UNIT ( LENGTH_MEASURE( 0.02539999999999999897 ), #77 );
#54 = CONICAL_SURFACE ( 'NONE', #92, 0.1179918899999999882, 0.1745329251994339470 ) ;
#55 = ORIENTED_EDGE ( 'NONE', *, *, #295, .T. ) ;
#56 = FILL_AREA_STYLE ('',( #188 ) ) ;
#57 = EDGE_CURVE ( 'NONE', #195, #265, #127, .T. ) ;
#58 = ORIENTED_EDGE ( 'NONE', *, *, #24, .F. ) ;
#59 = ORIENTED_EDGE ( 'NONE', *, *, #165, .T. ) ;
#60 = AXIS2_PLACEMENT_3D ( 'NONE', #244, #41, #12 ) ;
#61 = CARTESIAN_POINT ( 'NONE',  ( 0.0000000000000000000, 0.0000000000000000000, 2.937755999999999368 ) ) ;
#62 = ORIENTED_EDGE ( 'NONE', *, *, #165, .F. ) ;
#63 = DIRECTION ( 'NONE',  ( -1.224646799147353207E-16, -0.0000000000000000000, -1.000000000000000000 ) ) ;
#64 = AXIS2_PLACEMENT_3D ( 'NONE', #137, #47, #20 ) ;
#65 = LINE ( 'NONE', #131, #48 ) ;
#66 = CYLINDRICAL_SURFACE ( 'NONE', #38, 0.1181100000000000066 ) ;
#67 = DIRECTION ( 'NONE',  ( -1.000000000000000000, 0.0000000000000000000, 1.224646799147353454E-16 ) ) ;
#68 = LINE ( 'NONE', #113, #197 ) ;
#69 = AXIS2_PLACEMENT_3D ( 'NONE', #155, #222, #15 ) ;
#70 = ADVANCED_FACE ( 'NONE', ( #287 ), #291, .T. ) ;
#71 = CARTESIAN_POINT ( 'NONE',  ( 0.1179918900000001686, 0.0000000000000000000, 1.377952999999999983 ) ) ;
#72 = CARTESIAN_POINT ( 'NONE',  ( 0.1181100000000000066, 1.446430334472939084E-17, 2.937755999999999368 ) ) ;
#73 = DIRECTION ( 'NONE',  ( -1.000000000000000000, 0.0000000000000000000, 0.0000000000000000000 ) ) ;
#74 = ADVANCED_FACE ( 'NONE', ( #102 ), #169, .F. ) ;
#75 = MECHANICAL_DESIGN_GEOMETRIC_PRESENTATION_REPRESENTATION (  '', ( #273 ), #281 ) ;
#76 = AXIS2_PLACEMENT_3D ( 'NONE', #138, #79, #9 ) ;
#77 =( LENGTH_UNIT ( ) NAMED_UNIT ( * ) SI_UNIT ( $, .METRE. ) );
#78 = ORIENTED_EDGE ( 'NONE', *, *, #292, .F. ) ;
#79 = DIRECTION ( 'NONE',  ( 0.0000000000000000000, 0.0000000000000000000, 1.000000000000000000 ) ) ;
#80 = DIRECTION ( 'NONE',  ( 1.000000000000000000, 0.0000000000000000000, 0.0000000000000000000 ) ) ;
#81 = ORIENTED_EDGE ( 'NONE', *, *, #295, .F. ) ;
#82 = EDGE_CURVE ( 'NONE', #157, #265, #88, .T. ) ;
#83 = EDGE_LOOP ( 'NONE', ( #7, #215, #185, #122 ) ) ;
#84 = CARTESIAN_POINT ( 'NONE',  ( 1.769594913022618037E-33, 0.0000000000000000000, 1.444983904138465938E-17 ) ) ;
#85 = ADVANCED_FACE ( 'NONE', ( #172 ), #66, .T. ) ;
#86 = AXIS2_PLACEMENT_3D ( 'NONE', #294, #36, #129 ) ;
#87 = VERTEX_POINT ( 'NONE', #267 ) ;
#88 = LINE ( 'NONE', #108, #99 ) ;
#89 = DIRECTION ( 'NONE',  ( -1.224646799147353207E-16, -0.0000000000000000000, -1.000000000000000000 ) ) ;
#90 = DIRECTION ( 'NONE',  ( 0.0000000000000000000, 0.0000000000000000000, -1.000000000000000000 ) ) ;
#91 = CARTESIAN_POINT ( 'NONE',  ( -0.1031099999999991607, 0.0000000000000000000, 2.952755999999999936 ) ) ;
#92 = AXIS2_PLACEMENT_3D ( 'NONE', #299, #93, #275 ) ;
#93 = DIRECTION ( 'NONE',  ( 1.224646799147353207E-16, 0.0000000000000000000, 1.000000000000000000 ) ) ;
#94 = DIRECTION ( 'NONE',  ( 1.000000000000000000, 0.0000000000000000000, 0.0000000000000000000 ) ) ;
#95 = CONICAL_SURFACE ( 'NONE', #60, 0.1031099999999991607, 0.7853981633974500554 ) ;
#96 = APPLICATION_PROTOCOL_DEFINITION ( 'draft international standard', 'automotive_design', 1998, #196 ) ;
#97 = PRESENTATION_STYLE_ASSIGNMENT (( #30 ) ) ;
#98 = ORIENTED_EDGE ( 'NONE', *, *, #128, .F. ) ;
#99 = VECTOR ( 'NONE', #241, 39.37007874015748854 ) ;
#100 =( CONVERSION_BASED_UNIT ( 'INCH', #255 ) LENGTH_UNIT ( ) NAMED_UNIT ( #44 ) );
#101 = CYLINDRICAL_SURFACE ( 'NONE', #214, 0.1181100000000000066 ) ;
#102 = FACE_OUTER_BOUND ( 'NONE', #261, .T. ) ;
#103 = AXIS2_PLACEMENT_3D ( 'NONE', #298, #270, #224 ) ;
#104 =( GEOMETRIC_REPRESENTATION_CONTEXT ( 3 ) GLOBAL_UNCERTAINTY_ASSIGNED_CONTEXT ( ( #117 ) ) GLOBAL_UNIT_ASSIGNED_CONTEXT ( ( #100, #51, #186 ) ) REPRESENTATION_CONTEXT ( 'NONE', 'WORKASPACE' ) );
#105 = DIRECTION ( 'NONE',  ( -0.0000000000000000000, -0.0000000000000000000, -1.000000000000000000 ) ) ;
#106 = DIRECTION ( 'NONE',  ( 0.0000000000000000000, 0.0000000000000000000, 1.000000000000000000 ) ) ;
#107 = EDGE_CURVE ( 'NONE', #265, #195, #132, .T. ) ;
#108 = CARTESIAN_POINT ( 'NONE',  ( -0.1031099999999991607, 0.0000000000000000000, 2.952755999999999936 ) ) ;
#109 = AXIS2_PLACEMENT_3D ( 'NONE', #209, #28, #80 ) ;
#110 =( LENGTH_UNIT ( ) NAMED_UNIT ( * ) SI_UNIT ( $, .METRE. ) );
#111 = CARTESIAN_POINT ( 'NONE',  ( -0.1179918899999999882, 0.0000000000000000000, 2.889967808276931875E-17 ) ) ;
#112 = DIMENSIONAL_EXPONENTS ( 1.000000000000000000, 0.0000000000000000000, 0.0000000000000000000, 0.0000000000000000000, 0.0000000000000000000, 0.0000000000000000000, 0.0000000000000000000 ) ;
#113 = CARTESIAN_POINT ( 'NONE',  ( 0.1179918899999999882, 1.444983904138465938E-17, -1.444983904138465938E-17 ) ) ;
#114 = VECTOR ( 'NONE', #42, 39.37007874015748143 ) ;
#115 = LINE ( 'NONE', #203, #114 ) ;
#116 = EDGE_CURVE ( 'NONE', #195, #210, #65, .T. ) ;
#117 = UNCERTAINTY_MEASURE_WITH_UNIT (LENGTH_MEASURE( 1.000000000000000082E-05 ), #100, 'distance_accuracy_value', 'NONE');
#118 = ORIENTED_EDGE ( 'NONE', *, *, #33, .T. ) ;
#119 = CARTESIAN_POINT ( 'NONE',  ( -0.1181100000000000066, 0.0000000000000000000, 2.952755999999999936 ) ) ;
#120 = DIRECTION ( 'NONE',  ( 0.7071067811865486830, 8.659560562354947649E-17, -0.7071067811865462405 ) ) ;
#121 = ADVANCED_FACE ( 'NONE', ( #158 ), #95, .T. ) ;
#122 = ORIENTED_EDGE ( 'NONE', *, *, #57, .F. ) ;
#123 = VERTEX_POINT ( 'NONE', #223 ) ;
#124 = SURFACE_STYLE_FILL_AREA ( #56 ) ;
#125 = UNCERTAINTY_MEASURE_WITH_UNIT (LENGTH_MEASURE( 1.000000000000000082E-05 ), #252, 'distance_accuracy_value', 'NONE');
#126 = VERTEX_POINT ( 'NONE', #71 ) ;
#127 = CIRCLE ( 'NONE', #49, 0.1181100000000000066 ) ;
#128 = EDGE_CURVE ( 'NONE', #87, #212, #46, .T. ) ;
#129 = DIRECTION ( 'NONE',  ( 1.000000000000000000, 0.0000000000000000000, -0.0000000000000000000 ) ) ;
#130 = DIRECTION ( 'NONE',  ( -1.000000000000000000, 0.0000000000000000000, 1.224646799147353454E-16 ) ) ;
#131 = CARTESIAN_POINT ( 'NONE',  ( 0.1181100000000000066, 1.446430334472939084E-17, 2.952755999999999936 ) ) ;
#132 = CIRCLE ( 'NONE', #248, 0.1181100000000000066 ) ;
#133 = CARTESIAN_POINT ( 'NONE',  ( 1.687505730825492758E-16, 0.0000000000000000000, 1.377952999999999983 ) ) ;
#134 = ORIENTED_EDGE ( 'NONE', *, *, #235, .T. ) ;
#135 = CARTESIAN_POINT ( 'NONE',  ( -0.1179918899999999882, 0.0000000000000000000, 1.444983904138465938E-17 ) ) ;
#136 = CIRCLE ( 'NONE', #19, 0.1179918899999999882 ) ;
#137 = CARTESIAN_POINT ( 'NONE',  ( 1.687505730825492758E-16, 0.0000000000000000000, 1.377952999999999983 ) ) ;
#138 = CARTESIAN_POINT ( 'NONE',  ( 0.0000000000000000000, 0.0000000000000000000, 0.0000000000000000000 ) ) ;
#139 = FACE_OUTER_BOUND ( 'NONE', #4, .T. ) ;
#140 = CARTESIAN_POINT ( 'NONE',  ( 0.0000000000000000000, 0.0000000000000000000, 2.952755999999999936 ) ) ;
#141 = CIRCLE ( 'NONE', #64, 0.1179918899999999882 ) ;
#142 = PRESENTATION_LAYER_ASSIGNMENT (  '', '', ( #216 ) ) ;
#143 = LINE ( 'NONE', #119, #254 ) ;
#144 = PRODUCT ( 'Micro_SFPM-060-30', 'Micro_SFPM-060-30', '', ( #175 ) ) ;
#145 = ADVANCED_FACE ( 'NONE', ( #139 ), #160, .T. ) ;
#146 = LINE ( 'NONE', #211, #232 ) ;
#147 = ORIENTED_EDGE ( 'NONE', *, *, #128, .T. ) ;
#148 = AXIS2_PLACEMENT_3D ( 'NONE', #133, #63, #154 ) ;
#149 = CARTESIAN_POINT ( 'NONE',  ( -0.1181100000000000066, 0.0000000000000000000, 2.937755999999999368 ) ) ;
#150 = ORIENTED_EDGE ( 'NONE', *, *, #153, .T. ) ;
#151 = EDGE_LOOP ( 'NONE', ( #2, #194, #189, #31 ) ) ;
#152 = ORIENTED_EDGE ( 'NONE', *, *, #50, .F. ) ;
#153 = EDGE_CURVE ( 'NONE', #126, #210, #115, .T. ) ;
#154 = DIRECTION ( 'NONE',  ( -1.000000000000000000, 0.0000000000000000000, 0.0000000000000000000 ) ) ;
#155 = CARTESIAN_POINT ( 'NONE',  ( 0.0000000000000000000, 0.0000000000000000000, 2.952755999999999936 ) ) ;
#156 = MANIFOLD_SOLID_BREP ( 'Cut-Revolve1', #250 ) ;
#157 = VERTEX_POINT ( 'NONE', #91 ) ;
#158 = FACE_OUTER_BOUND ( 'NONE', #83, .T. ) ;
#159 = CARTESIAN_POINT ( 'NONE',  ( 0.1181100000000002009, 1.446430334472941242E-17, 1.378622835095714816 ) ) ;
#160 = CONICAL_SURFACE ( 'NONE', #103, 0.1179918899999999882, 0.1745329251994339470 ) ;
#161 = CYLINDRICAL_SURFACE ( 'NONE', #227, 0.1179918899999999882 ) ;
#162 = ADVANCED_FACE ( 'NONE', ( #176 ), #199, .T. ) ;
#163 = CARTESIAN_POINT ( 'NONE',  ( -0.1179918899999998216, 1.444983904138465938E-17, 1.377952999999999983 ) ) ;
#164 = VERTEX_POINT ( 'NONE', #174 ) ;
#165 = EDGE_CURVE ( 'NONE', #126, #187, #68, .T. ) ;
#166 = ORIENTED_EDGE ( 'NONE', *, *, #3, .T. ) ;
#167 = AXIS2_PLACEMENT_3D ( 'NONE', #269, #106, #191 ) ;
#168 = ORIENTED_EDGE ( 'NONE', *, *, #205, .T. ) ;
#169 = PLANE ( 'NONE',  #86 ) ;
#170 = ORIENTED_EDGE ( 'NONE', *, *, #280, .F. ) ;
#171 = DIRECTION ( 'NONE',  ( -1.000000000000000000, 0.0000000000000000000, 0.0000000000000000000 ) ) ;
#172 = FACE_OUTER_BOUND ( 'NONE', #32, .T. ) ;
#173 = EDGE_LOOP ( 'NONE', ( #166, #134 ) ) ;
#174 = CARTESIAN_POINT ( 'NONE',  ( 0.1031099999999991607, 1.354581824536882251E-17, 2.952755999999999936 ) ) ;
#175 = PRODUCT_CONTEXT ( 'NONE', #196, 'mechanical' ) ;
#176 = FACE_OUTER_BOUND ( 'NONE', #266, .T. ) ;
#177 = PRODUCT_DEFINITION ( 'UNKNOWN', '', #6, #26 ) ;
#178 =( NAMED_UNIT ( * ) PLANE_ANGLE_UNIT ( ) SI_UNIT ( $, .RADIAN. ) );
#179 = DIRECTION ( 'NONE',  ( -1.224646799147353207E-16, -0.0000000000000000000, -1.000000000000000000 ) ) ;
#180 = COLOUR_RGB ( '',0.7921568627450980005, 0.8196078431372548767, 0.9333333333333333481 ) ;
#181 =( NAMED_UNIT ( * ) SI_UNIT ( $, .STERADIAN. ) SOLID_ANGLE_UNIT ( ) );
#182 = MECHANICAL_DESIGN_GEOMETRIC_PRESENTATION_REPRESENTATION (  '', ( #216 ), #40 ) ;
#183 = ADVANCED_FACE ( 'NONE', ( #1 ), #54, .T. ) ;
#184 = DIRECTION ( 'NONE',  ( -0.1736481776669312194, 2.126576849575783625E-17, 0.9848077530122077983 ) ) ;
#185 = ORIENTED_EDGE ( 'NONE', *, *, #82, .T. ) ;
#186 =( NAMED_UNIT ( * ) SI_UNIT ( $, .STERADIAN. ) SOLID_ANGLE_UNIT ( ) );
#187 = VERTEX_POINT ( 'NONE', #22 ) ;
#188 = FILL_AREA_STYLE_COLOUR ( '', #217 ) ;
#189 = ORIENTED_EDGE ( 'NONE', *, *, #107, .F. ) ;
#190 = DIRECTION ( 'NONE',  ( 1.000000000000000000, 0.0000000000000000000, 0.0000000000000000000 ) ) ;
#191 = DIRECTION ( 'NONE',  ( 1.000000000000000000, 0.0000000000000000000, 0.0000000000000000000 ) ) ;
#192 = PRODUCT_RELATED_PRODUCT_CATEGORY ( 'part', '', ( #144 ) ) ;
#193 = DIRECTION ( 'NONE',  ( 1.000000000000000000, 0.0000000000000000000, 0.0000000000000000000 ) ) ;
#194 = ORIENTED_EDGE ( 'NONE', *, *, #262, .T. ) ;
#195 = VERTEX_POINT ( 'NONE', #72 ) ;
#196 = APPLICATION_CONTEXT ( 'automotive_design' ) ;
#197 = VECTOR ( 'NONE', #179, 39.37007874015748143 ) ;
#198 = ADVANCED_FACE ( 'NONE', ( #253 ), #161, .T. ) ;
#199 = CYLINDRICAL_SURFACE ( 'NONE', #11, 0.1179918899999999882 ) ;
#200 = DIRECTION ( 'NONE',  ( -1.224646799147353207E-16, -0.0000000000000000000, -1.000000000000000000 ) ) ;
#201 = SURFACE_SIDE_STYLE ('',( #18 ) ) ;
#202 = AXIS2_PLACEMENT_3D ( 'NONE', #140, #204, #94 ) ;
#203 = CARTESIAN_POINT ( 'NONE',  ( 0.1179918900000001686, 0.0000000000000000000, 1.377952999999999983 ) ) ;
#204 = DIRECTION ( 'NONE',  ( 0.0000000000000000000, 0.0000000000000000000, 1.000000000000000000 ) ) ;
#205 = EDGE_CURVE ( 'NONE', #126, #87, #141, .T. ) ;
#206 = CARTESIAN_POINT ( 'NONE',  ( 1.769594913022618037E-33, 0.0000000000000000000, 1.444983904138465938E-17 ) ) ;
#207 = ORIENTED_EDGE ( 'NONE', *, *, #116, .F. ) ;
#208 = DIRECTION ( 'NONE',  ( 0.0000000000000000000, 0.0000000000000000000, -1.000000000000000000 ) ) ;
#209 = CARTESIAN_POINT ( 'NONE',  ( 1.688326042231416859E-16, 0.0000000000000000000, 1.378622835095714816 ) ) ;
#210 = VERTEX_POINT ( 'NONE', #159 ) ;
#211 = CARTESIAN_POINT ( 'NONE',  ( 0.1031099999999991607, 1.262733314600825571E-17, 2.952755999999999936 ) ) ;
#212 = VERTEX_POINT ( 'NONE', #111 ) ;
#213 =( NAMED_UNIT ( * ) PLANE_ANGLE_UNIT ( ) SI_UNIT ( $, .RADIAN. ) );
#214 = AXIS2_PLACEMENT_3D ( 'NONE', #16, #105, #293 ) ;
#215 = ORIENTED_EDGE ( 'NONE', *, *, #3, .F. ) ;
#216 = STYLED_ITEM ( 'NONE', ( #97 ), #286 ) ;
#217 = COLOUR_RGB ( '',0.7921568627450980005, 0.8196078431372548767, 0.9333333333333333481 ) ;
#218 = ORIENTED_EDGE ( 'NONE', *, *, #50, .T. ) ;
#219 = ORIENTED_EDGE ( 'NONE', *, *, #205, .F. ) ;
#220 = DIRECTION ( 'NONE',  ( -0.0000000000000000000, -0.0000000000000000000, -1.000000000000000000 ) ) ;
#221 = CIRCLE ( 'NONE', #243, 0.1181100000000000066 ) ;
#222 = DIRECTION ( 'NONE',  ( 0.0000000000000000000, 0.0000000000000000000, 1.000000000000000000 ) ) ;
#223 = CARTESIAN_POINT ( 'NONE',  ( -0.1181099999999998401, 0.0000000000000000000, 1.378622835095714816 ) ) ;
#224 = DIRECTION ( 'NONE',  ( 1.000000000000000000, 0.0000000000000000000, 0.0000000000000000000 ) ) ;
#225 = CARTESIAN_POINT ( 'NONE',  ( 0.0000000000000000000, 0.0000000000000000000, 0.0000000000000000000 ) ) ;
#226 = DIRECTION ( 'NONE',  ( -1.224646799147353207E-16, -0.0000000000000000000, -1.000000000000000000 ) ) ;
#227 = AXIS2_PLACEMENT_3D ( 'NONE', #225, #200, #67 ) ;
#228 = PRESENTATION_STYLE_ASSIGNMENT (( #21 ) ) ;
#229 = EDGE_LOOP ( 'NONE', ( #278, #219, #150, #257 ) ) ;
#230 = CIRCLE ( 'NONE', #148, 0.1179918899999999882 ) ;
#231 =( CONVERSION_BASED_UNIT ( 'INCH', #53 ) LENGTH_UNIT ( ) NAMED_UNIT ( #246 ) );
#232 = VECTOR ( 'NONE', #120, 39.37007874015748854 ) ;
#233 = EDGE_LOOP ( 'NONE', ( #207, #29, #10, #58 ) ) ;
#234 =( LENGTH_UNIT ( ) NAMED_UNIT ( * ) SI_UNIT ( $, .METRE. ) );
#235 = EDGE_CURVE ( 'NONE', #164, #157, #5, .T. ) ;
#236 = DIRECTION ( 'NONE',  ( -0.0000000000000000000, -0.0000000000000000000, -1.000000000000000000 ) ) ;
#237 = ORIENTED_EDGE ( 'NONE', *, *, #33, .F. ) ;
#238 = CARTESIAN_POINT ( 'NONE',  ( 1.688326042231416859E-16, 0.0000000000000000000, 1.378622835095714816 ) ) ;
#239 = CIRCLE ( 'NONE', #109, 0.1181100000000000066 ) ;
#240 = DIRECTION ( 'NONE',  ( 0.0000000000000000000, 0.0000000000000000000, -1.000000000000000000 ) ) ;
#241 = DIRECTION ( 'NONE',  ( -0.7071067811865486830, 0.0000000000000000000, -0.7071067811865462405 ) ) ;
#242 = CARTESIAN_POINT ( 'NONE',  ( 0.0000000000000000000, 0.0000000000000000000, 2.937755999999999368 ) ) ;
#243 = AXIS2_PLACEMENT_3D ( 'NONE', #238, #89, #190 ) ;
#244 = CARTESIAN_POINT ( 'NONE',  ( 0.0000000000000000000, 0.0000000000000000000, 2.952755999999999936 ) ) ;
#245 = FACE_OUTER_BOUND ( 'NONE', #151, .T. ) ;
#246 = DIMENSIONAL_EXPONENTS ( 1.000000000000000000, 0.0000000000000000000, 0.0000000000000000000, 0.0000000000000000000, 0.0000000000000000000, 0.0000000000000000000, 0.0000000000000000000 ) ;
#247 =( NAMED_UNIT ( * ) SI_UNIT ( $, .STERADIAN. ) SOLID_ANGLE_UNIT ( ) );
#248 = AXIS2_PLACEMENT_3D ( 'NONE', #61, #90, #37 ) ;
#249 = ADVANCED_FACE ( 'NONE', ( #245 ), #264, .T. ) ;
#250 = CLOSED_SHELL ( 'NONE', ( #198, #145, #249, #85, #17, #70, #121, #183, #162, #74 ) ) ;
#251 = CARTESIAN_POINT ( 'NONE',  ( 0.0000000000000000000, 0.0000000000000000000, 2.952755999999999936 ) ) ;
#252 =( CONVERSION_BASED_UNIT ( 'INCH', #45 ) LENGTH_UNIT ( ) NAMED_UNIT ( #112 ) );
#253 = FACE_OUTER_BOUND ( 'NONE', #283, .T. ) ;
#254 = VECTOR ( 'NONE', #236, 39.37007874015748143 ) ;
#255 = LENGTH_MEASURE_WITH_UNIT ( LENGTH_MEASURE( 0.02539999999999999897 ), #234 );
#256 = UNCERTAINTY_MEASURE_WITH_UNIT (LENGTH_MEASURE( 1.000000000000000082E-05 ), #231, 'distance_accuracy_value', 'NONE');
#257 = ORIENTED_EDGE ( 'NONE', *, *, #24, .T. ) ;
#258 = ORIENTED_EDGE ( 'NONE', *, *, #116, .T. ) ;
#259 = DIRECTION ( 'NONE',  ( -1.000000000000000000, 0.0000000000000000000, 1.224646799147353454E-16 ) ) ;
#260 = ORIENTED_EDGE ( 'NONE', *, *, #107, .T. ) ;
#261 = EDGE_LOOP ( 'NONE', ( #55, #118 ) ) ;
#262 = EDGE_CURVE ( 'NONE', #164, #195, #146, .T. ) ;
#263 = CARTESIAN_POINT ( 'NONE',  ( 0.0000000000000000000, 0.0000000000000000000, 2.952755999999999936 ) ) ;
#264 = CONICAL_SURFACE ( 'NONE', #282, 0.1031099999999991607, 0.7853981633974500554 ) ;
#265 = VERTEX_POINT ( 'NONE', #149 ) ;
#266 = EDGE_LOOP ( 'NONE', ( #62, #168, #147, #237 ) ) ;
#267 = CARTESIAN_POINT ( 'NONE',  ( -0.1179918899999998216, 1.445707119305702357E-17, 1.377952999999999983 ) ) ;
#268 = PRESENTATION_LAYER_ASSIGNMENT (  '', '', ( #273 ) ) ;
#269 = CARTESIAN_POINT ( 'NONE',  ( 0.0000000000000000000, 0.0000000000000000000, 2.952755999999999936 ) ) ;
#270 = DIRECTION ( 'NONE',  ( 1.224646799147353207E-16, 0.0000000000000000000, 1.000000000000000000 ) ) ;
#271 = EDGE_CURVE ( 'NONE', #87, #123, #23, .T. ) ;
#272 = FILL_AREA_STYLE_COLOUR ( '', #180 ) ;
#273 = STYLED_ITEM ( 'NONE', ( #228 ), #156 ) ;
#274 = CARTESIAN_POINT ( 'NONE',  ( 0.0000000000000000000, 0.0000000000000000000, 0.0000000000000000000 ) ) ;
#275 = DIRECTION ( 'NONE',  ( 1.000000000000000000, 0.0000000000000000000, 0.0000000000000000000 ) ) ;
#276 = FILL_AREA_STYLE ('',( #272 ) ) ;
#277 = CIRCLE ( 'NONE', #34, 0.1179918899999999882 ) ;
#278 = ORIENTED_EDGE ( 'NONE', *, *, #271, .F. ) ;
#279 = SURFACE_SIDE_STYLE ('',( #124 ) ) ;
#280 = EDGE_CURVE ( 'NONE', #123, #210, #239, .T. ) ;
#281 =( GEOMETRIC_REPRESENTATION_CONTEXT ( 3 ) GLOBAL_UNCERTAINTY_ASSIGNED_CONTEXT ( ( #125 ) ) GLOBAL_UNIT_ASSIGNED_CONTEXT ( ( #252, #178, #247 ) ) REPRESENTATION_CONTEXT ( 'NONE', 'WORKASPACE' ) );
#282 = AXIS2_PLACEMENT_3D ( 'NONE', #251, #208, #73 ) ;
#283 = EDGE_LOOP ( 'NONE', ( #218, #59, #81, #98 ) ) ;
#284 = APPLICATION_PROTOCOL_DEFINITION ( 'draft international standard', 'automotive_design', 1998, #43 ) ;
#285 = PRODUCT_DEFINITION_SHAPE ( 'NONE', 'NONE',  #177 ) ;
#286 = ADVANCED_BREP_SHAPE_REPRESENTATION ( 'Micro_SFPM-060-30', ( #156, #76 ), #104 ) ;
#287 = FACE_OUTER_BOUND ( 'NONE', #173, .T. ) ;
#288 = VECTOR ( 'NONE', #226, 39.37007874015748143 ) ;
#289 = DIRECTION ( 'NONE',  ( -1.224646799147353207E-16, -0.0000000000000000000, -1.000000000000000000 ) ) ;
#290 = SHAPE_DEFINITION_REPRESENTATION ( #285, #286 ) ;
#291 = PLANE ( 'NONE',  #69 ) ;
#292 = EDGE_CURVE ( 'NONE', #265, #123, #143, .T. ) ;
#293 = DIRECTION ( 'NONE',  ( -1.000000000000000000, 0.0000000000000000000, 0.0000000000000000000 ) ) ;
#294 = CARTESIAN_POINT ( 'NONE',  ( 0.0000000000000000000, 0.0000000000000000000, 0.0000000000000000000 ) ) ;
#295 = EDGE_CURVE ( 'NONE', #212, #187, #136, .T. ) ;
#296 = DIRECTION ( 'NONE',  ( -1.224646799147353207E-16, -0.0000000000000000000, -1.000000000000000000 ) ) ;
#297 = DIRECTION ( 'NONE',  ( -1.000000000000000000, 0.0000000000000000000, 1.224646799147353454E-16 ) ) ;
#298 = CARTESIAN_POINT ( 'NONE',  ( 1.687505730825492758E-16, 0.0000000000000000000, 1.377952999999999983 ) ) ;
#299 = CARTESIAN_POINT ( 'NONE',  ( 1.687505730825492758E-16, 0.0000000000000000000, 1.377952999999999983 ) ) ;
ENDSEC;
END-ISO-10303-21;
