ISO-10303-21;
HEADER;
FILE_DESCRIPTION (( 'STEP AP214' ),
    '1' );
FILE_NAME ('59616.STEP',
    '2023-07-24T15:15:42',
    ( '' ),
    ( '' ),
    'SwSTEP 2.0',
    'SolidWorks 2023',
    '' );
FILE_SCHEMA (( 'AUTOMOTIVE_DESIGN' ));
ENDSEC;

DATA;
#1 = PLANE ( 'NONE',  #195 ) ;
#2 = DIRECTION ( 'NONE',  ( -1.000000000000000000, 0.000000000000000000, 0.000000000000000000 ) ) ;
#3 = CARTESIAN_POINT ( 'NONE',  ( 0.000000000000000000, 0.5000000000000000000, -5.500000000000000000 ) ) ;
#4 = FACE_OUTER_BOUND ( 'NONE', #218, .T. ) ;
#5 = CARTESIAN_POINT ( 'NONE',  ( 0.000000000000000000, 0.5000000000000000000, 0.000000000000000000 ) ) ;
#6 = DIRECTION ( 'NONE',  ( 0.000000000000000000, 0.000000000000000000, 1.000000000000000000 ) ) ;
#7 = AXIS2_PLACEMENT_3D ( 'NONE', #5, #346, #314 ) ;
#8 = STYLED_ITEM ( 'NONE', ( #106 ), #359 ) ;
#9 = DIRECTION ( 'NONE',  ( 1.560495851798313744E-17, 1.000000000000000000, -0.000000000000000000 ) ) ;
#10 = FACE_OUTER_BOUND ( 'NONE', #277, .T. ) ;
#11 =( GEOMETRIC_REPRESENTATION_CONTEXT ( 3 ) GLOBAL_UNCERTAINTY_ASSIGNED_CONTEXT ( ( #281 ) ) GLOBAL_UNIT_ASSIGNED_CONTEXT ( ( #291, #283, #25 ) ) REPRESENTATION_CONTEXT ( 'NONE', 'WORKASPACE' ) );
#12 = SURFACE_STYLE_USAGE ( .BOTH. , #266 ) ;
#13 = LINE ( 'NONE', #132, #122 ) ;
#14 = VECTOR ( 'NONE', #69, 1000.000000000000000 ) ;
#15 = VERTEX_POINT ( 'NONE', #282 ) ;
#16 = VECTOR ( 'NONE', #102, 1000.000000000000000 ) ;
#17 = ORIENTED_EDGE ( 'NONE', *, *, #151, .T. ) ;
#18 = UNCERTAINTY_MEASURE_WITH_UNIT (LENGTH_MEASURE( 1.000000000000000082E-05 ), #198, 'distance_accuracy_value', 'NONE');
#19 = EDGE_LOOP ( 'NONE', ( #137, #49 ) ) ;
#20 = ORIENTED_EDGE ( 'NONE', *, *, #351, .F. ) ;
#21 = AXIS2_PLACEMENT_3D ( 'NONE', #203, #317, #2 ) ;
#22 = ADVANCED_FACE ( 'NONE', ( #144 ), #208, .T. ) ;
#23 =( NAMED_UNIT ( * ) SI_UNIT ( $, .STERADIAN. ) SOLID_ANGLE_UNIT ( ) );
#24 = CARTESIAN_POINT ( 'NONE',  ( -5.999999999999988454, 75.00000000000000000, 0.000000000000000000 ) ) ;
#25 =( NAMED_UNIT ( * ) SI_UNIT ( $, .STERADIAN. ) SOLID_ANGLE_UNIT ( ) );
#26 = FILL_AREA_STYLE ('',( #248 ) ) ;
#27 = SURFACE_SIDE_STYLE ('',( #88 ) ) ;
#28 = STYLED_ITEM ( 'NONE', ( #308 ), #22 ) ;
#29 = SURFACE_STYLE_FILL_AREA ( #145 ) ;
#30 = ADVANCED_FACE ( 'NONE', ( #35 ), #255, .T. ) ;
#31 = CARTESIAN_POINT ( 'NONE',  ( 0.000000000000000000, 0.000000000000000000, 0.000000000000000000 ) ) ;
#32 = AXIS2_PLACEMENT_3D ( 'NONE', #37, #9, #125 ) ;
#33 = DIRECTION ( 'NONE',  ( -0.000000000000000000, -1.000000000000000000, -0.000000000000000000 ) ) ;
#34 = PRODUCT_DEFINITION_SHAPE ( 'NONE', 'NONE',  #261 ) ;
#35 = FACE_OUTER_BOUND ( 'NONE', #363, .T. ) ;
#36 = CIRCLE ( 'NONE', #253, 0.5000000000000004441 ) ;
#37 = CARTESIAN_POINT ( 'NONE',  ( 5.421010862427522170E-15, 30.00000000000000000, 0.000000000000000000 ) ) ;
#38 = EDGE_CURVE ( 'NONE', #186, #72, #166, .T. ) ;
#39 = DIRECTION ( 'NONE',  ( 0.000000000000000000, 0.000000000000000000, -1.000000000000000000 ) ) ;
#40 = EDGE_CURVE ( 'NONE', #15, #213, #36, .T. ) ;
#41 = DIRECTION ( 'NONE',  ( -1.560495851798313744E-17, -1.000000000000000000, 0.000000000000000000 ) ) ;
#42 = FACE_OUTER_BOUND ( 'NONE', #332, .T. ) ;
#43 = LINE ( 'NONE', #214, #14 ) ;
#44 = EDGE_LOOP ( 'NONE', ( #244, #156, #183, #47 ) ) ;
#45 = AXIS2_PLACEMENT_3D ( 'NONE', #31, #316, #288 ) ;
#46 = MANIFOLD_SOLID_BREP ( 'Revolve - Tool Body (Straight Shanked)', #70 ) ;
#47 = ORIENTED_EDGE ( 'NONE', *, *, #120, .F. ) ;
#48 = FILL_AREA_STYLE ('',( #60 ) ) ;
#49 = ORIENTED_EDGE ( 'NONE', *, *, #120, .T. ) ;
#50 = EDGE_CURVE ( 'NONE', #328, #242, #159, .T. ) ;
#51 = ORIENTED_EDGE ( 'NONE', *, *, #251, .T. ) ;
#52 =( GEOMETRIC_REPRESENTATION_CONTEXT ( 3 ) GLOBAL_UNCERTAINTY_ASSIGNED_CONTEXT ( ( #337 ) ) GLOBAL_UNIT_ASSIGNED_CONTEXT ( ( #270, #97, #321 ) ) REPRESENTATION_CONTEXT ( 'NONE', 'WORKASPACE' ) );
#53 =( NAMED_UNIT ( * ) SI_UNIT ( $, .STERADIAN. ) SOLID_ANGLE_UNIT ( ) );
#54 = ORIENTED_EDGE ( 'NONE', *, *, #284, .T. ) ;
#55 = CARTESIAN_POINT ( 'NONE',  ( 0.000000000000000000, 0.000000000000000000, 0.000000000000000000 ) ) ;
#56 = DIRECTION ( 'NONE',  ( -1.000000000000000000, 0.000000000000000000, 0.000000000000000000 ) ) ;
#57 =( LENGTH_UNIT ( ) NAMED_UNIT ( * ) SI_UNIT ( .MILLI., .METRE. ) );
#58 =( NAMED_UNIT ( * ) SI_UNIT ( $, .STERADIAN. ) SOLID_ANGLE_UNIT ( ) );
#59 = DIRECTION ( 'NONE',  ( 0.000000000000000000, 1.000000000000000000, 0.000000000000000000 ) ) ;
#60 = FILL_AREA_STYLE_COLOUR ( '', #182 ) ;
#61 = SURFACE_STYLE_FILL_AREA ( #367 ) ;
#62 = DIRECTION ( 'NONE',  ( 1.560495851798313744E-17, 1.000000000000000000, -0.000000000000000000 ) ) ;
#63 = COLOUR_RGB ( '',1.000000000000000000, 0.000000000000000000, 0.000000000000000000 ) ;
#64 = CARTESIAN_POINT ( 'NONE',  ( 7.347880794884119736E-16, 30.00000000000000000, 6.000000000000000000 ) ) ;
#65 = CIRCLE ( 'NONE', #197, 5.500000000000000000 ) ;
#66 = FILL_AREA_STYLE ('',( #318 ) ) ;
#67 = CARTESIAN_POINT ( 'NONE',  ( 0.000000000000000000, 0.000000000000000000, 0.000000000000000000 ) ) ;
#68 = CARTESIAN_POINT ( 'NONE',  ( 6.123233995736762930E-15, 75.00000000000000000, 0.000000000000000000 ) ) ;
#69 = DIRECTION ( 'NONE',  ( -0.000000000000000000, -1.000000000000000000, -0.000000000000000000 ) ) ;
#70 = CLOSED_SHELL ( 'NONE', ( #30, #290, #333, #326 ) ) ;
#71 = DIRECTION ( 'NONE',  ( -1.000000000000000000, 1.560495851798313744E-17, 0.000000000000000000 ) ) ;
#72 = VERTEX_POINT ( 'NONE', #329 ) ;
#73 = DIRECTION ( 'NONE',  ( -0.000000000000000000, -1.000000000000000000, -0.000000000000000000 ) ) ;
#74 = UNCERTAINTY_MEASURE_WITH_UNIT (LENGTH_MEASURE( 1.000000000000000082E-05 ), #366, 'distance_accuracy_value', 'NONE');
#75 = COLOUR_RGB ( '',1.000000000000000000, 0.000000000000000000, 0.000000000000000000 ) ;
#76 = ORIENTED_EDGE ( 'NONE', *, *, #40, .T. ) ;
#77 = MECHANICAL_DESIGN_GEOMETRIC_PRESENTATION_REPRESENTATION (  '', ( #28 ), #11 ) ;
#78 = AXIS2_PLACEMENT_3D ( 'NONE', #256, #232, #348 ) ;
#79 = EDGE_LOOP ( 'NONE', ( #179, #76, #20, #276 ) ) ;
#80 = SURFACE_STYLE_FILL_AREA ( #48 ) ;
#81 = ORIENTED_EDGE ( 'NONE', *, *, #204, .F. ) ;
#82 =( NAMED_UNIT ( * ) PLANE_ANGLE_UNIT ( ) SI_UNIT ( $, .RADIAN. ) );
#83 =( GEOMETRIC_REPRESENTATION_CONTEXT ( 3 ) GLOBAL_UNCERTAINTY_ASSIGNED_CONTEXT ( ( #18 ) ) GLOBAL_UNIT_ASSIGNED_CONTEXT ( ( #198, #171, #172 ) ) REPRESENTATION_CONTEXT ( 'NONE', 'WORKASPACE' ) );
#84 =( NAMED_UNIT ( * ) PLANE_ANGLE_UNIT ( ) SI_UNIT ( $, .RADIAN. ) );
#85 = EDGE_CURVE ( 'NONE', #15, #186, #306, .T. ) ;
#86 = DIRECTION ( 'NONE',  ( 1.560495851798313744E-17, 1.000000000000000000, -0.000000000000000000 ) ) ;
#87 = APPLICATION_CONTEXT ( 'automotive_design' ) ;
#88 = SURFACE_STYLE_FILL_AREA ( #231 ) ;
#89 = PRODUCT ( '59616', '59616', '', ( #94 ) ) ;
#90 = TOROIDAL_SURFACE ( 'NONE', #146, 5.500000000000000000, 0.5000000000000002220 ) ;
#91 = AXIS2_PLACEMENT_3D ( 'NONE', #154, #99, #71 ) ;
#92 = SURFACE_STYLE_USAGE ( .BOTH. , #147 ) ;
#93 = ADVANCED_FACE ( 'NONE', ( #4 ), #1, .T. ) ;
#94 = PRODUCT_CONTEXT ( 'NONE', #263, 'mechanical' ) ;
#95 = CYLINDRICAL_SURFACE ( 'NONE', #21, 5.999999999999994671 ) ;
#96 = CARTESIAN_POINT ( 'NONE',  ( 6.000000000000000000, 75.00000000000000000, 7.347880794884112834E-16 ) ) ;
#97 =( NAMED_UNIT ( * ) PLANE_ANGLE_UNIT ( ) SI_UNIT ( $, .RADIAN. ) );
#98 =( NAMED_UNIT ( * ) PLANE_ANGLE_UNIT ( ) SI_UNIT ( $, .RADIAN. ) );
#99 = DIRECTION ( 'NONE',  ( 1.560495851798313744E-17, 1.000000000000000000, -0.000000000000000000 ) ) ;
#100 = CARTESIAN_POINT ( 'NONE',  ( 7.041719095097280880E-16, 0.000000000000000000, 5.500000000000000000 ) ) ;
#101 = PRODUCT_DEFINITION_FORMATION_WITH_SPECIFIED_SOURCE ( 'ANY', '', #89, .NOT_KNOWN. ) ;
#102 = DIRECTION ( 'NONE',  ( 1.560495851798313744E-17, 1.000000000000000000, -0.000000000000000000 ) ) ;
#103 =( LENGTH_UNIT ( ) NAMED_UNIT ( * ) SI_UNIT ( .MILLI., .METRE. ) );
#104 = SURFACE_STYLE_USAGE ( .BOTH. , #364 ) ;
#105 = ORIENTED_EDGE ( 'NONE', *, *, #344, .F. ) ;
#106 = PRESENTATION_STYLE_ASSIGNMENT (( #250 ) ) ;
#107 = MECHANICAL_DESIGN_GEOMETRIC_PRESENTATION_REPRESENTATION (  '', ( #163 ), #319 ) ;
#108 =( GEOMETRIC_REPRESENTATION_CONTEXT ( 3 ) GLOBAL_UNCERTAINTY_ASSIGNED_CONTEXT ( ( #74 ) ) GLOBAL_UNIT_ASSIGNED_CONTEXT ( ( #366, #111, #23 ) ) REPRESENTATION_CONTEXT ( 'NONE', 'WORKASPACE' ) );
#109 = ORIENTED_EDGE ( 'NONE', *, *, #168, .T. ) ;
#110 = UNCERTAINTY_MEASURE_WITH_UNIT (LENGTH_MEASURE( 1.000000000000000082E-05 ), #341, 'distance_accuracy_value', 'NONE');
#111 =( NAMED_UNIT ( * ) PLANE_ANGLE_UNIT ( ) SI_UNIT ( $, .RADIAN. ) );
#112 = FILL_AREA_STYLE_COLOUR ( '', #176 ) ;
#113 = PRESENTATION_LAYER_ASSIGNMENT (  '', '', ( #301 ) ) ;
#114 = STYLED_ITEM ( 'NONE', ( #193 ), #140 ) ;
#115 = CARTESIAN_POINT ( 'NONE',  ( 0.000000000000000000, 0.000000000000000000, 0.000000000000000000 ) ) ;
#116 = DIRECTION ( 'NONE',  ( 1.000000000000000000, 0.000000000000000000, -1.224646799147353207E-16 ) ) ;
#117 = DIRECTION ( 'NONE',  ( 0.000000000000000000, 0.000000000000000000, -1.000000000000000000 ) ) ;
#118 = CARTESIAN_POINT ( 'NONE',  ( 6.735557395310442023E-16, 0.5000000000000000000, 5.500000000000000000 ) ) ;
#119 = FILL_AREA_STYLE_COLOUR ( '', #63 ) ;
#120 = EDGE_CURVE ( 'NONE', #213, #72, #149, .T. ) ;
#121 = COLOUR_RGB ( '',1.000000000000000000, 0.000000000000000000, 0.000000000000000000 ) ;
#122 = VECTOR ( 'NONE', #362, 1000.000000000000000 ) ;
#123 = CARTESIAN_POINT ( 'NONE',  ( 5.421010862427522170E-15, 30.00000000000000000, 0.000000000000000000 ) ) ;
#124 = SURFACE_STYLE_USAGE ( .BOTH. , #190 ) ;
#125 = DIRECTION ( 'NONE',  ( -1.000000000000000000, 0.000000000000000000, 0.000000000000000000 ) ) ;
#126 = ADVANCED_BREP_SHAPE_REPRESENTATION ( '59616', ( #170, #46, #78 ), #189 ) ;
#127 = PLANE ( 'NONE',  #91 ) ;
#128 = DIRECTION ( 'NONE',  ( 0.000000000000000000, 0.000000000000000000, -1.000000000000000000 ) ) ;
#129 = FILL_AREA_STYLE ('',( #265 ) ) ;
#130 = CIRCLE ( 'NONE', #312, 6.000000000000000000 ) ;
#131 = PRESENTATION_LAYER_ASSIGNMENT (  '', '', ( #163 ) ) ;
#132 = CARTESIAN_POINT ( 'NONE',  ( 6.000000000000000888, 75.00000000000000000, 7.347880794884112834E-16 ) ) ;
#133 = CARTESIAN_POINT ( 'NONE',  ( 0.000000000000000000, 0.000000000000000000, -6.000000000000000000 ) ) ;
#134 = ADVANCED_FACE ( 'NONE', ( #310 ), #90, .T. ) ;
#135 = MECHANICAL_DESIGN_GEOMETRIC_PRESENTATION_REPRESENTATION (  '', ( #114 ), #279 ) ;
#136 = LINE ( 'NONE', #133, #174 ) ;
#137 = ORIENTED_EDGE ( 'NONE', *, *, #351, .T. ) ;
#138 = ORIENTED_EDGE ( 'NONE', *, *, #177, .T. ) ;
#139 = CARTESIAN_POINT ( 'NONE',  ( 0.000000000000000000, 0.5000000000000000000, 0.000000000000000000 ) ) ;
#140 = ADVANCED_FACE ( 'NONE', ( #343 ), #324, .T. ) ;
#141 = PRODUCT_DEFINITION_CONTEXT ( 'detailed design', #87, 'design' ) ;
#142 = ORIENTED_EDGE ( 'NONE', *, *, #50, .F. ) ;
#143 = SURFACE_SIDE_STYLE ('',( #221 ) ) ;
#144 = FACE_OUTER_BOUND ( 'NONE', #299, .T. ) ;
#145 = FILL_AREA_STYLE ('',( #112 ) ) ;
#146 = AXIS2_PLACEMENT_3D ( 'NONE', #309, #225, #249 ) ;
#147 = SURFACE_SIDE_STYLE ('',( #29 ) ) ;
#148 = APPLICATION_PROTOCOL_DEFINITION ( 'draft international standard', 'automotive_design', 1998, #87 ) ;
#149 = CIRCLE ( 'NONE', #45, 5.500000000000000000 ) ;
#150 = PRESENTATION_LAYER_ASSIGNMENT (  '', '', ( #8 ) ) ;
#151 = EDGE_CURVE ( 'NONE', #328, #298, #210, .T. ) ;
#152 = PRESENTATION_LAYER_ASSIGNMENT (  '', '', ( #311 ) ) ;
#153 = CIRCLE ( 'NONE', #196, 5.999999999999993783 ) ;
#154 = CARTESIAN_POINT ( 'NONE',  ( 5.421010862427522170E-15, 30.00000000000000000, 0.000000000000000000 ) ) ;
#155 = CARTESIAN_POINT ( 'NONE',  ( 6.000000000000000000, 30.00000000000000000, 7.347880794884112834E-16 ) ) ;
#156 = ORIENTED_EDGE ( 'NONE', *, *, #85, .T. ) ;
#157 = MECHANICAL_DESIGN_GEOMETRIC_PRESENTATION_REPRESENTATION (  '', ( #301 ), #252 ) ;
#158 = VERTEX_POINT ( 'NONE', #96 ) ;
#159 = LINE ( 'NONE', #24, #16 ) ;
#160 =( LENGTH_UNIT ( ) NAMED_UNIT ( * ) SI_UNIT ( .MILLI., .METRE. ) );
#161 = EDGE_LOOP ( 'NONE', ( #54, #365 ) ) ;
#162 = UNCERTAINTY_MEASURE_WITH_UNIT (LENGTH_MEASURE( 1.000000000000000082E-05 ), #191, 'distance_accuracy_value', 'NONE');
#163 = STYLED_ITEM ( 'NONE', ( #246 ), #46 ) ;
#164 = ORIENTED_EDGE ( 'NONE', *, *, #204, .T. ) ;
#165 = DIRECTION ( 'NONE',  ( -0.000000000000000000, -1.000000000000000000, -0.000000000000000000 ) ) ;
#166 = CIRCLE ( 'NONE', #245, 0.5000000000000004441 ) ;
#167 = CARTESIAN_POINT ( 'NONE',  ( 0.000000000000000000, 30.00000000000000000, 0.000000000000000000 ) ) ;
#168 = EDGE_CURVE ( 'NONE', #298, #328, #303, .T. ) ;
#169 = CARTESIAN_POINT ( 'NONE',  ( 0.000000000000000000, 0.5000000000000000000, 0.000000000000000000 ) ) ;
#170 = MANIFOLD_SOLID_BREP ( 'Revolve - Cutting Edge', #292 ) ;
#171 =( NAMED_UNIT ( * ) PLANE_ANGLE_UNIT ( ) SI_UNIT ( $, .RADIAN. ) );
#172 =( NAMED_UNIT ( * ) SI_UNIT ( $, .STERADIAN. ) SOLID_ANGLE_UNIT ( ) );
#173 = DIRECTION ( 'NONE',  ( -1.000000000000000000, 0.000000000000000000, 0.000000000000000000 ) ) ;
#174 = VECTOR ( 'NONE', #212, 1000.000000000000000 ) ;
#175 = SURFACE_STYLE_FILL_AREA ( #66 ) ;
#176 = COLOUR_RGB ( '',1.000000000000000000, 0.000000000000000000, 0.000000000000000000 ) ;
#177 = EDGE_CURVE ( 'NONE', #331, #186, #136, .T. ) ;
#178 = PRESENTATION_STYLE_ASSIGNMENT (( #240 ) ) ;
#179 = ORIENTED_EDGE ( 'NONE', *, *, #344, .T. ) ;
#180 = ORIENTED_EDGE ( 'NONE', *, *, #215, .F. ) ;
#181 = AXIS2_PLACEMENT_3D ( 'NONE', #271, #73, #238 ) ;
#182 = COLOUR_RGB ( '',0.7921568627450980005, 0.8196078431372548767, 0.9333333333333333481 ) ;
#183 = ORIENTED_EDGE ( 'NONE', *, *, #38, .T. ) ;
#184 = UNCERTAINTY_MEASURE_WITH_UNIT (LENGTH_MEASURE( 1.000000000000000082E-05 ), #160, 'distance_accuracy_value', 'NONE');
#185 = ORIENTED_EDGE ( 'NONE', *, *, #168, .F. ) ;
#186 = VERTEX_POINT ( 'NONE', #233 ) ;
#187 = UNCERTAINTY_MEASURE_WITH_UNIT (LENGTH_MEASURE( 1.000000000000000082E-05 ), #103, 'distance_accuracy_value', 'NONE');
#188 = PLANE ( 'NONE',  #325 ) ;
#189 =( GEOMETRIC_REPRESENTATION_CONTEXT ( 3 ) GLOBAL_UNCERTAINTY_ASSIGNED_CONTEXT ( ( #300 ) ) GLOBAL_UNIT_ASSIGNED_CONTEXT ( ( #57, #347, #286 ) ) REPRESENTATION_CONTEXT ( 'NONE', 'WORKASPACE' ) );
#190 = SURFACE_SIDE_STYLE ('',( #356 ) ) ;
#191 =( LENGTH_UNIT ( ) NAMED_UNIT ( * ) SI_UNIT ( .MILLI., .METRE. ) );
#192 = PRODUCT_RELATED_PRODUCT_CATEGORY ( 'part', '', ( #89 ) ) ;
#193 = PRESENTATION_STYLE_ASSIGNMENT (( #370 ) ) ;
#194 = CARTESIAN_POINT ( 'NONE',  ( -5.999999999999989342, 30.00000000000000000, 0.000000000000000000 ) ) ;
#195 = AXIS2_PLACEMENT_3D ( 'NONE', #167, #59, #345 ) ;
#196 = AXIS2_PLACEMENT_3D ( 'NONE', #234, #206, #320 ) ;
#197 = AXIS2_PLACEMENT_3D ( 'NONE', #67, #268, #39 ) ;
#198 =( LENGTH_UNIT ( ) NAMED_UNIT ( * ) SI_UNIT ( .MILLI., .METRE. ) );
#199 = CARTESIAN_POINT ( 'NONE',  ( 0.000000000000000000, 30.00000000000000000, -6.000000000000000000 ) ) ;
#200 = DIRECTION ( 'NONE',  ( 0.000000000000000000, 0.000000000000000000, -1.000000000000000000 ) ) ;
#201 = SURFACE_STYLE_USAGE ( .BOTH. , #313 ) ;
#202 = SHAPE_DEFINITION_REPRESENTATION ( #34, #126 ) ;
#203 = CARTESIAN_POINT ( 'NONE',  ( 6.123233995736762930E-15, 75.00000000000000000, 0.000000000000000000 ) ) ;
#204 = EDGE_CURVE ( 'NONE', #336, #331, #274, .T. ) ;
#205 = MECHANICAL_DESIGN_GEOMETRIC_PRESENTATION_REPRESENTATION (  '', ( #275 ), #83 ) ;
#206 = DIRECTION ( 'NONE',  ( 1.560495851798313744E-17, 1.000000000000000000, -0.000000000000000000 ) ) ;
#207 = DIRECTION ( 'NONE',  ( 1.560495851798313744E-17, 1.000000000000000000, -0.000000000000000000 ) ) ;
#208 = CYLINDRICAL_SURFACE ( 'NONE', #236, 6.000000000000000000 ) ;
#209 = SURFACE_STYLE_FILL_AREA ( #327 ) ;
#210 = CIRCLE ( 'NONE', #295, 5.999999999999994671 ) ;
#211 = AXIS2_PLACEMENT_3D ( 'NONE', #169, #33, #257 ) ;
#212 = DIRECTION ( 'NONE',  ( -0.000000000000000000, -1.000000000000000000, -0.000000000000000000 ) ) ;
#213 = VERTEX_POINT ( 'NONE', #100 ) ;
#214 = CARTESIAN_POINT ( 'NONE',  ( 7.347880794884119736E-16, 0.000000000000000000, 6.000000000000000000 ) ) ;
#215 = EDGE_CURVE ( 'NONE', #336, #15, #43, .T. ) ;
#216 = ORIENTED_EDGE ( 'NONE', *, *, #177, .F. ) ;
#217 = ORIENTED_EDGE ( 'NONE', *, *, #219, .T. ) ;
#218 = EDGE_LOOP ( 'NONE', ( #304, #81 ) ) ;
#219 = EDGE_CURVE ( 'NONE', #298, #158, #13, .T. ) ;
#220 = ORIENTED_EDGE ( 'NONE', *, *, #284, .F. ) ;
#221 = SURFACE_STYLE_FILL_AREA ( #26 ) ;
#222 = AXIS2_PLACEMENT_3D ( 'NONE', #139, #165, #117 ) ;
#223 = DIRECTION ( 'NONE',  ( -0.000000000000000000, -1.000000000000000000, -0.000000000000000000 ) ) ;
#224 = DIRECTION ( 'NONE',  ( 0.000000000000000000, 0.000000000000000000, -1.000000000000000000 ) ) ;
#225 = DIRECTION ( 'NONE',  ( -0.000000000000000000, -1.000000000000000000, -0.000000000000000000 ) ) ;
#226 = DIRECTION ( 'NONE',  ( 1.000000000000000000, -1.560495851798313744E-17, 0.000000000000000000 ) ) ;
#227 = PRESENTATION_STYLE_ASSIGNMENT (( #201 ) ) ;
#228 =( NAMED_UNIT ( * ) SI_UNIT ( $, .STERADIAN. ) SOLID_ANGLE_UNIT ( ) );
#229 = DIRECTION ( 'NONE',  ( -1.224646799147353454E-16, 0.000000000000000000, -1.000000000000000000 ) ) ;
#230 = DIRECTION ( 'NONE',  ( 0.000000000000000000, -1.000000000000000000, -0.000000000000000000 ) ) ;
#231 = FILL_AREA_STYLE ('',( #285 ) ) ;
#232 = DIRECTION ( 'NONE',  ( 0.000000000000000000, 0.000000000000000000, 1.000000000000000000 ) ) ;
#233 = CARTESIAN_POINT ( 'NONE',  ( 0.000000000000000000, 0.5000000000000000000, -6.000000000000000000 ) ) ;
#234 = CARTESIAN_POINT ( 'NONE',  ( 6.123233995736762930E-15, 75.00000000000000000, 0.000000000000000000 ) ) ;
#235 = MECHANICAL_DESIGN_GEOMETRIC_PRESENTATION_REPRESENTATION (  '', ( #267 ), #52 ) ;
#236 = AXIS2_PLACEMENT_3D ( 'NONE', #115, #223, #200 ) ;
#237 = CIRCLE ( 'NONE', #211, 6.000000000000000000 ) ;
#238 = DIRECTION ( 'NONE',  ( 0.000000000000000000, 0.000000000000000000, -1.000000000000000000 ) ) ;
#239 = ADVANCED_FACE ( 'NONE', ( #42 ), #297, .T. ) ;
#240 = SURFACE_STYLE_USAGE ( .BOTH. , #342 ) ;
#241 =( GEOMETRIC_REPRESENTATION_CONTEXT ( 3 ) GLOBAL_UNCERTAINTY_ASSIGNED_CONTEXT ( ( #162 ) ) GLOBAL_UNIT_ASSIGNED_CONTEXT ( ( #191, #84, #58 ) ) REPRESENTATION_CONTEXT ( 'NONE', 'WORKASPACE' ) );
#242 = VERTEX_POINT ( 'NONE', #330 ) ;
#243 = ORIENTED_EDGE ( 'NONE', *, *, #215, .T. ) ;
#244 = ORIENTED_EDGE ( 'NONE', *, *, #40, .F. ) ;
#245 = AXIS2_PLACEMENT_3D ( 'NONE', #3, #56, #6 ) ;
#246 = PRESENTATION_STYLE_ASSIGNMENT (( #104 ) ) ;
#247 = CIRCLE ( 'NONE', #294, 5.999999999999993783 ) ;
#248 = FILL_AREA_STYLE_COLOUR ( '', #307 ) ;
#249 = DIRECTION ( 'NONE',  ( 0.000000000000000000, 0.000000000000000000, -1.000000000000000000 ) ) ;
#250 = SURFACE_STYLE_USAGE ( .BOTH. , #143 ) ;
#251 = EDGE_CURVE ( 'NONE', #331, #336, #130, .T. ) ;
#252 =( GEOMETRIC_REPRESENTATION_CONTEXT ( 3 ) GLOBAL_UNCERTAINTY_ASSIGNED_CONTEXT ( ( #187 ) ) GLOBAL_UNIT_ASSIGNED_CONTEXT ( ( #103, #296, #354 ) ) REPRESENTATION_CONTEXT ( 'NONE', 'WORKASPACE' ) );
#253 = AXIS2_PLACEMENT_3D ( 'NONE', #118, #116, #229 ) ;
#254 = APPLICATION_PROTOCOL_DEFINITION ( 'draft international standard', 'automotive_design', 1998, #263 ) ;
#255 = CYLINDRICAL_SURFACE ( 'NONE', #287, 5.999999999999994671 ) ;
#256 = CARTESIAN_POINT ( 'NONE',  ( 0.000000000000000000, 0.000000000000000000, 0.000000000000000000 ) ) ;
#257 = DIRECTION ( 'NONE',  ( 0.000000000000000000, 0.000000000000000000, -1.000000000000000000 ) ) ;
#258 = AXIS2_PLACEMENT_3D ( 'NONE', #358, #269, #293 ) ;
#259 = PRESENTATION_LAYER_ASSIGNMENT (  '', '', ( #28 ) ) ;
#260 = MECHANICAL_DESIGN_GEOMETRIC_PRESENTATION_REPRESENTATION (  '', ( #8 ), #108 ) ;
#261 = PRODUCT_DEFINITION ( 'UNKNOWN', '', #101, #141 ) ;
#262 = DIRECTION ( 'NONE',  ( -1.000000000000000000, 0.000000000000000000, 0.000000000000000000 ) ) ;
#263 = APPLICATION_CONTEXT ( 'automotive_design' ) ;
#264 = CARTESIAN_POINT ( 'NONE',  ( 0.000000000000000000, 30.00000000000000000, 0.000000000000000000 ) ) ;
#265 = FILL_AREA_STYLE_COLOUR ( '', #121 ) ;
#266 = SURFACE_SIDE_STYLE ('',( #209 ) ) ;
#267 = STYLED_ITEM ( 'NONE', ( #178 ), #170 ) ;
#268 = DIRECTION ( 'NONE',  ( -0.000000000000000000, -1.000000000000000000, -0.000000000000000000 ) ) ;
#269 = DIRECTION ( 'NONE',  ( -0.000000000000000000, -1.000000000000000000, -0.000000000000000000 ) ) ;
#270 =( LENGTH_UNIT ( ) NAMED_UNIT ( * ) SI_UNIT ( .MILLI., .METRE. ) );
#271 = CARTESIAN_POINT ( 'NONE',  ( 0.000000000000000000, 0.000000000000000000, 0.000000000000000000 ) ) ;
#272 = ORIENTED_EDGE ( 'NONE', *, *, #50, .T. ) ;
#273 = EDGE_CURVE ( 'NONE', #158, #242, #153, .T. ) ;
#274 = CIRCLE ( 'NONE', #258, 6.000000000000000000 ) ;
#275 = STYLED_ITEM ( 'NONE', ( #289 ), #134 ) ;
#276 = ORIENTED_EDGE ( 'NONE', *, *, #38, .F. ) ;
#277 = EDGE_LOOP ( 'NONE', ( #280, #185 ) ) ;
#278 = EDGE_LOOP ( 'NONE', ( #361, #109, #272, #302 ) ) ;
#279 =( GEOMETRIC_REPRESENTATION_CONTEXT ( 3 ) GLOBAL_UNCERTAINTY_ASSIGNED_CONTEXT ( ( #110 ) ) GLOBAL_UNIT_ASSIGNED_CONTEXT ( ( #341, #98, #228 ) ) REPRESENTATION_CONTEXT ( 'NONE', 'WORKASPACE' ) );
#280 = ORIENTED_EDGE ( 'NONE', *, *, #151, .F. ) ;
#281 = UNCERTAINTY_MEASURE_WITH_UNIT (LENGTH_MEASURE( 1.000000000000000082E-05 ), #291, 'distance_accuracy_value', 'NONE');
#282 = CARTESIAN_POINT ( 'NONE',  ( 7.347880794884119736E-16, 0.5000000000000000000, 6.000000000000000000 ) ) ;
#283 =( NAMED_UNIT ( * ) PLANE_ANGLE_UNIT ( ) SI_UNIT ( $, .RADIAN. ) );
#284 = EDGE_CURVE ( 'NONE', #242, #158, #247, .T. ) ;
#285 = FILL_AREA_STYLE_COLOUR ( '', #338 ) ;
#286 =( NAMED_UNIT ( * ) SI_UNIT ( $, .STERADIAN. ) SOLID_ANGLE_UNIT ( ) );
#287 = AXIS2_PLACEMENT_3D ( 'NONE', #339, #86, #315 ) ;
#288 = DIRECTION ( 'NONE',  ( 0.000000000000000000, 0.000000000000000000, -1.000000000000000000 ) ) ;
#289 = PRESENTATION_STYLE_ASSIGNMENT (( #92 ) ) ;
#290 = ADVANCED_FACE ( 'NONE', ( #10 ), #127, .F. ) ;
#291 =( LENGTH_UNIT ( ) NAMED_UNIT ( * ) SI_UNIT ( .MILLI., .METRE. ) );
#292 = CLOSED_SHELL ( 'NONE', ( #239, #134, #359, #140, #22, #93 ) ) ;
#293 = DIRECTION ( 'NONE',  ( 0.000000000000000000, 0.000000000000000000, -1.000000000000000000 ) ) ;
#294 = AXIS2_PLACEMENT_3D ( 'NONE', #68, #207, #262 ) ;
#295 = AXIS2_PLACEMENT_3D ( 'NONE', #123, #62, #173 ) ;
#296 =( NAMED_UNIT ( * ) PLANE_ANGLE_UNIT ( ) SI_UNIT ( $, .RADIAN. ) );
#297 = CYLINDRICAL_SURFACE ( 'NONE', #181, 6.000000000000000000 ) ;
#298 = VERTEX_POINT ( 'NONE', #155 ) ;
#299 = EDGE_LOOP ( 'NONE', ( #180, #164, #138, #335 ) ) ;
#300 = UNCERTAINTY_MEASURE_WITH_UNIT (LENGTH_MEASURE( 1.000000000000000082E-05 ), #57, 'distance_accuracy_value', 'NONE');
#301 = STYLED_ITEM ( 'NONE', ( #323 ), #239 ) ;
#302 = ORIENTED_EDGE ( 'NONE', *, *, #273, .F. ) ;
#303 = CIRCLE ( 'NONE', #32, 5.999999999999994671 ) ;
#304 = ORIENTED_EDGE ( 'NONE', *, *, #251, .F. ) ;
#305 = COLOUR_RGB ( '',0.7921568627450980005, 0.8196078431372548767, 0.9333333333333333481 ) ;
#306 = CIRCLE ( 'NONE', #222, 6.000000000000000000 ) ;
#307 = COLOUR_RGB ( '',1.000000000000000000, 0.000000000000000000, 0.000000000000000000 ) ;
#308 = PRESENTATION_STYLE_ASSIGNMENT (( #124 ) ) ;
#309 = CARTESIAN_POINT ( 'NONE',  ( 0.000000000000000000, 0.5000000000000000000, 0.000000000000000000 ) ) ;
#310 = FACE_OUTER_BOUND ( 'NONE', #79, .T. ) ;
#311 = STYLED_ITEM ( 'NONE', ( #227 ), #93 ) ;
#312 = AXIS2_PLACEMENT_3D ( 'NONE', #264, #357, #128 ) ;
#313 = SURFACE_SIDE_STYLE ('',( #61 ) ) ;
#314 = DIRECTION ( 'NONE',  ( 0.000000000000000000, 0.000000000000000000, -1.000000000000000000 ) ) ;
#315 = DIRECTION ( 'NONE',  ( -1.000000000000000000, 0.000000000000000000, 0.000000000000000000 ) ) ;
#316 = DIRECTION ( 'NONE',  ( -0.000000000000000000, -1.000000000000000000, -0.000000000000000000 ) ) ;
#317 = DIRECTION ( 'NONE',  ( 1.560495851798313744E-17, 1.000000000000000000, -0.000000000000000000 ) ) ;
#318 = FILL_AREA_STYLE_COLOUR ( '', #305 ) ;
#319 =( GEOMETRIC_REPRESENTATION_CONTEXT ( 3 ) GLOBAL_UNCERTAINTY_ASSIGNED_CONTEXT ( ( #184 ) ) GLOBAL_UNIT_ASSIGNED_CONTEXT ( ( #160, #82, #53 ) ) REPRESENTATION_CONTEXT ( 'NONE', 'WORKASPACE' ) );
#320 = DIRECTION ( 'NONE',  ( -1.000000000000000000, 0.000000000000000000, 0.000000000000000000 ) ) ;
#321 =( NAMED_UNIT ( * ) SI_UNIT ( $, .STERADIAN. ) SOLID_ANGLE_UNIT ( ) );
#322 = FACE_OUTER_BOUND ( 'NONE', #19, .T. ) ;
#323 = PRESENTATION_STYLE_ASSIGNMENT (( #12 ) ) ;
#324 = TOROIDAL_SURFACE ( 'NONE', #7, 5.500000000000000000, 0.5000000000000002220 ) ;
#325 = AXIS2_PLACEMENT_3D ( 'NONE', #55, #230, #224 ) ;
#326 = ADVANCED_FACE ( 'NONE', ( #350 ), #352, .F. ) ;
#327 = FILL_AREA_STYLE ('',( #360 ) ) ;
#328 = VERTEX_POINT ( 'NONE', #194 ) ;
#329 = CARTESIAN_POINT ( 'NONE',  ( 0.000000000000000000, 0.000000000000000000, -5.500000000000000000 ) ) ;
#330 = CARTESIAN_POINT ( 'NONE',  ( -5.999999999999987566, 75.00000000000000000, 0.000000000000000000 ) ) ;
#331 = VERTEX_POINT ( 'NONE', #199 ) ;
#332 = EDGE_LOOP ( 'NONE', ( #51, #243, #105, #216 ) ) ;
#333 = ADVANCED_FACE ( 'NONE', ( #349 ), #95, .T. ) ;
#334 = MECHANICAL_DESIGN_GEOMETRIC_PRESENTATION_REPRESENTATION (  '', ( #311 ), #241 ) ;
#335 = ORIENTED_EDGE ( 'NONE', *, *, #85, .F. ) ;
#336 = VERTEX_POINT ( 'NONE', #64 ) ;
#337 = UNCERTAINTY_MEASURE_WITH_UNIT (LENGTH_MEASURE( 1.000000000000000082E-05 ), #270, 'distance_accuracy_value', 'NONE');
#338 = COLOUR_RGB ( '',1.000000000000000000, 0.000000000000000000, 0.000000000000000000 ) ;
#339 = CARTESIAN_POINT ( 'NONE',  ( 6.123233995736762930E-15, 75.00000000000000000, 0.000000000000000000 ) ) ;
#340 = CARTESIAN_POINT ( 'NONE',  ( 6.000000000000000000, 75.00000000000000000, 0.000000000000000000 ) ) ;
#341 =( LENGTH_UNIT ( ) NAMED_UNIT ( * ) SI_UNIT ( .MILLI., .METRE. ) );
#342 = SURFACE_SIDE_STYLE ('',( #175 ) ) ;
#343 = FACE_OUTER_BOUND ( 'NONE', #44, .T. ) ;
#344 = EDGE_CURVE ( 'NONE', #186, #15, #237, .T. ) ;
#345 = DIRECTION ( 'NONE',  ( 0.000000000000000000, -0.000000000000000000, 1.000000000000000000 ) ) ;
#346 = DIRECTION ( 'NONE',  ( -0.000000000000000000, -1.000000000000000000, -0.000000000000000000 ) ) ;
#347 =( NAMED_UNIT ( * ) PLANE_ANGLE_UNIT ( ) SI_UNIT ( $, .RADIAN. ) );
#348 = DIRECTION ( 'NONE',  ( 1.000000000000000000, 0.000000000000000000, 0.000000000000000000 ) ) ;
#349 = FACE_OUTER_BOUND ( 'NONE', #278, .T. ) ;
#350 = FACE_OUTER_BOUND ( 'NONE', #161, .T. ) ;
#351 = EDGE_CURVE ( 'NONE', #72, #213, #65, .T. ) ;
#352 = PLANE ( 'NONE',  #368 ) ;
#353 = PRESENTATION_LAYER_ASSIGNMENT (  '', '', ( #267 ) ) ;
#354 =( NAMED_UNIT ( * ) SI_UNIT ( $, .STERADIAN. ) SOLID_ANGLE_UNIT ( ) );
#355 = PRESENTATION_LAYER_ASSIGNMENT (  '', '', ( #114 ) ) ;
#356 = SURFACE_STYLE_FILL_AREA ( #129 ) ;
#357 = DIRECTION ( 'NONE',  ( -0.000000000000000000, -1.000000000000000000, -0.000000000000000000 ) ) ;
#358 = CARTESIAN_POINT ( 'NONE',  ( 0.000000000000000000, 30.00000000000000000, 0.000000000000000000 ) ) ;
#359 = ADVANCED_FACE ( 'NONE', ( #322 ), #188, .T. ) ;
#360 = FILL_AREA_STYLE_COLOUR ( '', #75 ) ;
#361 = ORIENTED_EDGE ( 'NONE', *, *, #219, .F. ) ;
#362 = DIRECTION ( 'NONE',  ( 1.560495851798313744E-17, 1.000000000000000000, -0.000000000000000000 ) ) ;
#363 = EDGE_LOOP ( 'NONE', ( #17, #217, #220, #142 ) ) ;
#364 = SURFACE_SIDE_STYLE ('',( #80 ) ) ;
#365 = ORIENTED_EDGE ( 'NONE', *, *, #273, .T. ) ;
#366 =( LENGTH_UNIT ( ) NAMED_UNIT ( * ) SI_UNIT ( .MILLI., .METRE. ) );
#367 = FILL_AREA_STYLE ('',( #119 ) ) ;
#368 = AXIS2_PLACEMENT_3D ( 'NONE', #340, #41, #226 ) ;
#369 = PRESENTATION_LAYER_ASSIGNMENT (  '', '', ( #275 ) ) ;
#370 = SURFACE_STYLE_USAGE ( .BOTH. , #27 ) ;
ENDSEC;
END-ISO-10303-21;
