ISO-10303-21;
HEADER;
FILE_DESCRIPTION (( 'STEP AP214' ),
    '1' );
FILE_NAME ('Micro_DMM-080-490.STEP',
    '2021-09-02T16:27:19',
    ( '' ),
    ( '' ),
    'SwSTEP 2.0',
    'SolidWorks 2020',
    '' );
FILE_SCHEMA (( 'AUTOMOTIVE_DESIGN' ));
ENDSEC;

DATA;
#1 =( GEOMETRIC_REPRESENTATION_CONTEXT ( 3 ) GLOBAL_UNCERTAINTY_ASSIGNED_CONTEXT ( ( #208 ) ) GLOBAL_UNIT_ASSIGNED_CONTEXT ( ( #184, #272, #255 ) ) REPRESENTATION_CONTEXT ( 'NONE', 'WORKASPACE' ) );
#2 = AXIS2_PLACEMENT_3D ( 'NONE', #116, #28, #258 ) ;
#3 = EDGE_CURVE ( 'NONE', #13, #80, #40, .T. ) ;
#4 = APPLICATION_PROTOCOL_DEFINITION ( 'draft international standard', 'automotive_design', 1998, #108 ) ;
#5 = CIRCLE ( 'NONE', #39, 0.007499999999999999722 ) ;
#6 = CARTESIAN_POINT ( 'NONE',  ( 0.0000000000000000000, 0.0000000000000000000, 0.0000000000000000000 ) ) ;
#7 = ORIENTED_EDGE ( 'NONE', *, *, #3, .F. ) ;
#8 = EDGE_CURVE ( 'NONE', #35, #80, #42, .T. ) ;
#9 =( CONVERSION_BASED_UNIT ( 'INCH', #130 ) LENGTH_UNIT ( ) NAMED_UNIT ( #209 ) );
#10 = STYLED_ITEM ( 'NONE', ( #176 ), #223 ) ;
#11 = EDGE_LOOP ( 'NONE', ( #283, #125 ) ) ;
#12 = EDGE_CURVE ( 'NONE', #183, #292, #248, .T. ) ;
#13 = VERTEX_POINT ( 'NONE', #250 ) ;
#14 = ORIENTED_EDGE ( 'NONE', *, *, #12, .T. ) ;
#15 = FACE_OUTER_BOUND ( 'NONE', #179, .T. ) ;
#16 = COLOUR_RGB ( '',0.7921568627450980005, 0.8196078431372548767, 0.9333333333333333481 ) ;
#17 = ORIENTED_EDGE ( 'NONE', *, *, #68, .F. ) ;
#18 = DIRECTION ( 'NONE',  ( -0.0000000000000000000, -0.0000000000000000000, -1.000000000000000000 ) ) ;
#19 = ORIENTED_EDGE ( 'NONE', *, *, #329, .F. ) ;
#20 = CARTESIAN_POINT ( 'NONE',  ( 0.0000000000000000000, 0.0000000000000000000, 0.8661419999999999675 ) ) ;
#21 = CARTESIAN_POINT ( 'NONE',  ( 0.0000000000000000000, 0.0000000000000000000, 0.0000000000000000000 ) ) ;
#22 = SURFACE_SIDE_STYLE ('',( #216 ) ) ;
#23 = DIRECTION ( 'NONE',  ( 1.000000000000000000, 0.0000000000000000000, -0.0000000000000000000 ) ) ;
#24 = CARTESIAN_POINT ( 'NONE',  ( 0.0000000000000000000, 0.0000000000000000000, 1.707404996040164512E-17 ) ) ;
#25 = DIRECTION ( 'NONE',  ( 0.7071067811865490160, 0.0000000000000000000, 0.7071067811865460184 ) ) ;
#26 = CARTESIAN_POINT ( 'NONE',  ( -0.007499999999999999722, 1.009908044533862758E-17, 1.707404996040164512E-17 ) ) ;
#27 = CARTESIAN_POINT ( 'NONE',  ( 0.0000000000000000000, 0.0000000000000000000, 2.480315000000000047 ) ) ;
#28 = DIRECTION ( 'NONE',  ( 0.0000000000000000000, 0.0000000000000000000, 1.000000000000000000 ) ) ;
#29 = ADVANCED_FACE ( 'NONE', ( #159 ), #318, .F. ) ;
#30 = FACE_OUTER_BOUND ( 'NONE', #181, .T. ) ;
#31 = ORIENTED_EDGE ( 'NONE', *, *, #300, .T. ) ;
#32 = AXIS2_PLACEMENT_3D ( 'NONE', #309, #260, #259 ) ;
#33 = PRESENTATION_LAYER_ASSIGNMENT (  '', '', ( #10 ) ) ;
#34 = EDGE_LOOP ( 'NONE', ( #224, #198 ) ) ;
#35 = VERTEX_POINT ( 'NONE', #222 ) ;
#36 = DIRECTION ( 'NONE',  ( 0.0000000000000000000, 0.0000000000000000000, 1.000000000000000000 ) ) ;
#37 = ORIENTED_EDGE ( 'NONE', *, *, #148, .T. ) ;
#38 = DIRECTION ( 'NONE',  ( -1.000000000000000000, 0.0000000000000000000, 0.0000000000000000000 ) ) ;
#39 = AXIS2_PLACEMENT_3D ( 'NONE', #24, #194, #38 ) ;
#40 = LINE ( 'NONE', #58, #220 ) ;
#41 = CARTESIAN_POINT ( 'NONE',  ( 0.0000000000000000000, 0.0000000000000000000, 2.480315000000000047 ) ) ;
#42 = LINE ( 'NONE', #136, #114 ) ;
#43 = CARTESIAN_POINT ( 'NONE',  ( -0.1574804999999999955, 0.0000000000000000000, 2.480315000000000047 ) ) ;
#44 = DIRECTION ( 'NONE',  ( 1.000000000000000000, 0.0000000000000000000, 0.0000000000000000000 ) ) ;
#45 = CARTESIAN_POINT ( 'NONE',  ( 0.0000000000000000000, 0.0000000000000000000, 2.480315000000000047 ) ) ;
#46 = FACE_OUTER_BOUND ( 'NONE', #326, .T. ) ;
#47 =( NAMED_UNIT ( * ) SI_UNIT ( $, .STERADIAN. ) SOLID_ANGLE_UNIT ( ) );
#48 = AXIS2_PLACEMENT_3D ( 'NONE', #203, #89, #87 ) ;
#49 = PLANE ( 'NONE',  #2 ) ;
#50 = CARTESIAN_POINT ( 'NONE',  ( 0.0000000000000000000, 0.0000000000000000000, 0.1499304999999994115 ) ) ;
#51 = CIRCLE ( 'NONE', #200, 0.1574305000000000010 ) ;
#52 = PRODUCT_DEFINITION ( 'UNKNOWN', '', #190, #228 ) ;
#53 = AXIS2_PLACEMENT_3D ( 'NONE', #50, #168, #65 ) ;
#54 = ORIENTED_EDGE ( 'NONE', *, *, #105, .T. ) ;
#55 = ORIENTED_EDGE ( 'NONE', *, *, #110, .T. ) ;
#56 =( LENGTH_UNIT ( ) NAMED_UNIT ( * ) SI_UNIT ( $, .METRE. ) );
#57 = CARTESIAN_POINT ( 'NONE',  ( 0.1574804999999999955, 1.928579902531247412E-17, 2.465314999999999923 ) ) ;
#58 = CARTESIAN_POINT ( 'NONE',  ( 0.007499999999999999722, 0.0000000000000000000, 1.707404996040164512E-17 ) ) ;
#59 = DIRECTION ( 'NONE',  ( 0.7071067811865627828, 8.659560562355118980E-17, -0.7071067811865321406 ) ) ;
#60 = CARTESIAN_POINT ( 'NONE',  ( 0.0000000000000000000, 0.0000000000000000000, 0.0000000000000000000 ) ) ;
#61 = ORIENTED_EDGE ( 'NONE', *, *, #105, .F. ) ;
#62 = DIRECTION ( 'NONE',  ( -1.000000000000000000, 0.0000000000000000000, 0.0000000000000000000 ) ) ;
#63 = ADVANCED_FACE ( 'NONE', ( #218 ), #244, .T. ) ;
#64 = DIRECTION ( 'NONE',  ( 0.0000000000000000000, 0.0000000000000000000, -1.000000000000000000 ) ) ;
#65 = DIRECTION ( 'NONE',  ( -1.000000000000000000, 0.0000000000000000000, 0.0000000000000000000 ) ) ;
#66 = AXIS2_PLACEMENT_3D ( 'NONE', #21, #111, #23 ) ;
#67 = ORIENTED_EDGE ( 'NONE', *, *, #202, .F. ) ;
#68 = EDGE_CURVE ( 'NONE', #74, #80, #51, .T. ) ;
#69 = CARTESIAN_POINT ( 'NONE',  ( 0.1574804999999999955, 1.928579902531247412E-17, 0.8661419999999999675 ) ) ;
#70 = SURFACE_STYLE_USAGE ( .BOTH. , #288 ) ;
#71 = SHAPE_DEFINITION_REPRESENTATION ( #232, #223 ) ;
#72 = CIRCLE ( 'NONE', #146, 0.007499999999999999722 ) ;
#73 =( NAMED_UNIT ( * ) SI_UNIT ( $, .STERADIAN. ) SOLID_ANGLE_UNIT ( ) );
#74 = VERTEX_POINT ( 'NONE', #301 ) ;
#75 = EDGE_CURVE ( 'NONE', #291, #183, #115, .T. ) ;
#76 = DIMENSIONAL_EXPONENTS ( 1.000000000000000000, 0.0000000000000000000, 0.0000000000000000000, 0.0000000000000000000, 0.0000000000000000000, 0.0000000000000000000, 0.0000000000000000000 ) ;
#77 = ORIENTED_EDGE ( 'NONE', *, *, #173, .F. ) ;
#78 = CIRCLE ( 'NONE', #53, 0.1574305000000000010 ) ;
#79 = EDGE_CURVE ( 'NONE', #153, #292, #221, .T. ) ;
#80 = VERTEX_POINT ( 'NONE', #86 ) ;
#81 = DIRECTION ( 'NONE',  ( 1.000000000000000000, 0.0000000000000000000, 0.0000000000000000000 ) ) ;
#82 = DIRECTION ( 'NONE',  ( -1.000000000000000000, 0.0000000000000000000, 0.0000000000000000000 ) ) ;
#83 = PLANE ( 'NONE',  #48 ) ;
#84 = AXIS2_PLACEMENT_3D ( 'NONE', #137, #269, #219 ) ;
#85 = ORIENTED_EDGE ( 'NONE', *, *, #202, .T. ) ;
#86 = CARTESIAN_POINT ( 'NONE',  ( 0.1574305000000000565, 0.0000000000000000000, 0.1499304999999994115 ) ) ;
#87 = DIRECTION ( 'NONE',  ( -1.000000000000000000, 0.0000000000000000000, 0.0000000000000000000 ) ) ;
#88 = ORIENTED_EDGE ( 'NONE', *, *, #79, .F. ) ;
#89 = DIRECTION ( 'NONE',  ( -0.0000000000000000000, 0.0000000000000000000, -1.000000000000000000 ) ) ;
#90 = AXIS2_PLACEMENT_3D ( 'NONE', #45, #113, #305 ) ;
#91 = CIRCLE ( 'NONE', #189, 0.1574305000000001398 ) ;
#92 = LENGTH_MEASURE_WITH_UNIT ( LENGTH_MEASURE( 0.02539999999999999897 ), #143 );
#93 = PRODUCT ( 'Micro_DMM-080-490', 'Micro_DMM-080-490', '', ( #210 ) ) ;
#94 = UNCERTAINTY_MEASURE_WITH_UNIT (LENGTH_MEASURE( 1.000000000000000082E-05 ), #9, 'distance_accuracy_value', 'NONE');
#95 = FILL_AREA_STYLE_COLOUR ( '', #121 ) ;
#96 = VECTOR ( 'NONE', #150, 39.37007874015748854 ) ;
#97 = MECHANICAL_DESIGN_GEOMETRIC_PRESENTATION_REPRESENTATION (  '', ( #10 ), #264 ) ;
#98 = EDGE_LOOP ( 'NONE', ( #297, #273, #215, #31 ) ) ;
#99 = AXIS2_PLACEMENT_3D ( 'NONE', #140, #319, #191 ) ;
#100 = DIMENSIONAL_EXPONENTS ( 1.000000000000000000, 0.0000000000000000000, 0.0000000000000000000, 0.0000000000000000000, 0.0000000000000000000, 0.0000000000000000000, 0.0000000000000000000 ) ;
#101 = ORIENTED_EDGE ( 'NONE', *, *, #112, .F. ) ;
#102 = ORIENTED_EDGE ( 'NONE', *, *, #148, .F. ) ;
#103 = ORIENTED_EDGE ( 'NONE', *, *, #265, .T. ) ;
#104 = AXIS2_PLACEMENT_3D ( 'NONE', #325, #192, #328 ) ;
#105 = EDGE_CURVE ( 'NONE', #163, #183, #307, .T. ) ;
#106 = FACE_BOUND ( 'NONE', #170, .T. ) ;
#107 = ORIENTED_EDGE ( 'NONE', *, *, #75, .T. ) ;
#108 = APPLICATION_CONTEXT ( 'automotive_design' ) ;
#109 = DIRECTION ( 'NONE',  ( -1.000000000000000000, 0.0000000000000000000, 0.0000000000000000000 ) ) ;
#110 = EDGE_CURVE ( 'NONE', #183, #163, #286, .T. ) ;
#111 = DIRECTION ( 'NONE',  ( 0.0000000000000000000, 0.0000000000000000000, 1.000000000000000000 ) ) ;
#112 = EDGE_CURVE ( 'NONE', #317, #163, #141, .T. ) ;
#113 = DIRECTION ( 'NONE',  ( 0.0000000000000000000, 0.0000000000000000000, -1.000000000000000000 ) ) ;
#114 = VECTOR ( 'NONE', #139, 39.37007874015748143 ) ;
#115 = LINE ( 'NONE', #167, #214 ) ;
#116 = CARTESIAN_POINT ( 'NONE',  ( 0.0000000000000000000, 0.0000000000000000000, 2.480315000000000047 ) ) ;
#117 = ORIENTED_EDGE ( 'NONE', *, *, #329, .T. ) ;
#118 = DIRECTION ( 'NONE',  ( -0.0000000000000000000, -0.0000000000000000000, -1.000000000000000000 ) ) ;
#119 = CARTESIAN_POINT ( 'NONE',  ( 0.0000000000000000000, 0.0000000000000000000, 2.480315000000000047 ) ) ;
#120 = AXIS2_PLACEMENT_3D ( 'NONE', #196, #64, #303 ) ;
#121 = COLOUR_RGB ( '',0.7921568627450980005, 0.8196078431372548767, 0.9333333333333333481 ) ;
#122 = CARTESIAN_POINT ( 'NONE',  ( -0.1424804999999990940, 0.0000000000000000000, 2.480315000000000047 ) ) ;
#123 = ORIENTED_EDGE ( 'NONE', *, *, #169, .T. ) ;
#124 = EDGE_CURVE ( 'NONE', #35, #256, #91, .T. ) ;
#125 = ORIENTED_EDGE ( 'NONE', *, *, #178, .T. ) ;
#126 = CLOSED_SHELL ( 'NONE', ( #144, #235, #204, #277, #289, #295, #63, #252, #193, #138, #29 ) ) ;
#127 = CIRCLE ( 'NONE', #32, 0.1424804999999990940 ) ;
#128 = PRESENTATION_LAYER_ASSIGNMENT (  '', '', ( #253 ) ) ;
#129 = UNCERTAINTY_MEASURE_WITH_UNIT (LENGTH_MEASURE( 1.000000000000000082E-05 ), #147, 'distance_accuracy_value', 'NONE');
#130 = LENGTH_MEASURE_WITH_UNIT ( LENGTH_MEASURE( 0.02539999999999999897 ), #312 );
#131 = ORIENTED_EDGE ( 'NONE', *, *, #8, .F. ) ;
#132 = ORIENTED_EDGE ( 'NONE', *, *, #12, .F. ) ;
#133 = CARTESIAN_POINT ( 'NONE',  ( -0.1574804999999999955, 0.0000000000000000000, 0.8661419999999999675 ) ) ;
#134 = AXIS2_PLACEMENT_3D ( 'NONE', #60, #164, #249 ) ;
#135 = CARTESIAN_POINT ( 'NONE',  ( 0.0000000000000000000, 0.0000000000000000000, 1.707404996040164512E-17 ) ) ;
#136 = CARTESIAN_POINT ( 'NONE',  ( 0.1574305000000000843, 1.927967579131674846E-17, 0.0000000000000000000 ) ) ;
#137 = CARTESIAN_POINT ( 'NONE',  ( 0.0000000000000000000, 0.0000000000000000000, 1.707404996040164512E-17 ) ) ;
#138 = ADVANCED_FACE ( 'NONE', ( #30 ), #182, .T. ) ;
#139 = DIRECTION ( 'NONE',  ( -0.0000000000000000000, -0.0000000000000000000, -1.000000000000000000 ) ) ;
#140 = CARTESIAN_POINT ( 'NONE',  ( 0.0000000000000000000, 0.0000000000000000000, 2.480315000000000047 ) ) ;
#141 = LINE ( 'NONE', #254, #96 ) ;
#142 = CYLINDRICAL_SURFACE ( 'NONE', #134, 0.1574305000000000843 ) ;
#143 =( LENGTH_UNIT ( ) NAMED_UNIT ( * ) SI_UNIT ( $, .METRE. ) );
#144 = ADVANCED_FACE ( 'NONE', ( #15 ), #142, .T. ) ;
#145 =( NAMED_UNIT ( * ) PLANE_ANGLE_UNIT ( ) SI_UNIT ( $, .RADIAN. ) );
#146 = AXIS2_PLACEMENT_3D ( 'NONE', #135, #18, #109 ) ;
#147 =( CONVERSION_BASED_UNIT ( 'INCH', #92 ) LENGTH_UNIT ( ) NAMED_UNIT ( #100 ) );
#148 = EDGE_CURVE ( 'NONE', #317, #291, #151, .T. ) ;
#149 = DIRECTION ( 'NONE',  ( -0.0000000000000000000, -0.0000000000000000000, -1.000000000000000000 ) ) ;
#150 = DIRECTION ( 'NONE',  ( -0.7071067811865627828, 0.0000000000000000000, -0.7071067811865321406 ) ) ;
#151 = CIRCLE ( 'NONE', #99, 0.1424804999999990940 ) ;
#152 = AXIS2_PLACEMENT_3D ( 'NONE', #6, #240, #314 ) ;
#153 = VERTEX_POINT ( 'NONE', #133 ) ;
#154 = AXIS2_PLACEMENT_3D ( 'NONE', #298, #166, #279 ) ;
#155 = ORIENTED_EDGE ( 'NONE', *, *, #270, .F. ) ;
#156 = EDGE_LOOP ( 'NONE', ( #315, #102, #268, #241 ) ) ;
#157 = DIRECTION ( 'NONE',  ( -0.0000000000000000000, -0.0000000000000000000, -1.000000000000000000 ) ) ;
#158 = CARTESIAN_POINT ( 'NONE',  ( 0.0000000000000000000, 0.0000000000000000000, 1.707404996040164512E-17 ) ) ;
#159 = FACE_OUTER_BOUND ( 'NONE', #34, .T. ) ;
#160 = AXIS2_PLACEMENT_3D ( 'NONE', #158, #36, #81 ) ;
#161 = LINE ( 'NONE', #43, #234 ) ;
#162 = MANIFOLD_SOLID_BREP ( 'Cut-Revolve4', #126 ) ;
#163 = VERTEX_POINT ( 'NONE', #185 ) ;
#164 = DIRECTION ( 'NONE',  ( -0.0000000000000000000, -0.0000000000000000000, -1.000000000000000000 ) ) ;
#165 = CARTESIAN_POINT ( 'NONE',  ( 0.0000000000000000000, 0.0000000000000000000, 2.465314999999999923 ) ) ;
#166 = DIRECTION ( 'NONE',  ( -0.0000000000000000000, -0.0000000000000000000, -1.000000000000000000 ) ) ;
#167 = CARTESIAN_POINT ( 'NONE',  ( 0.1424804999999990940, 1.744882882659133128E-17, 2.480315000000000047 ) ) ;
#168 = DIRECTION ( 'NONE',  ( -0.0000000000000000000, -0.0000000000000000000, -1.000000000000000000 ) ) ;
#169 = EDGE_CURVE ( 'NONE', #256, #35, #177, .T. ) ;
#170 = EDGE_LOOP ( 'NONE', ( #267, #180 ) ) ;
#171 = DIRECTION ( 'NONE',  ( -1.000000000000000000, 0.0000000000000000000, 0.0000000000000000000 ) ) ;
#172 = CYLINDRICAL_SURFACE ( 'NONE', #287, 0.1574804999999999955 ) ;
#173 = EDGE_CURVE ( 'NONE', #308, #13, #5, .T. ) ;
#174 = CYLINDRICAL_SURFACE ( 'NONE', #201, 0.1574804999999999955 ) ;
#175 = AXIS2_PLACEMENT_3D ( 'NONE', #41, #316, #62 ) ;
#176 = PRESENTATION_STYLE_ASSIGNMENT (( #70 ) ) ;
#177 = CIRCLE ( 'NONE', #154, 0.1574305000000001398 ) ;
#178 = EDGE_CURVE ( 'NONE', #292, #153, #230, .T. ) ;
#179 = EDGE_LOOP ( 'NONE', ( #123, #246, #17, #19 ) ) ;
#180 = ORIENTED_EDGE ( 'NONE', *, *, #124, .F. ) ;
#181 = EDGE_LOOP ( 'NONE', ( #131, #236, #117, #293 ) ) ;
#182 = CYLINDRICAL_SURFACE ( 'NONE', #206, 0.1574305000000000843 ) ;
#183 = VERTEX_POINT ( 'NONE', #57 ) ;
#184 =( CONVERSION_BASED_UNIT ( 'INCH', #274 ) LENGTH_UNIT ( ) NAMED_UNIT ( #76 ) );
#185 = CARTESIAN_POINT ( 'NONE',  ( -0.1574804999999999955, 0.0000000000000000000, 2.465314999999999923 ) ) ;
#186 = DIRECTION ( 'NONE',  ( -0.0000000000000000000, -0.0000000000000000000, -1.000000000000000000 ) ) ;
#187 = FACE_OUTER_BOUND ( 'NONE', #242, .T. ) ;
#188 = ORIENTED_EDGE ( 'NONE', *, *, #270, .T. ) ;
#189 = AXIS2_PLACEMENT_3D ( 'NONE', #262, #149, #320 ) ;
#190 = PRODUCT_DEFINITION_FORMATION_WITH_SPECIFIED_SOURCE ( 'ANY', '', #93, .NOT_KNOWN. ) ;
#191 = DIRECTION ( 'NONE',  ( 1.000000000000000000, 0.0000000000000000000, 0.0000000000000000000 ) ) ;
#192 = DIRECTION ( 'NONE',  ( -0.0000000000000000000, -0.0000000000000000000, -1.000000000000000000 ) ) ;
#193 = ADVANCED_FACE ( 'NONE', ( #213 ), #313, .T. ) ;
#194 = DIRECTION ( 'NONE',  ( -0.0000000000000000000, -0.0000000000000000000, -1.000000000000000000 ) ) ;
#195 = APPLICATION_CONTEXT ( 'automotive_design' ) ;
#196 = CARTESIAN_POINT ( 'NONE',  ( 0.0000000000000000000, 0.0000000000000000000, 2.465314999999999923 ) ) ;
#197 = CARTESIAN_POINT ( 'NONE',  ( -0.1574305000000001398, 0.0000000000000000000, 0.8661419999999999675 ) ) ;
#198 = ORIENTED_EDGE ( 'NONE', *, *, #173, .T. ) ;
#199 = CARTESIAN_POINT ( 'NONE',  ( -0.007499999999999999722, 9.184850993605147975E-19, 1.707404996040164512E-17 ) ) ;
#200 = AXIS2_PLACEMENT_3D ( 'NONE', #226, #321, #82 ) ;
#201 = AXIS2_PLACEMENT_3D ( 'NONE', #119, #229, #285 ) ;
#202 = EDGE_CURVE ( 'NONE', #163, #153, #161, .T. ) ;
#203 = CARTESIAN_POINT ( 'NONE',  ( 0.1574305000000001398, 0.0000000000000000000, 0.8661419999999999675 ) ) ;
#204 = ADVANCED_FACE ( 'NONE', ( #243 ), #282, .T. ) ;
#205 = FILL_AREA_STYLE ('',( #95 ) ) ;
#206 = AXIS2_PLACEMENT_3D ( 'NONE', #257, #118, #251 ) ;
#207 = EDGE_CURVE ( 'NONE', #13, #308, #72, .T. ) ;
#208 = UNCERTAINTY_MEASURE_WITH_UNIT (LENGTH_MEASURE( 1.000000000000000082E-05 ), #184, 'distance_accuracy_value', 'NONE');
#209 = DIMENSIONAL_EXPONENTS ( 1.000000000000000000, 0.0000000000000000000, 0.0000000000000000000, 0.0000000000000000000, 0.0000000000000000000, 0.0000000000000000000, 0.0000000000000000000 ) ;
#210 = PRODUCT_CONTEXT ( 'NONE', #108, 'mechanical' ) ;
#211 = EDGE_LOOP ( 'NONE', ( #155, #107, #61, #101 ) ) ;
#212 = EDGE_LOOP ( 'NONE', ( #132, #55, #85, #237 ) ) ;
#213 = FACE_OUTER_BOUND ( 'NONE', #98, .T. ) ;
#214 = VECTOR ( 'NONE', #59, 39.37007874015748854 ) ;
#215 = ORIENTED_EDGE ( 'NONE', *, *, #3, .T. ) ;
#216 = SURFACE_STYLE_FILL_AREA ( #302 ) ;
#217 = CARTESIAN_POINT ( 'NONE',  ( 0.1574804999999999955, 1.928579902531247412E-17, 2.480315000000000047 ) ) ;
#218 = FACE_OUTER_BOUND ( 'NONE', #156, .T. ) ;
#219 = DIRECTION ( 'NONE',  ( 1.000000000000000000, 0.0000000000000000000, 0.0000000000000000000 ) ) ;
#220 = VECTOR ( 'NONE', #25, 39.37007874015748143 ) ;
#221 = CIRCLE ( 'NONE', #104, 0.1574804999999999955 ) ;
#222 = CARTESIAN_POINT ( 'NONE',  ( 0.1574305000000001398, 1.927967579131675462E-17, 0.8661419999999999675 ) ) ;
#223 = ADVANCED_BREP_SHAPE_REPRESENTATION ( 'Micro_DMM-080-490', ( #162, #152 ), #324 ) ;
#224 = ORIENTED_EDGE ( 'NONE', *, *, #207, .T. ) ;
#225 = FACE_OUTER_BOUND ( 'NONE', #212, .T. ) ;
#226 = CARTESIAN_POINT ( 'NONE',  ( 0.0000000000000000000, 0.0000000000000000000, 0.1499304999999994115 ) ) ;
#227 = DIRECTION ( 'NONE',  ( -0.0000000000000000000, -0.0000000000000000000, -1.000000000000000000 ) ) ;
#228 = PRODUCT_DEFINITION_CONTEXT ( 'detailed design', #195, 'design' ) ;
#229 = DIRECTION ( 'NONE',  ( -0.0000000000000000000, -0.0000000000000000000, -1.000000000000000000 ) ) ;
#230 = CIRCLE ( 'NONE', #299, 0.1574804999999999955 ) ;
#231 = LINE ( 'NONE', #233, #239 ) ;
#232 = PRODUCT_DEFINITION_SHAPE ( 'NONE', 'NONE',  #52 ) ;
#233 = CARTESIAN_POINT ( 'NONE',  ( -0.1574305000000000843, 0.0000000000000000000, 0.0000000000000000000 ) ) ;
#234 = VECTOR ( 'NONE', #304, 39.37007874015748143 ) ;
#235 = ADVANCED_FACE ( 'NONE', ( #187 ), #238, .T. ) ;
#236 = ORIENTED_EDGE ( 'NONE', *, *, #124, .T. ) ;
#237 = ORIENTED_EDGE ( 'NONE', *, *, #178, .F. ) ;
#238 = CONICAL_SURFACE ( 'NONE', #84, 0.007499999999999999722, 0.7853981633974503884 ) ;
#239 = VECTOR ( 'NONE', #284, 39.37007874015748143 ) ;
#240 = DIRECTION ( 'NONE',  ( 0.0000000000000000000, 0.0000000000000000000, 1.000000000000000000 ) ) ;
#241 = ORIENTED_EDGE ( 'NONE', *, *, #110, .F. ) ;
#242 = EDGE_LOOP ( 'NONE', ( #77, #103, #271, #7 ) ) ;
#243 = FACE_OUTER_BOUND ( 'NONE', #211, .T. ) ;
#244 = CONICAL_SURFACE ( 'NONE', #90, 0.1424804999999990940, 0.7853981633974699283 ) ;
#245 = AXIS2_PLACEMENT_3D ( 'NONE', #165, #278, #44 ) ;
#246 = ORIENTED_EDGE ( 'NONE', *, *, #8, .T. ) ;
#247 = DIRECTION ( 'NONE',  ( -1.000000000000000000, 0.0000000000000000000, 0.0000000000000000000 ) ) ;
#248 = LINE ( 'NONE', #217, #281 ) ;
#249 = DIRECTION ( 'NONE',  ( -1.000000000000000000, 0.0000000000000000000, 0.0000000000000000000 ) ) ;
#250 = CARTESIAN_POINT ( 'NONE',  ( 0.007499999999999999722, 0.0000000000000000000, 1.707404996040164512E-17 ) ) ;
#251 = DIRECTION ( 'NONE',  ( -1.000000000000000000, 0.0000000000000000000, 0.0000000000000000000 ) ) ;
#252 = ADVANCED_FACE ( 'NONE', ( #106, #322 ), #83, .T. ) ;
#253 = STYLED_ITEM ( 'NONE', ( #294 ), #162 ) ;
#254 = CARTESIAN_POINT ( 'NONE',  ( -0.1424804999999990940, 0.0000000000000000000, 2.480315000000000047 ) ) ;
#255 =( NAMED_UNIT ( * ) SI_UNIT ( $, .STERADIAN. ) SOLID_ANGLE_UNIT ( ) );
#256 = VERTEX_POINT ( 'NONE', #197 ) ;
#257 = CARTESIAN_POINT ( 'NONE',  ( 0.0000000000000000000, 0.0000000000000000000, 0.0000000000000000000 ) ) ;
#258 = DIRECTION ( 'NONE',  ( 1.000000000000000000, 0.0000000000000000000, -0.0000000000000000000 ) ) ;
#259 = DIRECTION ( 'NONE',  ( 1.000000000000000000, 0.0000000000000000000, 0.0000000000000000000 ) ) ;
#260 = DIRECTION ( 'NONE',  ( 0.0000000000000000000, 0.0000000000000000000, 1.000000000000000000 ) ) ;
#261 = CARTESIAN_POINT ( 'NONE',  ( 0.1424804999999990940, 1.836731392595189962E-17, 2.480315000000000047 ) ) ;
#262 = CARTESIAN_POINT ( 'NONE',  ( 0.0000000000000000000, 0.0000000000000000000, 0.8661419999999999675 ) ) ;
#263 = APPLICATION_PROTOCOL_DEFINITION ( 'draft international standard', 'automotive_design', 1998, #195 ) ;
#264 =( GEOMETRIC_REPRESENTATION_CONTEXT ( 3 ) GLOBAL_UNCERTAINTY_ASSIGNED_CONTEXT ( ( #94 ) ) GLOBAL_UNIT_ASSIGNED_CONTEXT ( ( #9, #290, #73 ) ) REPRESENTATION_CONTEXT ( 'NONE', 'WORKASPACE' ) );
#265 = EDGE_CURVE ( 'NONE', #308, #74, #310, .T. ) ;
#266 = MECHANICAL_DESIGN_GEOMETRIC_PRESENTATION_REPRESENTATION (  '', ( #253 ), #1 ) ;
#267 = ORIENTED_EDGE ( 'NONE', *, *, #169, .F. ) ;
#268 = ORIENTED_EDGE ( 'NONE', *, *, #112, .T. ) ;
#269 = DIRECTION ( 'NONE',  ( 0.0000000000000000000, 0.0000000000000000000, 1.000000000000000000 ) ) ;
#270 = EDGE_CURVE ( 'NONE', #291, #317, #127, .T. ) ;
#271 = ORIENTED_EDGE ( 'NONE', *, *, #68, .T. ) ;
#272 =( NAMED_UNIT ( * ) PLANE_ANGLE_UNIT ( ) SI_UNIT ( $, .RADIAN. ) );
#273 = ORIENTED_EDGE ( 'NONE', *, *, #207, .F. ) ;
#274 = LENGTH_MEASURE_WITH_UNIT ( LENGTH_MEASURE( 0.02539999999999999897 ), #56 );
#275 = EDGE_LOOP ( 'NONE', ( #37, #188 ) ) ;
#276 = FILL_AREA_STYLE_COLOUR ( '', #16 ) ;
#277 = ADVANCED_FACE ( 'NONE', ( #46 ), #172, .T. ) ;
#278 = DIRECTION ( 'NONE',  ( 0.0000000000000000000, 0.0000000000000000000, -1.000000000000000000 ) ) ;
#279 = DIRECTION ( 'NONE',  ( -1.000000000000000000, 0.0000000000000000000, 0.0000000000000000000 ) ) ;
#280 = PRODUCT_RELATED_PRODUCT_CATEGORY ( 'part', '', ( #93 ) ) ;
#281 = VECTOR ( 'NONE', #186, 39.37007874015748143 ) ;
#282 = CONICAL_SURFACE ( 'NONE', #175, 0.1424804999999990940, 0.7853981633974699283 ) ;
#283 = ORIENTED_EDGE ( 'NONE', *, *, #79, .T. ) ;
#284 = DIRECTION ( 'NONE',  ( -0.0000000000000000000, -0.0000000000000000000, -1.000000000000000000 ) ) ;
#285 = DIRECTION ( 'NONE',  ( -1.000000000000000000, 0.0000000000000000000, 0.0000000000000000000 ) ) ;
#286 = CIRCLE ( 'NONE', #245, 0.1574804999999999955 ) ;
#287 = AXIS2_PLACEMENT_3D ( 'NONE', #27, #227, #171 ) ;
#288 = SURFACE_SIDE_STYLE ('',( #311 ) ) ;
#289 = ADVANCED_FACE ( 'NONE', ( #225 ), #174, .T. ) ;
#290 =( NAMED_UNIT ( * ) PLANE_ANGLE_UNIT ( ) SI_UNIT ( $, .RADIAN. ) );
#291 = VERTEX_POINT ( 'NONE', #261 ) ;
#292 = VERTEX_POINT ( 'NONE', #69 ) ;
#293 = ORIENTED_EDGE ( 'NONE', *, *, #300, .F. ) ;
#294 = PRESENTATION_STYLE_ASSIGNMENT (( #296 ) ) ;
#295 = ADVANCED_FACE ( 'NONE', ( #306 ), #49, .T. ) ;
#296 = SURFACE_STYLE_USAGE ( .BOTH. , #22 ) ;
#297 = ORIENTED_EDGE ( 'NONE', *, *, #265, .F. ) ;
#298 = CARTESIAN_POINT ( 'NONE',  ( 0.0000000000000000000, 0.0000000000000000000, 0.8661419999999999675 ) ) ;
#299 = AXIS2_PLACEMENT_3D ( 'NONE', #20, #157, #247 ) ;
#300 = EDGE_CURVE ( 'NONE', #80, #74, #78, .T. ) ;
#301 = CARTESIAN_POINT ( 'NONE',  ( -0.1574305000000000565, 1.927967579131674230E-17, 0.1499304999999994115 ) ) ;
#302 = FILL_AREA_STYLE ('',( #276 ) ) ;
#303 = DIRECTION ( 'NONE',  ( 1.000000000000000000, 0.0000000000000000000, 0.0000000000000000000 ) ) ;
#304 = DIRECTION ( 'NONE',  ( -0.0000000000000000000, -0.0000000000000000000, -1.000000000000000000 ) ) ;
#305 = DIRECTION ( 'NONE',  ( -1.000000000000000000, 0.0000000000000000000, 0.0000000000000000000 ) ) ;
#306 = FACE_OUTER_BOUND ( 'NONE', #275, .T. ) ;
#307 = CIRCLE ( 'NONE', #120, 0.1574804999999999955 ) ;
#308 = VERTEX_POINT ( 'NONE', #26 ) ;
#309 = CARTESIAN_POINT ( 'NONE',  ( 0.0000000000000000000, 0.0000000000000000000, 2.480315000000000047 ) ) ;
#310 = LINE ( 'NONE', #199, #323 ) ;
#311 = SURFACE_STYLE_FILL_AREA ( #205 ) ;
#312 =( LENGTH_UNIT ( ) NAMED_UNIT ( * ) SI_UNIT ( $, .METRE. ) );
#313 = CONICAL_SURFACE ( 'NONE', #160, 0.007499999999999999722, 0.7853981633974503884 ) ;
#314 = DIRECTION ( 'NONE',  ( 1.000000000000000000, 0.0000000000000000000, 0.0000000000000000000 ) ) ;
#315 = ORIENTED_EDGE ( 'NONE', *, *, #75, .F. ) ;
#316 = DIRECTION ( 'NONE',  ( 0.0000000000000000000, 0.0000000000000000000, -1.000000000000000000 ) ) ;
#317 = VERTEX_POINT ( 'NONE', #122 ) ;
#318 = PLANE ( 'NONE',  #66 ) ;
#319 = DIRECTION ( 'NONE',  ( 0.0000000000000000000, 0.0000000000000000000, 1.000000000000000000 ) ) ;
#320 = DIRECTION ( 'NONE',  ( -1.000000000000000000, 0.0000000000000000000, 0.0000000000000000000 ) ) ;
#321 = DIRECTION ( 'NONE',  ( -0.0000000000000000000, -0.0000000000000000000, -1.000000000000000000 ) ) ;
#322 = FACE_OUTER_BOUND ( 'NONE', #11, .T. ) ;
#323 = VECTOR ( 'NONE', #327, 39.37007874015748143 ) ;
#324 =( GEOMETRIC_REPRESENTATION_CONTEXT ( 3 ) GLOBAL_UNCERTAINTY_ASSIGNED_CONTEXT ( ( #129 ) ) GLOBAL_UNIT_ASSIGNED_CONTEXT ( ( #147, #145, #47 ) ) REPRESENTATION_CONTEXT ( 'NONE', 'WORKASPACE' ) );
#325 = CARTESIAN_POINT ( 'NONE',  ( 0.0000000000000000000, 0.0000000000000000000, 0.8661419999999999675 ) ) ;
#326 = EDGE_LOOP ( 'NONE', ( #54, #14, #88, #67 ) ) ;
#327 = DIRECTION ( 'NONE',  ( -0.7071067811865490160, 8.659560562354951347E-17, 0.7071067811865460184 ) ) ;
#328 = DIRECTION ( 'NONE',  ( -1.000000000000000000, 0.0000000000000000000, 0.0000000000000000000 ) ) ;
#329 = EDGE_CURVE ( 'NONE', #256, #74, #231, .T. ) ;
ENDSEC;
END-ISO-10303-21;
