ISO-10303-21;
HEADER;
FILE_DESCRIPTION (( 'STEP AP214' ),
    '1' );
FILE_NAME ('59580.STEP',
    '2023-07-24T15:49:31',
    ( '' ),
    ( '' ),
    'SwSTEP 2.0',
    'SolidWorks 2023',
    '' );
FILE_SCHEMA (( 'AUTOMOTIVE_DESIGN' ));
ENDSEC;

DATA;
#1 = EDGE_LOOP ( 'NONE', ( #94, #92, #245, #100 ) ) ;
#2 = APPLICATION_PROTOCOL_DEFINITION ( 'draft international standard', 'automotive_design', 1998, #69 ) ;
#3 = STYLED_ITEM ( 'NONE', ( #113 ), #208 ) ;
#4 = FILL_AREA_STYLE_COLOUR ( '', #23 ) ;
#5 = DIRECTION ( 'NONE',  ( 0.000000000000000000, 0.000000000000000000, -1.000000000000000000 ) ) ;
#6 = ADVANCED_FACE ( 'NONE', ( #29 ), #73, .T. ) ;
#7 = DIRECTION ( 'NONE',  ( -0.000000000000000000, -1.000000000000000000, -0.000000000000000000 ) ) ;
#8 = COLOUR_RGB ( '',1.000000000000000000, 0.000000000000000000, 0.000000000000000000 ) ;
#9 = CIRCLE ( 'NONE', #140, 5.000000000000000000 ) ;
#10 = EDGE_CURVE ( 'NONE', #26, #70, #225, .T. ) ;
#11 = LINE ( 'NONE', #199, #43 ) ;
#12 = PRESENTATION_STYLE_ASSIGNMENT (( #114 ) ) ;
#13 = FILL_AREA_STYLE ('',( #81 ) ) ;
#14 = CARTESIAN_POINT ( 'NONE',  ( 6.123233995736766282E-16, 0.000000000000000000, 5.000000000000000000 ) ) ;
#15 = ADVANCED_FACE ( 'NONE', ( #277 ), #108, .T. ) ;
#16 = PRESENTATION_STYLE_ASSIGNMENT (( #220 ) ) ;
#17 = FILL_AREA_STYLE ('',( #34 ) ) ;
#18 =( GEOMETRIC_REPRESENTATION_CONTEXT ( 3 ) GLOBAL_UNCERTAINTY_ASSIGNED_CONTEXT ( ( #99 ) ) GLOBAL_UNIT_ASSIGNED_CONTEXT ( ( #87, #238, #39 ) ) REPRESENTATION_CONTEXT ( 'NONE', 'WORKASPACE' ) );
#19 = PRESENTATION_STYLE_ASSIGNMENT (( #173 ) ) ;
#20 =( LENGTH_UNIT ( ) NAMED_UNIT ( * ) SI_UNIT ( .MILLI., .METRE. ) );
#21 = DIRECTION ( 'NONE',  ( 3.061616997868382402E-17, 1.000000000000000000, -0.000000000000000000 ) ) ;
#22 = DIRECTION ( 'NONE',  ( -0.000000000000000000, -1.000000000000000000, -0.000000000000000000 ) ) ;
#23 = COLOUR_RGB ( '',1.000000000000000000, 0.000000000000000000, 0.000000000000000000 ) ;
#24 = VERTEX_POINT ( 'NONE', #195 ) ;
#25 = PRESENTATION_LAYER_ASSIGNMENT (  '', '', ( #57 ) ) ;
#26 = VERTEX_POINT ( 'NONE', #40 ) ;
#27 = DIRECTION ( 'NONE',  ( 3.061616997868382402E-17, 1.000000000000000000, -0.000000000000000000 ) ) ;
#28 = AXIS2_PLACEMENT_3D ( 'NONE', #32, #212, #103 ) ;
#29 = FACE_OUTER_BOUND ( 'NONE', #1, .T. ) ;
#30 = DIRECTION ( 'NONE',  ( 0.000000000000000000, 0.000000000000000000, -1.000000000000000000 ) ) ;
#31 = UNCERTAINTY_MEASURE_WITH_UNIT (LENGTH_MEASURE( 1.000000000000000082E-05 ), #278, 'distance_accuracy_value', 'NONE');
#32 = CARTESIAN_POINT ( 'NONE',  ( 2.343374660409151486E-33, 15.00000000000000000, 0.000000000000000000 ) ) ;
#33 = CARTESIAN_POINT ( 'NONE',  ( 5.000000000000000000, 15.00000000000000000, 6.123233995736766282E-16 ) ) ;
#34 = FILL_AREA_STYLE_COLOUR ( '', #166 ) ;
#35 = FACE_OUTER_BOUND ( 'NONE', #263, .T. ) ;
#36 = FILL_AREA_STYLE ('',( #254 ) ) ;
#37 = MECHANICAL_DESIGN_GEOMETRIC_PRESENTATION_REPRESENTATION (  '', ( #185 ), #237 ) ;
#38 = CARTESIAN_POINT ( 'NONE',  ( 0.000000000000000000, 15.00000000000000000, 0.000000000000000000 ) ) ;
#39 =( NAMED_UNIT ( * ) SI_UNIT ( $, .STERADIAN. ) SOLID_ANGLE_UNIT ( ) );
#40 = CARTESIAN_POINT ( 'NONE',  ( 6.123233995736766282E-16, 15.00000000000000000, 5.000000000000000000 ) ) ;
#41 = FILL_AREA_STYLE_COLOUR ( '', #74 ) ;
#42 =( NAMED_UNIT ( * ) PLANE_ANGLE_UNIT ( ) SI_UNIT ( $, .RADIAN. ) );
#43 = VECTOR ( 'NONE', #224, 1000.000000000000000 ) ;
#44 = SURFACE_SIDE_STYLE ('',( #132 ) ) ;
#45 = DIRECTION ( 'NONE',  ( -0.000000000000000000, -1.000000000000000000, -0.000000000000000000 ) ) ;
#46 = ADVANCED_FACE ( 'NONE', ( #280 ), #82, .T. ) ;
#47 = VERTEX_POINT ( 'NONE', #33 ) ;
#48 = CARTESIAN_POINT ( 'NONE',  ( 1.469576158976823750E-15, 63.00000000000000000, 0.000000000000000000 ) ) ;
#49 = ORIENTED_EDGE ( 'NONE', *, *, #60, .F. ) ;
#50 = COLOUR_RGB ( '',1.000000000000000000, 0.000000000000000000, 0.000000000000000000 ) ;
#51 = FACE_OUTER_BOUND ( 'NONE', #283, .T. ) ;
#52 = ORIENTED_EDGE ( 'NONE', *, *, #75, .F. ) ;
#53 = EDGE_CURVE ( 'NONE', #268, #47, #207, .T. ) ;
#54 = EDGE_LOOP ( 'NONE', ( #260, #90, #227, #52 ) ) ;
#55 = DIRECTION ( 'NONE',  ( -0.000000000000000000, -1.000000000000000000, -0.000000000000000000 ) ) ;
#56 = AXIS2_PLACEMENT_3D ( 'NONE', #170, #21, #88 ) ;
#57 = STYLED_ITEM ( 'NONE', ( #16 ), #123 ) ;
#58 = CARTESIAN_POINT ( 'NONE',  ( -4.999999999999996447, 63.00000000000000000, 0.000000000000000000 ) ) ;
#59 =( NAMED_UNIT ( * ) PLANE_ANGLE_UNIT ( ) SI_UNIT ( $, .RADIAN. ) );
#60 = EDGE_CURVE ( 'NONE', #149, #26, #284, .T. ) ;
#61 =( LENGTH_UNIT ( ) NAMED_UNIT ( * ) SI_UNIT ( .MILLI., .METRE. ) );
#62 = MECHANICAL_DESIGN_GEOMETRIC_PRESENTATION_REPRESENTATION (  '', ( #154 ), #276 ) ;
#63 = VECTOR ( 'NONE', #264, 1000.000000000000000 ) ;
#64 = SURFACE_STYLE_FILL_AREA ( #17 ) ;
#65 = SURFACE_STYLE_USAGE ( .BOTH. , #194 ) ;
#66 =( NAMED_UNIT ( * ) SI_UNIT ( $, .STERADIAN. ) SOLID_ANGLE_UNIT ( ) );
#67 = EDGE_CURVE ( 'NONE', #24, #70, #133, .T. ) ;
#68 = ORIENTED_EDGE ( 'NONE', *, *, #127, .F. ) ;
#69 = APPLICATION_CONTEXT ( 'automotive_design' ) ;
#70 = VERTEX_POINT ( 'NONE', #273 ) ;
#71 = ORIENTED_EDGE ( 'NONE', *, *, #60, .T. ) ;
#72 = CARTESIAN_POINT ( 'NONE',  ( -5.000000000000000000, 15.00000000000000000, 0.000000000000000000 ) ) ;
#73 = CYLINDRICAL_SURFACE ( 'NONE', #124, 5.000000000000000000 ) ;
#74 = COLOUR_RGB ( '',0.7921568627450980005, 0.8196078431372548767, 0.9333333333333333481 ) ;
#75 = EDGE_CURVE ( 'NONE', #230, #160, #125, .T. ) ;
#76 = DIRECTION ( 'NONE',  ( 3.061616997868382402E-17, 1.000000000000000000, -0.000000000000000000 ) ) ;
#77 = PRESENTATION_LAYER_ASSIGNMENT (  '', '', ( #275 ) ) ;
#78 = CIRCLE ( 'NONE', #247, 4.999999999999998224 ) ;
#79 = FACE_OUTER_BOUND ( 'NONE', #144, .T. ) ;
#80 = SURFACE_STYLE_FILL_AREA ( #192 ) ;
#81 = FILL_AREA_STYLE_COLOUR ( '', #8 ) ;
#82 = CYLINDRICAL_SURFACE ( 'NONE', #97, 5.000000000000000000 ) ;
#83 = VECTOR ( 'NONE', #178, 1000.000000000000000 ) ;
#84 = DIRECTION ( 'NONE',  ( 0.000000000000000000, -0.000000000000000000, 1.000000000000000000 ) ) ;
#85 = PRODUCT ( '59580', '59580', '', ( #204 ) ) ;
#86 = PRESENTATION_STYLE_ASSIGNMENT (( #255 ) ) ;
#87 =( LENGTH_UNIT ( ) NAMED_UNIT ( * ) SI_UNIT ( .MILLI., .METRE. ) );
#88 = DIRECTION ( 'NONE',  ( -1.000000000000000000, 0.000000000000000000, 0.000000000000000000 ) ) ;
#89 = ORIENTED_EDGE ( 'NONE', *, *, #67, .T. ) ;
#90 = ORIENTED_EDGE ( 'NONE', *, *, #127, .T. ) ;
#91 = CARTESIAN_POINT ( 'NONE',  ( 5.000000000000000000, 63.00000000000000000, 0.000000000000000000 ) ) ;
#92 = ORIENTED_EDGE ( 'NONE', *, *, #271, .T. ) ;
#93 = DIRECTION ( 'NONE',  ( 3.061616997868382402E-17, 1.000000000000000000, -0.000000000000000000 ) ) ;
#94 = ORIENTED_EDGE ( 'NONE', *, *, #10, .F. ) ;
#95 = CARTESIAN_POINT ( 'NONE',  ( 0.000000000000000000, 0.000000000000000000, 0.000000000000000000 ) ) ;
#96 = ADVANCED_FACE ( 'NONE', ( #236 ), #248, .F. ) ;
#97 = AXIS2_PLACEMENT_3D ( 'NONE', #167, #55, #269 ) ;
#98 = AXIS2_PLACEMENT_3D ( 'NONE', #95, #288, #285 ) ;
#99 = UNCERTAINTY_MEASURE_WITH_UNIT (LENGTH_MEASURE( 1.000000000000000082E-05 ), #87, 'distance_accuracy_value', 'NONE');
#100 = ORIENTED_EDGE ( 'NONE', *, *, #286, .F. ) ;
#101 = CARTESIAN_POINT ( 'NONE',  ( 1.469576158976823750E-15, 63.00000000000000000, 0.000000000000000000 ) ) ;
#102 =( GEOMETRIC_REPRESENTATION_CONTEXT ( 3 ) GLOBAL_UNCERTAINTY_ASSIGNED_CONTEXT ( ( #128 ) ) GLOBAL_UNIT_ASSIGNED_CONTEXT ( ( #20, #242, #66 ) ) REPRESENTATION_CONTEXT ( 'NONE', 'WORKASPACE' ) );
#103 = DIRECTION ( 'NONE',  ( -1.000000000000000000, 3.061616997868382402E-17, 0.000000000000000000 ) ) ;
#104 = DIRECTION ( 'NONE',  ( 0.000000000000000000, 1.000000000000000000, 0.000000000000000000 ) ) ;
#105 =( LENGTH_UNIT ( ) NAMED_UNIT ( * ) SI_UNIT ( .MILLI., .METRE. ) );
#106 = MANIFOLD_SOLID_BREP ( 'Revolve - Cutting Edge', #215 ) ;
#107 =( NAMED_UNIT ( * ) SI_UNIT ( $, .STERADIAN. ) SOLID_ANGLE_UNIT ( ) );
#108 = CYLINDRICAL_SURFACE ( 'NONE', #56, 4.999999999999999112 ) ;
#109 = DIRECTION ( 'NONE',  ( -1.000000000000000000, 0.000000000000000000, 0.000000000000000000 ) ) ;
#110 =( LENGTH_UNIT ( ) NAMED_UNIT ( * ) SI_UNIT ( .MILLI., .METRE. ) );
#111 =( GEOMETRIC_REPRESENTATION_CONTEXT ( 3 ) GLOBAL_UNCERTAINTY_ASSIGNED_CONTEXT ( ( #233 ) ) GLOBAL_UNIT_ASSIGNED_CONTEXT ( ( #110, #42, #187 ) ) REPRESENTATION_CONTEXT ( 'NONE', 'WORKASPACE' ) );
#112 = PRODUCT_RELATED_PRODUCT_CATEGORY ( 'part', '', ( #85 ) ) ;
#113 = PRESENTATION_STYLE_ASSIGNMENT (( #65 ) ) ;
#114 = SURFACE_STYLE_USAGE ( .BOTH. , #222 ) ;
#115 = ORIENTED_EDGE ( 'NONE', *, *, #193, .F. ) ;
#116 = DIRECTION ( 'NONE',  ( 0.000000000000000000, 0.000000000000000000, -1.000000000000000000 ) ) ;
#117 =( GEOMETRIC_REPRESENTATION_CONTEXT ( 3 ) GLOBAL_UNCERTAINTY_ASSIGNED_CONTEXT ( ( #206 ) ) GLOBAL_UNIT_ASSIGNED_CONTEXT ( ( #214, #221, #217 ) ) REPRESENTATION_CONTEXT ( 'NONE', 'WORKASPACE' ) );
#118 = VECTOR ( 'NONE', #27, 1000.000000000000000 ) ;
#119 = ORIENTED_EDGE ( 'NONE', *, *, #240, .T. ) ;
#120 = SHAPE_DEFINITION_REPRESENTATION ( #249, #129 ) ;
#121 = CARTESIAN_POINT ( 'NONE',  ( 5.000000000000000000, 63.00000000000000000, 6.123233995736766282E-16 ) ) ;
#122 = DIRECTION ( 'NONE',  ( -3.061616997868382402E-17, -1.000000000000000000, 0.000000000000000000 ) ) ;
#123 = ADVANCED_FACE ( 'NONE', ( #35 ), #169, .T. ) ;
#124 = AXIS2_PLACEMENT_3D ( 'NONE', #142, #250, #200 ) ;
#125 = CIRCLE ( 'NONE', #265, 4.999999999999998224 ) ;
#126 = ORIENTED_EDGE ( 'NONE', *, *, #271, .F. ) ;
#127 = EDGE_CURVE ( 'NONE', #47, #268, #270, .T. ) ;
#128 = UNCERTAINTY_MEASURE_WITH_UNIT (LENGTH_MEASURE( 1.000000000000000082E-05 ), #20, 'distance_accuracy_value', 'NONE');
#129 = ADVANCED_BREP_SHAPE_REPRESENTATION ( '59580', ( #106, #198, #158 ), #102 ) ;
#130 = SURFACE_SIDE_STYLE ('',( #64 ) ) ;
#131 = DIRECTION ( 'NONE',  ( 3.061616997868382402E-17, 1.000000000000000000, -0.000000000000000000 ) ) ;
#132 = SURFACE_STYLE_FILL_AREA ( #165 ) ;
#133 = CIRCLE ( 'NONE', #197, 5.000000000000000000 ) ;
#134 = CIRCLE ( 'NONE', #229, 5.000000000000000000 ) ;
#135 = SURFACE_STYLE_USAGE ( .BOTH. , #223 ) ;
#136 = FILL_AREA_STYLE_COLOUR ( '', #50 ) ;
#137 = SURFACE_STYLE_FILL_AREA ( #36 ) ;
#138 = DIRECTION ( 'NONE',  ( -1.000000000000000000, 0.000000000000000000, 0.000000000000000000 ) ) ;
#139 = AXIS2_PLACEMENT_3D ( 'NONE', #196, #131, #109 ) ;
#140 = AXIS2_PLACEMENT_3D ( 'NONE', #241, #22, #116 ) ;
#141 = CARTESIAN_POINT ( 'NONE',  ( 1.469576158976823750E-15, 63.00000000000000000, 0.000000000000000000 ) ) ;
#142 = CARTESIAN_POINT ( 'NONE',  ( 0.000000000000000000, 0.000000000000000000, 0.000000000000000000 ) ) ;
#143 = LINE ( 'NONE', #183, #63 ) ;
#144 = EDGE_LOOP ( 'NONE', ( #89, #257 ) ) ;
#145 = ORIENTED_EDGE ( 'NONE', *, *, #226, .T. ) ;
#146 = ORIENTED_EDGE ( 'NONE', *, *, #53, .T. ) ;
#147 = DIRECTION ( 'NONE',  ( 0.000000000000000000, 0.000000000000000000, 1.000000000000000000 ) ) ;
#148 = MECHANICAL_DESIGN_GEOMETRIC_PRESENTATION_REPRESENTATION (  '', ( #57 ), #117 ) ;
#149 = VERTEX_POINT ( 'NONE', #155 ) ;
#150 = DIRECTION ( 'NONE',  ( -1.000000000000000000, 0.000000000000000000, 0.000000000000000000 ) ) ;
#151 = UNCERTAINTY_MEASURE_WITH_UNIT (LENGTH_MEASURE( 1.000000000000000082E-05 ), #61, 'distance_accuracy_value', 'NONE');
#152 = ADVANCED_FACE ( 'NONE', ( #256 ), #282, .T. ) ;
#153 = CARTESIAN_POINT ( 'NONE',  ( 0.000000000000000000, 15.00000000000000000, 0.000000000000000000 ) ) ;
#154 = STYLED_ITEM ( 'NONE', ( #252 ), #198 ) ;
#155 = CARTESIAN_POINT ( 'NONE',  ( 0.000000000000000000, 15.00000000000000000, -5.000000000000000000 ) ) ;
#156 = PLANE ( 'NONE',  #98 ) ;
#157 = AXIS2_PLACEMENT_3D ( 'NONE', #209, #76, #150 ) ;
#158 = AXIS2_PLACEMENT_3D ( 'NONE', #205, #147, #164 ) ;
#159 = PRESENTATION_LAYER_ASSIGNMENT (  '', '', ( #154 ) ) ;
#160 = VERTEX_POINT ( 'NONE', #58 ) ;
#161 = DIRECTION ( 'NONE',  ( 1.000000000000000000, -3.061616997868382402E-17, 0.000000000000000000 ) ) ;
#162 = PRODUCT_DEFINITION ( 'UNKNOWN', '', #177, #189 ) ;
#163 = ORIENTED_EDGE ( 'NONE', *, *, #53, .F. ) ;
#164 = DIRECTION ( 'NONE',  ( 1.000000000000000000, 0.000000000000000000, 0.000000000000000000 ) ) ;
#165 = FILL_AREA_STYLE ('',( #4 ) ) ;
#166 = COLOUR_RGB ( '',0.7921568627450980005, 0.8196078431372548767, 0.9333333333333333481 ) ;
#167 = CARTESIAN_POINT ( 'NONE',  ( 0.000000000000000000, 0.000000000000000000, 0.000000000000000000 ) ) ;
#168 = AXIS2_PLACEMENT_3D ( 'NONE', #141, #172, #138 ) ;
#169 = PLANE ( 'NONE',  #180 ) ;
#170 = CARTESIAN_POINT ( 'NONE',  ( 1.469576158976823750E-15, 63.00000000000000000, 0.000000000000000000 ) ) ;
#171 = SURFACE_SIDE_STYLE ('',( #80 ) ) ;
#172 = DIRECTION ( 'NONE',  ( 3.061616997868382402E-17, 1.000000000000000000, -0.000000000000000000 ) ) ;
#173 = SURFACE_STYLE_USAGE ( .BOTH. , #44 ) ;
#174 =( NAMED_UNIT ( * ) PLANE_ANGLE_UNIT ( ) SI_UNIT ( $, .RADIAN. ) );
#175 = SURFACE_STYLE_FILL_AREA ( #13 ) ;
#176 = PRESENTATION_LAYER_ASSIGNMENT (  '', '', ( #3 ) ) ;
#177 = PRODUCT_DEFINITION_FORMATION_WITH_SPECIFIED_SOURCE ( 'ANY', '', #85, .NOT_KNOWN. ) ;
#178 = DIRECTION ( 'NONE',  ( -0.000000000000000000, -1.000000000000000000, -0.000000000000000000 ) ) ;
#179 = CLOSED_SHELL ( 'NONE', ( #15, #96, #152, #267 ) ) ;
#180 = AXIS2_PLACEMENT_3D ( 'NONE', #38, #104, #84 ) ;
#181 = ORIENTED_EDGE ( 'NONE', *, *, #231, .F. ) ;
#182 = APPLICATION_PROTOCOL_DEFINITION ( 'draft international standard', 'automotive_design', 1998, #253 ) ;
#183 = CARTESIAN_POINT ( 'NONE',  ( -4.999999999999997335, 63.00000000000000000, 0.000000000000000000 ) ) ;
#184 = DIRECTION ( 'NONE',  ( -1.000000000000000000, 0.000000000000000000, 0.000000000000000000 ) ) ;
#185 = STYLED_ITEM ( 'NONE', ( #86 ), #106 ) ;
#186 = ORIENTED_EDGE ( 'NONE', *, *, #67, .F. ) ;
#187 =( NAMED_UNIT ( * ) SI_UNIT ( $, .STERADIAN. ) SOLID_ANGLE_UNIT ( ) );
#188 = DIRECTION ( 'NONE',  ( 3.061616997868382402E-17, 1.000000000000000000, -0.000000000000000000 ) ) ;
#189 = PRODUCT_DEFINITION_CONTEXT ( 'detailed design', #253, 'design' ) ;
#190 = CARTESIAN_POINT ( 'NONE',  ( 0.000000000000000000, 0.000000000000000000, 0.000000000000000000 ) ) ;
#191 =( GEOMETRIC_REPRESENTATION_CONTEXT ( 3 ) GLOBAL_UNCERTAINTY_ASSIGNED_CONTEXT ( ( #31 ) ) GLOBAL_UNIT_ASSIGNED_CONTEXT ( ( #278, #59, #219 ) ) REPRESENTATION_CONTEXT ( 'NONE', 'WORKASPACE' ) );
#192 = FILL_AREA_STYLE ('',( #136 ) ) ;
#193 = EDGE_CURVE ( 'NONE', #149, #24, #11, .T. ) ;
#194 = SURFACE_SIDE_STYLE ('',( #175 ) ) ;
#195 = CARTESIAN_POINT ( 'NONE',  ( 0.000000000000000000, 0.000000000000000000, -5.000000000000000000 ) ) ;
#196 = CARTESIAN_POINT ( 'NONE',  ( 0.000000000000000000, 15.00000000000000000, 0.000000000000000000 ) ) ;
#197 = AXIS2_PLACEMENT_3D ( 'NONE', #190, #7, #5 ) ;
#198 = MANIFOLD_SOLID_BREP ( 'Revolve - Tool Body (Straight Shanked)', #179 ) ;
#199 = CARTESIAN_POINT ( 'NONE',  ( 0.000000000000000000, 0.000000000000000000, -5.000000000000000000 ) ) ;
#200 = DIRECTION ( 'NONE',  ( 0.000000000000000000, 0.000000000000000000, -1.000000000000000000 ) ) ;
#201 = ORIENTED_EDGE ( 'NONE', *, *, #226, .F. ) ;
#202 = DIRECTION ( 'NONE',  ( 0.000000000000000000, 0.000000000000000000, -1.000000000000000000 ) ) ;
#203 = AXIS2_PLACEMENT_3D ( 'NONE', #91, #122, #161 ) ;
#204 = PRODUCT_CONTEXT ( 'NONE', #69, 'mechanical' ) ;
#205 = CARTESIAN_POINT ( 'NONE',  ( 0.000000000000000000, 0.000000000000000000, 0.000000000000000000 ) ) ;
#206 = UNCERTAINTY_MEASURE_WITH_UNIT (LENGTH_MEASURE( 1.000000000000000082E-05 ), #214, 'distance_accuracy_value', 'NONE');
#207 = CIRCLE ( 'NONE', #157, 5.000000000000000000 ) ;
#208 = ADVANCED_FACE ( 'NONE', ( #79 ), #156, .T. ) ;
#209 = CARTESIAN_POINT ( 'NONE',  ( 0.000000000000000000, 15.00000000000000000, 0.000000000000000000 ) ) ;
#210 = STYLED_ITEM ( 'NONE', ( #19 ), #6 ) ;
#211 = UNCERTAINTY_MEASURE_WITH_UNIT (LENGTH_MEASURE( 1.000000000000000082E-05 ), #105, 'distance_accuracy_value', 'NONE');
#212 = DIRECTION ( 'NONE',  ( 3.061616997868382402E-17, 1.000000000000000000, -0.000000000000000000 ) ) ;
#213 =( NAMED_UNIT ( * ) SI_UNIT ( $, .STERADIAN. ) SOLID_ANGLE_UNIT ( ) );
#214 =( LENGTH_UNIT ( ) NAMED_UNIT ( * ) SI_UNIT ( .MILLI., .METRE. ) );
#215 = CLOSED_SHELL ( 'NONE', ( #46, #123, #6, #208 ) ) ;
#216 = MECHANICAL_DESIGN_GEOMETRIC_PRESENTATION_REPRESENTATION (  '', ( #275 ), #111 ) ;
#217 =( NAMED_UNIT ( * ) SI_UNIT ( $, .STERADIAN. ) SOLID_ANGLE_UNIT ( ) );
#218 =( NAMED_UNIT ( * ) PLANE_ANGLE_UNIT ( ) SI_UNIT ( $, .RADIAN. ) );
#219 =( NAMED_UNIT ( * ) SI_UNIT ( $, .STERADIAN. ) SOLID_ANGLE_UNIT ( ) );
#220 = SURFACE_STYLE_USAGE ( .BOTH. , #171 ) ;
#221 =( NAMED_UNIT ( * ) PLANE_ANGLE_UNIT ( ) SI_UNIT ( $, .RADIAN. ) );
#222 = SURFACE_SIDE_STYLE ('',( #137 ) ) ;
#223 = SURFACE_SIDE_STYLE ('',( #281 ) ) ;
#224 = DIRECTION ( 'NONE',  ( -0.000000000000000000, -1.000000000000000000, -0.000000000000000000 ) ) ;
#225 = LINE ( 'NONE', #14, #83 ) ;
#226 = EDGE_CURVE ( 'NONE', #160, #230, #78, .T. ) ;
#227 = ORIENTED_EDGE ( 'NONE', *, *, #231, .T. ) ;
#228 = LINE ( 'NONE', #259, #118 ) ;
#229 = AXIS2_PLACEMENT_3D ( 'NONE', #261, #45, #202 ) ;
#230 = VERTEX_POINT ( 'NONE', #121 ) ;
#231 = EDGE_CURVE ( 'NONE', #268, #160, #143, .T. ) ;
#232 = MECHANICAL_DESIGN_GEOMETRIC_PRESENTATION_REPRESENTATION (  '', ( #210 ), #191 ) ;
#233 = UNCERTAINTY_MEASURE_WITH_UNIT (LENGTH_MEASURE( 1.000000000000000082E-05 ), #110, 'distance_accuracy_value', 'NONE');
#234 = EDGE_LOOP ( 'NONE', ( #146, #119, #201, #181 ) ) ;
#235 = DIRECTION ( 'NONE',  ( -0.000000000000000000, -1.000000000000000000, -0.000000000000000000 ) ) ;
#236 = FACE_OUTER_BOUND ( 'NONE', #239, .T. ) ;
#237 =( GEOMETRIC_REPRESENTATION_CONTEXT ( 3 ) GLOBAL_UNCERTAINTY_ASSIGNED_CONTEXT ( ( #151 ) ) GLOBAL_UNIT_ASSIGNED_CONTEXT ( ( #61, #174, #213 ) ) REPRESENTATION_CONTEXT ( 'NONE', 'WORKASPACE' ) );
#238 =( NAMED_UNIT ( * ) PLANE_ANGLE_UNIT ( ) SI_UNIT ( $, .RADIAN. ) );
#239 = EDGE_LOOP ( 'NONE', ( #163, #68 ) ) ;
#240 = EDGE_CURVE ( 'NONE', #47, #230, #228, .T. ) ;
#241 = CARTESIAN_POINT ( 'NONE',  ( 0.000000000000000000, 0.000000000000000000, 0.000000000000000000 ) ) ;
#242 =( NAMED_UNIT ( * ) PLANE_ANGLE_UNIT ( ) SI_UNIT ( $, .RADIAN. ) );
#243 = PRESENTATION_LAYER_ASSIGNMENT (  '', '', ( #210 ) ) ;
#244 = ORIENTED_EDGE ( 'NONE', *, *, #75, .T. ) ;
#245 = ORIENTED_EDGE ( 'NONE', *, *, #193, .T. ) ;
#246 = AXIS2_PLACEMENT_3D ( 'NONE', #153, #235, #30 ) ;
#247 = AXIS2_PLACEMENT_3D ( 'NONE', #48, #93, #184 ) ;
#248 = PLANE ( 'NONE',  #28 ) ;
#249 = PRODUCT_DEFINITION_SHAPE ( 'NONE', 'NONE',  #162 ) ;
#250 = DIRECTION ( 'NONE',  ( -0.000000000000000000, -1.000000000000000000, -0.000000000000000000 ) ) ;
#251 = PRESENTATION_LAYER_ASSIGNMENT (  '', '', ( #185 ) ) ;
#252 = PRESENTATION_STYLE_ASSIGNMENT (( #135 ) ) ;
#253 = APPLICATION_CONTEXT ( 'automotive_design' ) ;
#254 = FILL_AREA_STYLE_COLOUR ( '', #258 ) ;
#255 = SURFACE_STYLE_USAGE ( .BOTH. , #130 ) ;
#256 = FACE_OUTER_BOUND ( 'NONE', #54, .T. ) ;
#257 = ORIENTED_EDGE ( 'NONE', *, *, #286, .T. ) ;
#258 = COLOUR_RGB ( '',1.000000000000000000, 0.000000000000000000, 0.000000000000000000 ) ;
#259 = CARTESIAN_POINT ( 'NONE',  ( 5.000000000000000888, 63.00000000000000000, 6.123233995736765296E-16 ) ) ;
#260 = ORIENTED_EDGE ( 'NONE', *, *, #240, .F. ) ;
#261 = CARTESIAN_POINT ( 'NONE',  ( 0.000000000000000000, 15.00000000000000000, 0.000000000000000000 ) ) ;
#262 = PLANE ( 'NONE',  #203 ) ;
#263 = EDGE_LOOP ( 'NONE', ( #49, #126 ) ) ;
#264 = DIRECTION ( 'NONE',  ( 3.061616997868382402E-17, 1.000000000000000000, -0.000000000000000000 ) ) ;
#265 = AXIS2_PLACEMENT_3D ( 'NONE', #101, #188, #274 ) ;
#266 = ORIENTED_EDGE ( 'NONE', *, *, #10, .T. ) ;
#267 = ADVANCED_FACE ( 'NONE', ( #51 ), #262, .F. ) ;
#268 = VERTEX_POINT ( 'NONE', #72 ) ;
#269 = DIRECTION ( 'NONE',  ( 0.000000000000000000, 0.000000000000000000, -1.000000000000000000 ) ) ;
#270 = CIRCLE ( 'NONE', #139, 5.000000000000000000 ) ;
#271 = EDGE_CURVE ( 'NONE', #26, #149, #134, .T. ) ;
#272 = MECHANICAL_DESIGN_GEOMETRIC_PRESENTATION_REPRESENTATION (  '', ( #3 ), #18 ) ;
#273 = CARTESIAN_POINT ( 'NONE',  ( 6.123233995736766282E-16, 0.000000000000000000, 5.000000000000000000 ) ) ;
#274 = DIRECTION ( 'NONE',  ( -1.000000000000000000, 0.000000000000000000, 0.000000000000000000 ) ) ;
#275 = STYLED_ITEM ( 'NONE', ( #12 ), #46 ) ;
#276 =( GEOMETRIC_REPRESENTATION_CONTEXT ( 3 ) GLOBAL_UNCERTAINTY_ASSIGNED_CONTEXT ( ( #211 ) ) GLOBAL_UNIT_ASSIGNED_CONTEXT ( ( #105, #218, #107 ) ) REPRESENTATION_CONTEXT ( 'NONE', 'WORKASPACE' ) );
#277 = FACE_OUTER_BOUND ( 'NONE', #234, .T. ) ;
#278 =( LENGTH_UNIT ( ) NAMED_UNIT ( * ) SI_UNIT ( .MILLI., .METRE. ) );
#279 = FILL_AREA_STYLE ('',( #41 ) ) ;
#280 = FACE_OUTER_BOUND ( 'NONE', #287, .T. ) ;
#281 = SURFACE_STYLE_FILL_AREA ( #279 ) ;
#282 = CYLINDRICAL_SURFACE ( 'NONE', #168, 4.999999999999999112 ) ;
#283 = EDGE_LOOP ( 'NONE', ( #145, #244 ) ) ;
#284 = CIRCLE ( 'NONE', #246, 5.000000000000000000 ) ;
#285 = DIRECTION ( 'NONE',  ( 0.000000000000000000, 0.000000000000000000, -1.000000000000000000 ) ) ;
#286 = EDGE_CURVE ( 'NONE', #70, #24, #9, .T. ) ;
#287 = EDGE_LOOP ( 'NONE', ( #71, #266, #186, #115 ) ) ;
#288 = DIRECTION ( 'NONE',  ( 0.000000000000000000, -1.000000000000000000, -0.000000000000000000 ) ) ;
ENDSEC;
END-ISO-10303-21;
