ISO-10303-21;
HEADER;
FILE_DESCRIPTION (( 'STEP AP214' ),
    '1' );
FILE_NAME ('Micro_GEMM-010-2X.STEP',
    '2021-09-01T21:10:33',
    ( '' ),
    ( '' ),
    'SwSTEP 2.0',
    'SolidWorks 2020',
    '' );
FILE_SCHEMA (( 'AUTOMOTIVE_DESIGN' ));
ENDSEC;

DATA;
#1 = DIRECTION ( 'NONE',  ( 1.000000000000000000, 0.0000000000000000000, -0.0000000000000000000 ) ) ;
#2 = AXIS2_PLACEMENT_3D ( 'NONE', #180, #182, #66 ) ;
#3 = DIRECTION ( 'NONE',  ( -1.000000000000000000, 0.0000000000000000000, 0.0000000000000000000 ) ) ;
#4 = EDGE_CURVE ( 'NONE', #39, #24, #109, .T. ) ;
#5 = ORIENTED_EDGE ( 'NONE', *, *, #124, .F. ) ;
#6 = CARTESIAN_POINT ( 'NONE',  ( 0.0000000000000000000, 0.0000000000000000000, 1.496062999999999921 ) ) ;
#7 = MECHANICAL_DESIGN_GEOMETRIC_PRESENTATION_REPRESENTATION (  '', ( #123 ), #133 ) ;
#8 = DIRECTION ( 'NONE',  ( -1.000000000000000000, 0.0000000000000000000, 0.0000000000000000000 ) ) ;
#9 = FACE_OUTER_BOUND ( 'NONE', #86, .T. ) ;
#10 = CARTESIAN_POINT ( 'NONE',  ( 0.0000000000000000000, 0.0000000000000000000, 1.481063000000000240 ) ) ;
#11 = AXIS2_PLACEMENT_3D ( 'NONE', #185, #263, #95 ) ;
#12 = FILL_AREA_STYLE ('',( #54 ) ) ;
#13 = SURFACE_STYLE_FILL_AREA ( #241 ) ;
#14 = ORIENTED_EDGE ( 'NONE', *, *, #156, .T. ) ;
#15 = DIRECTION ( 'NONE',  ( 1.000000000000000000, 0.0000000000000000000, -0.0000000000000000000 ) ) ;
#16 = VECTOR ( 'NONE', #219, 39.37007874015748854 ) ;
#17 = CARTESIAN_POINT ( 'NONE',  ( 1.446430334472938160E-17, 0.0000000000000000000, 0.1181099999999999650 ) ) ;
#18 = ORIENTED_EDGE ( 'NONE', *, *, #71, .F. ) ;
#19 = LINE ( 'NONE', #289, #48 ) ;
#20 = ORIENTED_EDGE ( 'NONE', *, *, #175, .T. ) ;
#21 = AXIS2_PLACEMENT_3D ( 'NONE', #211, #78, #99 ) ;
#22 = FACE_OUTER_BOUND ( 'NONE', #112, .T. ) ;
#23 = ORIENTED_EDGE ( 'NONE', *, *, #132, .F. ) ;
#24 = VERTEX_POINT ( 'NONE', #29 ) ;
#25 = ADVANCED_FACE ( 'NONE', ( #22 ), #296, .T. ) ;
#26 = MECHANICAL_DESIGN_GEOMETRIC_PRESENTATION_REPRESENTATION (  '', ( #285 ), #172 ) ;
#27 = PRESENTATION_LAYER_ASSIGNMENT (  '', '', ( #123 ) ) ;
#28 = CARTESIAN_POINT ( 'NONE',  ( -0.05905499999999993394, 0.0000000000000000000, 0.3415000044209671182 ) ) ;
#29 = CARTESIAN_POINT ( 'NONE',  ( 0.04405500000000001082, 6.313666573004179469E-18, 1.496062999999999921 ) ) ;
#30 = EDGE_CURVE ( 'NONE', #220, #122, #209, .T. ) ;
#31 = AXIS2_PLACEMENT_3D ( 'NONE', #90, #208, #1 ) ;
#32 = CARTESIAN_POINT ( 'NONE',  ( -0.04405500000000001082, 0.0000000000000000000, 1.496062999999999921 ) ) ;
#33 = ADVANCED_FACE ( 'NONE', ( #88 ), #203, .T. ) ;
#34 = DIMENSIONAL_EXPONENTS ( 1.000000000000000000, 0.0000000000000000000, 0.0000000000000000000, 0.0000000000000000000, 0.0000000000000000000, 0.0000000000000000000, 0.0000000000000000000 ) ;
#35 = AXIS2_PLACEMENT_3D ( 'NONE', #278, #206, #234 ) ;
#36 = PRESENTATION_STYLE_ASSIGNMENT (( #40 ) ) ;
#37 = EDGE_LOOP ( 'NONE', ( #102, #177, #58, #269 ) ) ;
#38 = DIRECTION ( 'NONE',  ( -1.000000000000000000, 0.0000000000000000000, 0.0000000000000000000 ) ) ;
#39 = VERTEX_POINT ( 'NONE', #179 ) ;
#40 = SURFACE_STYLE_USAGE ( .BOTH. , #100 ) ;
#41 = ORIENTED_EDGE ( 'NONE', *, *, #4, .T. ) ;
#42 = EDGE_CURVE ( 'NONE', #122, #220, #280, .T. ) ;
#43 = CARTESIAN_POINT ( 'NONE',  ( 0.01966531499999996796, 0.0000000000000000000, 0.1181099999999999650 ) ) ;
#44 = DIRECTION ( 'NONE',  ( -1.224646799147352961E-16, -0.0000000000000000000, -1.000000000000000000 ) ) ;
#45 = DIRECTION ( 'NONE',  ( 1.000000000000000000, 0.0000000000000000000, 0.0000000000000000000 ) ) ;
#46 = EDGE_LOOP ( 'NONE', ( #148, #195, #14, #297 ) ) ;
#47 = CIRCLE ( 'NONE', #271, 0.05905499999999998251 ) ;
#48 = VECTOR ( 'NONE', #62, 39.37007874015748143 ) ;
#49 = EDGE_LOOP ( 'NONE', ( #23, #134, #207, #277 ) ) ;
#50 =( LENGTH_UNIT ( ) NAMED_UNIT ( * ) SI_UNIT ( $, .METRE. ) );
#51 = FACE_OUTER_BOUND ( 'NONE', #223, .T. ) ;
#52 = AXIS2_PLACEMENT_3D ( 'NONE', #17, #106, #191 ) ;
#53 = ADVANCED_BREP_SHAPE_REPRESENTATION ( 'Micro_GEMM-010-2X', ( #235, #2 ), #146 ) ;
#54 = FILL_AREA_STYLE_COLOUR ( '', #115 ) ;
#55 = LINE ( 'NONE', #164, #184 ) ;
#56 = AXIS2_PLACEMENT_3D ( 'NONE', #155, #152, #3 ) ;
#57 = DIRECTION ( 'NONE',  ( 0.0000000000000000000, 0.0000000000000000000, 1.000000000000000000 ) ) ;
#58 = ORIENTED_EDGE ( 'NONE', *, *, #265, .F. ) ;
#59 = CARTESIAN_POINT ( 'NONE',  ( 0.05905499999999998251, 7.232151672364692341E-18, 1.481063000000000240 ) ) ;
#60 = ORIENTED_EDGE ( 'NONE', *, *, #132, .T. ) ;
#61 = VERTEX_POINT ( 'NONE', #116 ) ;
#62 = DIRECTION ( 'NONE',  ( -0.0000000000000000000, -0.0000000000000000000, -1.000000000000000000 ) ) ;
#63 = VECTOR ( 'NONE', #127, 39.37007874015748143 ) ;
#64 = ORIENTED_EDGE ( 'NONE', *, *, #261, .T. ) ;
#65 = LINE ( 'NONE', #84, #141 ) ;
#66 = DIRECTION ( 'NONE',  ( 1.000000000000000000, 0.0000000000000000000, 0.0000000000000000000 ) ) ;
#67 = VERTEX_POINT ( 'NONE', #183 ) ;
#68 = FACE_OUTER_BOUND ( 'NONE', #37, .T. ) ;
#69 = CIRCLE ( 'NONE', #281, 0.01966531499999995408 ) ;
#70 = CARTESIAN_POINT ( 'NONE',  ( 2.949324855037690456E-34, 0.0000000000000000000, 2.408306506897438479E-18 ) ) ;
#71 = EDGE_CURVE ( 'NONE', #24, #39, #97, .T. ) ;
#72 = CARTESIAN_POINT ( 'NONE',  ( 0.0000000000000000000, 0.0000000000000000000, 0.0000000000000000000 ) ) ;
#73 = EDGE_LOOP ( 'NONE', ( #41, #245 ) ) ;
#74 = LINE ( 'NONE', #32, #215 ) ;
#75 = SURFACE_SIDE_STYLE ('',( #186 ) ) ;
#76 = CARTESIAN_POINT ( 'NONE',  ( 0.0000000000000000000, 0.0000000000000000000, 1.496062999999999921 ) ) ;
#77 = AXIS2_PLACEMENT_3D ( 'NONE', #136, #286, #79 ) ;
#78 = DIRECTION ( 'NONE',  ( -1.224646799147352961E-16, -0.0000000000000000000, -1.000000000000000000 ) ) ;
#79 = DIRECTION ( 'NONE',  ( -1.000000000000000000, 0.0000000000000000000, 0.0000000000000000000 ) ) ;
#80 = FACE_OUTER_BOUND ( 'NONE', #144, .T. ) ;
#81 =( CONVERSION_BASED_UNIT ( 'INCH', #217 ) LENGTH_UNIT ( ) NAMED_UNIT ( #34 ) );
#82 = DIRECTION ( 'NONE',  ( -1.224646799147352961E-16, -0.0000000000000000000, -1.000000000000000000 ) ) ;
#83 = VERTEX_POINT ( 'NONE', #159 ) ;
#84 = CARTESIAN_POINT ( 'NONE',  ( -0.05905499999999998251, 0.0000000000000000000, 1.496062999999999921 ) ) ;
#85 = ADVANCED_FACE ( 'NONE', ( #68 ), #176, .T. ) ;
#86 = EDGE_LOOP ( 'NONE', ( #117, #170, #202, #218 ) ) ;
#87 = CARTESIAN_POINT ( 'NONE',  ( 2.949324855037690456E-34, 0.0000000000000000000, 2.408306506897438479E-18 ) ) ;
#88 = FACE_OUTER_BOUND ( 'NONE', #73, .T. ) ;
#89 = APPLICATION_PROTOCOL_DEFINITION ( 'draft international standard', 'automotive_design', 1998, #168 ) ;
#90 = CARTESIAN_POINT ( 'NONE',  ( 0.0000000000000000000, 0.0000000000000000000, 1.496062999999999921 ) ) ;
#91 = CYLINDRICAL_SURFACE ( 'NONE', #236, 0.01966531499999995755 ) ;
#92 = LINE ( 'NONE', #188, #171 ) ;
#93 = PRODUCT_RELATED_PRODUCT_CATEGORY ( 'part', '', ( #204 ) ) ;
#94 = SURFACE_STYLE_USAGE ( .BOTH. , #75 ) ;
#95 = DIRECTION ( 'NONE',  ( -1.000000000000000000, 0.0000000000000000000, 0.0000000000000000000 ) ) ;
#96 = CARTESIAN_POINT ( 'NONE',  ( 1.446430334472938160E-17, 0.0000000000000000000, 0.1181099999999999650 ) ) ;
#97 = CIRCLE ( 'NONE', #252, 0.04405500000000001082 ) ;
#98 = AXIS2_PLACEMENT_3D ( 'NONE', #196, #57, #15 ) ;
#99 = DIRECTION ( 'NONE',  ( -1.000000000000000000, 0.0000000000000000000, 1.224646799147352961E-16 ) ) ;
#100 = SURFACE_SIDE_STYLE ('',( #13 ) ) ;
#101 = DIRECTION ( 'NONE',  ( -1.224646799147352961E-16, -0.0000000000000000000, -1.000000000000000000 ) ) ;
#102 = ORIENTED_EDGE ( 'NONE', *, *, #128, .T. ) ;
#103 = CIRCLE ( 'NONE', #276, 0.05905499999999998251 ) ;
#104 = ORIENTED_EDGE ( 'NONE', *, *, #42, .F. ) ;
#105 = ADVANCED_FACE ( 'NONE', ( #256 ), #91, .T. ) ;
#106 = DIRECTION ( 'NONE',  ( 1.224646799147352961E-16, 0.0000000000000000000, 1.000000000000000000 ) ) ;
#107 = PRODUCT_DEFINITION_CONTEXT ( 'detailed design', #168, 'design' ) ;
#108 = ORIENTED_EDGE ( 'NONE', *, *, #30, .T. ) ;
#109 = CIRCLE ( 'NONE', #35, 0.04405500000000001082 ) ;
#110 = CIRCLE ( 'NONE', #287, 0.05905499999999998251 ) ;
#111 = ORIENTED_EDGE ( 'NONE', *, *, #242, .F. ) ;
#112 = EDGE_LOOP ( 'NONE', ( #18, #64, #114, #129 ) ) ;
#113 = VERTEX_POINT ( 'NONE', #28 ) ;
#114 = ORIENTED_EDGE ( 'NONE', *, *, #128, .F. ) ;
#115 = COLOUR_RGB ( '',0.7921568627450980005, 0.8196078431372548767, 0.9333333333333333481 ) ;
#116 = CARTESIAN_POINT ( 'NONE',  ( -0.01966531499999994367, 4.820229089631064447E-18, 0.1181099999999999650 ) ) ;
#117 = ORIENTED_EDGE ( 'NONE', *, *, #267, .F. ) ;
#118 = CONICAL_SURFACE ( 'NONE', #52, 0.01966531499999995408, 0.1745329251994340025 ) ;
#119 = DIRECTION ( 'NONE',  ( -0.1736481776669312749, 2.126576849575784241E-17, 0.9848077530122077983 ) ) ;
#120 = DIRECTION ( 'NONE',  ( 1.000000000000000000, 0.0000000000000000000, 0.0000000000000000000 ) ) ;
#121 =( NAMED_UNIT ( * ) SI_UNIT ( $, .STERADIAN. ) SOLID_ANGLE_UNIT ( ) );
#122 = VERTEX_POINT ( 'NONE', #253 ) ;
#123 = STYLED_ITEM ( 'NONE', ( #36 ), #53 ) ;
#124 = EDGE_CURVE ( 'NONE', #83, #230, #157, .T. ) ;
#125 = FILL_AREA_STYLE_COLOUR ( '', #200 ) ;
#126 = PRODUCT_DEFINITION_FORMATION_WITH_SPECIFIED_SOURCE ( 'ANY', '', #204, .NOT_KNOWN. ) ;
#127 = DIRECTION ( 'NONE',  ( 0.1736481776669314969, 0.0000000000000000000, 0.9848077530122077983 ) ) ;
#128 = EDGE_CURVE ( 'NONE', #67, #295, #103, .T. ) ;
#129 = ORIENTED_EDGE ( 'NONE', *, *, #156, .F. ) ;
#130 = DIRECTION ( 'NONE',  ( -0.0000000000000000000, -0.0000000000000000000, -1.000000000000000000 ) ) ;
#131 = CARTESIAN_POINT ( 'NONE',  ( 0.0000000000000000000, 0.0000000000000000000, 1.481063000000000240 ) ) ;
#132 = EDGE_CURVE ( 'NONE', #61, #113, #210, .T. ) ;
#133 =( GEOMETRIC_REPRESENTATION_CONTEXT ( 3 ) GLOBAL_UNCERTAINTY_ASSIGNED_CONTEXT ( ( #225 ) ) GLOBAL_UNIT_ASSIGNED_CONTEXT ( ( #81, #167, #158 ) ) REPRESENTATION_CONTEXT ( 'NONE', 'WORKASPACE' ) );
#134 = ORIENTED_EDGE ( 'NONE', *, *, #226, .F. ) ;
#135 = CARTESIAN_POINT ( 'NONE',  ( -0.01966531499999996796, 0.0000000000000000000, 4.816613013794876958E-18 ) ) ;
#136 = CARTESIAN_POINT ( 'NONE',  ( 1.446430334472938160E-17, 0.0000000000000000000, 0.1181099999999999650 ) ) ;
#137 = VECTOR ( 'NONE', #119, 39.37007874015748143 ) ;
#138 = PRESENTATION_STYLE_ASSIGNMENT (( #94 ) ) ;
#139 = DIRECTION ( 'NONE',  ( 0.0000000000000000000, 0.0000000000000000000, -1.000000000000000000 ) ) ;
#140 = ADVANCED_FACE ( 'NONE', ( #187 ), #162, .T. ) ;
#141 = VECTOR ( 'NONE', #268, 39.37007874015748143 ) ;
#142 = PRODUCT_DEFINITION ( 'UNKNOWN', '', #126, #107 ) ;
#143 = LENGTH_MEASURE_WITH_UNIT ( LENGTH_MEASURE( 0.02539999999999999897 ), #166 );
#144 = EDGE_LOOP ( 'NONE', ( #108, #264 ) ) ;
#145 = PRESENTATION_LAYER_ASSIGNMENT (  '', '', ( #285 ) ) ;
#146 =( GEOMETRIC_REPRESENTATION_CONTEXT ( 3 ) GLOBAL_UNCERTAINTY_ASSIGNED_CONTEXT ( ( #291 ) ) GLOBAL_UNIT_ASSIGNED_CONTEXT ( ( #174, #197, #150 ) ) REPRESENTATION_CONTEXT ( 'NONE', 'WORKASPACE' ) );
#147 = UNCERTAINTY_MEASURE_WITH_UNIT (LENGTH_MEASURE( 1.000000000000000082E-05 ), #238, 'distance_accuracy_value', 'NONE');
#148 = ORIENTED_EDGE ( 'NONE', *, *, #261, .F. ) ;
#149 = DIMENSIONAL_EXPONENTS ( 1.000000000000000000, 0.0000000000000000000, 0.0000000000000000000, 0.0000000000000000000, 0.0000000000000000000, 0.0000000000000000000, 0.0000000000000000000 ) ;
#150 =( NAMED_UNIT ( * ) SI_UNIT ( $, .STERADIAN. ) SOLID_ANGLE_UNIT ( ) );
#151 = ORIENTED_EDGE ( 'NONE', *, *, #265, .T. ) ;
#152 = DIRECTION ( 'NONE',  ( 0.0000000000000000000, 0.0000000000000000000, -1.000000000000000000 ) ) ;
#153 = CARTESIAN_POINT ( 'NONE',  ( 0.0000000000000000000, 0.0000000000000000000, 1.496062999999999921 ) ) ;
#154 = APPLICATION_CONTEXT ( 'automotive_design' ) ;
#155 = CARTESIAN_POINT ( 'NONE',  ( 0.0000000000000000000, 0.0000000000000000000, 1.496062999999999921 ) ) ;
#156 = EDGE_CURVE ( 'NONE', #39, #67, #74, .T. ) ;
#157 = LINE ( 'NONE', #43, #63 ) ;
#158 =( NAMED_UNIT ( * ) SI_UNIT ( $, .STERADIAN. ) SOLID_ANGLE_UNIT ( ) );
#159 = CARTESIAN_POINT ( 'NONE',  ( 0.01966531499999996796, 0.0000000000000000000, 0.1181099999999999650 ) ) ;
#160 = DIRECTION ( 'NONE',  ( -0.7071067811865536790, 0.0000000000000000000, -0.7071067811865412445 ) ) ;
#161 = ADVANCED_FACE ( 'NONE', ( #51 ), #178, .T. ) ;
#162 = CYLINDRICAL_SURFACE ( 'NONE', #21, 0.01966531499999995755 ) ;
#163 = AXIS2_PLACEMENT_3D ( 'NONE', #87, #254, #299 ) ;
#164 = CARTESIAN_POINT ( 'NONE',  ( 0.01966531499999995755, 2.408306506897438094E-18, -2.408306506897437709E-18 ) ) ;
#165 = DIRECTION ( 'NONE',  ( 1.000000000000000000, 0.0000000000000000000, 0.0000000000000000000 ) ) ;
#166 =( LENGTH_UNIT ( ) NAMED_UNIT ( * ) SI_UNIT ( $, .METRE. ) );
#167 =( NAMED_UNIT ( * ) PLANE_ANGLE_UNIT ( ) SI_UNIT ( $, .RADIAN. ) );
#168 = APPLICATION_CONTEXT ( 'automotive_design' ) ;
#169 = DIRECTION ( 'NONE',  ( 1.000000000000000000, 0.0000000000000000000, 0.0000000000000000000 ) ) ;
#170 = ORIENTED_EDGE ( 'NONE', *, *, #257, .T. ) ;
#171 = VECTOR ( 'NONE', #259, 39.37007874015748143 ) ;
#172 =( GEOMETRIC_REPRESENTATION_CONTEXT ( 3 ) GLOBAL_UNCERTAINTY_ASSIGNED_CONTEXT ( ( #147 ) ) GLOBAL_UNIT_ASSIGNED_CONTEXT ( ( #238, #214, #121 ) ) REPRESENTATION_CONTEXT ( 'NONE', 'WORKASPACE' ) );
#173 = AXIS2_PLACEMENT_3D ( 'NONE', #10, #139, #239 ) ;
#174 =( CONVERSION_BASED_UNIT ( 'INCH', #143 ) LENGTH_UNIT ( ) NAMED_UNIT ( #216 ) );
#175 = EDGE_CURVE ( 'NONE', #83, #122, #55, .T. ) ;
#176 = CYLINDRICAL_SURFACE ( 'NONE', #199, 0.05905499999999998251 ) ;
#177 = ORIENTED_EDGE ( 'NONE', *, *, #267, .T. ) ;
#178 = CONICAL_SURFACE ( 'NONE', #221, 0.01966531499999995408, 0.1745329251994340025 ) ;
#179 = CARTESIAN_POINT ( 'NONE',  ( -0.04405500000000001082, 0.0000000000000000000, 1.496062999999999921 ) ) ;
#180 = CARTESIAN_POINT ( 'NONE',  ( 0.0000000000000000000, 0.0000000000000000000, 0.0000000000000000000 ) ) ;
#181 = DIRECTION ( 'NONE',  ( -1.224646799147352961E-16, -0.0000000000000000000, -1.000000000000000000 ) ) ;
#182 = DIRECTION ( 'NONE',  ( 0.0000000000000000000, 0.0000000000000000000, 1.000000000000000000 ) ) ;
#183 = CARTESIAN_POINT ( 'NONE',  ( -0.05905499999999998251, 0.0000000000000000000, 1.481063000000000240 ) ) ;
#184 = VECTOR ( 'NONE', #262, 39.37007874015748143 ) ;
#185 = CARTESIAN_POINT ( 'NONE',  ( 0.0000000000000000000, 0.0000000000000000000, 1.496062999999999921 ) ) ;
#186 = SURFACE_STYLE_FILL_AREA ( #12 ) ;
#187 = FACE_OUTER_BOUND ( 'NONE', #279, .T. ) ;
#188 = CARTESIAN_POINT ( 'NONE',  ( -0.01966531499999995755, 0.0000000000000000000, 2.408306506897437709E-18 ) ) ;
#189 = ADVANCED_FACE ( 'NONE', ( #9 ), #284, .T. ) ;
#190 = DIRECTION ( 'NONE',  ( 1.224646799147352961E-16, 0.0000000000000000000, 1.000000000000000000 ) ) ;
#191 = DIRECTION ( 'NONE',  ( 1.000000000000000000, 0.0000000000000000000, 0.0000000000000000000 ) ) ;
#192 = PLANE ( 'NONE',  #98 ) ;
#193 = AXIS2_PLACEMENT_3D ( 'NONE', #70, #181, #274 ) ;
#194 = CARTESIAN_POINT ( 'NONE',  ( 0.04405500000000001082, 5.395181473643666598E-18, 1.496062999999999921 ) ) ;
#195 = ORIENTED_EDGE ( 'NONE', *, *, #4, .F. ) ;
#196 = CARTESIAN_POINT ( 'NONE',  ( 0.0000000000000000000, 0.0000000000000000000, 0.0000000000000000000 ) ) ;
#197 =( NAMED_UNIT ( * ) PLANE_ANGLE_UNIT ( ) SI_UNIT ( $, .RADIAN. ) );
#198 = CLOSED_SHELL ( 'NONE', ( #140, #161, #25, #85, #189, #33, #213, #275, #105, #294 ) ) ;
#199 = AXIS2_PLACEMENT_3D ( 'NONE', #153, #130, #231 ) ;
#200 = COLOUR_RGB ( '',0.7921568627450980005, 0.8196078431372548767, 0.9333333333333333481 ) ;
#201 = ORIENTED_EDGE ( 'NONE', *, *, #298, .T. ) ;
#202 = ORIENTED_EDGE ( 'NONE', *, *, #293, .T. ) ;
#203 = PLANE ( 'NONE',  #31 ) ;
#204 = PRODUCT ( 'Micro_GEMM-010-2X', 'Micro_GEMM-010-2X', '', ( #205 ) ) ;
#205 = PRODUCT_CONTEXT ( 'NONE', #154, 'mechanical' ) ;
#206 = DIRECTION ( 'NONE',  ( 0.0000000000000000000, 0.0000000000000000000, 1.000000000000000000 ) ) ;
#207 = ORIENTED_EDGE ( 'NONE', *, *, #124, .T. ) ;
#208 = DIRECTION ( 'NONE',  ( 0.0000000000000000000, 0.0000000000000000000, 1.000000000000000000 ) ) ;
#209 = CIRCLE ( 'NONE', #163, 0.01966531499999996796 ) ;
#210 = LINE ( 'NONE', #288, #137 ) ;
#211 = CARTESIAN_POINT ( 'NONE',  ( 0.0000000000000000000, 0.0000000000000000000, 0.0000000000000000000 ) ) ;
#212 = DIRECTION ( 'NONE',  ( -1.224646799147352961E-16, -0.0000000000000000000, -1.000000000000000000 ) ) ;
#213 = ADVANCED_FACE ( 'NONE', ( #283 ), #246, .T. ) ;
#214 =( NAMED_UNIT ( * ) PLANE_ANGLE_UNIT ( ) SI_UNIT ( $, .RADIAN. ) );
#215 = VECTOR ( 'NONE', #160, 39.37007874015748854 ) ;
#216 = DIMENSIONAL_EXPONENTS ( 1.000000000000000000, 0.0000000000000000000, 0.0000000000000000000, 0.0000000000000000000, 0.0000000000000000000, 0.0000000000000000000, 0.0000000000000000000 ) ;
#217 = LENGTH_MEASURE_WITH_UNIT ( LENGTH_MEASURE( 0.02539999999999999897 ), #290 );
#218 = ORIENTED_EDGE ( 'NONE', *, *, #247, .F. ) ;
#219 = DIRECTION ( 'NONE',  ( 0.7071067811865536790, 8.659560562355008046E-17, -0.7071067811865412445 ) ) ;
#220 = VERTEX_POINT ( 'NONE', #135 ) ;
#221 = AXIS2_PLACEMENT_3D ( 'NONE', #96, #190, #282 ) ;
#222 = CIRCLE ( 'NONE', #173, 0.05905499999999998251 ) ;
#223 = EDGE_LOOP ( 'NONE', ( #250, #60, #151, #5 ) ) ;
#224 = CARTESIAN_POINT ( 'NONE',  ( 1.446430334472938160E-17, 0.0000000000000000000, 0.1181099999999999650 ) ) ;
#225 = UNCERTAINTY_MEASURE_WITH_UNIT (LENGTH_MEASURE( 1.000000000000000082E-05 ), #81, 'distance_accuracy_value', 'NONE');
#226 = EDGE_CURVE ( 'NONE', #83, #61, #270, .T. ) ;
#227 = SHAPE_DEFINITION_REPRESENTATION ( #229, #53 ) ;
#228 = DIRECTION ( 'NONE',  ( 0.0000000000000000000, 0.0000000000000000000, -1.000000000000000000 ) ) ;
#229 = PRODUCT_DEFINITION_SHAPE ( 'NONE', 'NONE',  #142 ) ;
#230 = VERTEX_POINT ( 'NONE', #260 ) ;
#231 = DIRECTION ( 'NONE',  ( -1.000000000000000000, 0.0000000000000000000, 0.0000000000000000000 ) ) ;
#232 = AXIS2_PLACEMENT_3D ( 'NONE', #76, #237, #8 ) ;
#233 = ORIENTED_EDGE ( 'NONE', *, *, #226, .T. ) ;
#234 = DIRECTION ( 'NONE',  ( 1.000000000000000000, 0.0000000000000000000, 0.0000000000000000000 ) ) ;
#235 = MANIFOLD_SOLID_BREP ( 'Cut-Revolve1', #198 ) ;
#236 = AXIS2_PLACEMENT_3D ( 'NONE', #72, #44, #273 ) ;
#237 = DIRECTION ( 'NONE',  ( -0.0000000000000000000, -0.0000000000000000000, -1.000000000000000000 ) ) ;
#238 =( CONVERSION_BASED_UNIT ( 'INCH', #240 ) LENGTH_UNIT ( ) NAMED_UNIT ( #149 ) );
#239 = DIRECTION ( 'NONE',  ( 1.000000000000000000, 0.0000000000000000000, 0.0000000000000000000 ) ) ;
#240 = LENGTH_MEASURE_WITH_UNIT ( LENGTH_MEASURE( 0.02539999999999999897 ), #50 );
#241 = FILL_AREA_STYLE ('',( #125 ) ) ;
#242 = EDGE_CURVE ( 'NONE', #61, #220, #92, .T. ) ;
#243 = ORIENTED_EDGE ( 'NONE', *, *, #242, .T. ) ;
#244 = LINE ( 'NONE', #194, #16 ) ;
#245 = ORIENTED_EDGE ( 'NONE', *, *, #71, .T. ) ;
#246 = CONICAL_SURFACE ( 'NONE', #11, 0.04405500000000001082, 0.7853981633974570498 ) ;
#247 = EDGE_CURVE ( 'NONE', #230, #113, #47, .T. ) ;
#248 = ORIENTED_EDGE ( 'NONE', *, *, #30, .F. ) ;
#249 = APPLICATION_PROTOCOL_DEFINITION ( 'draft international standard', 'automotive_design', 1998, #154 ) ;
#250 = ORIENTED_EDGE ( 'NONE', *, *, #298, .F. ) ;
#251 = DIRECTION ( 'NONE',  ( 0.0000000000000000000, 0.0000000000000000000, 1.000000000000000000 ) ) ;
#252 = AXIS2_PLACEMENT_3D ( 'NONE', #6, #251, #45 ) ;
#253 = CARTESIAN_POINT ( 'NONE',  ( 0.01966531499999996796, 2.408306506897438479E-18, -4.739000847409537175E-34 ) ) ;
#254 = DIRECTION ( 'NONE',  ( -1.224646799147352961E-16, -0.0000000000000000000, -1.000000000000000000 ) ) ;
#255 = ORIENTED_EDGE ( 'NONE', *, *, #175, .F. ) ;
#256 = FACE_OUTER_BOUND ( 'NONE', #292, .T. ) ;
#257 = EDGE_CURVE ( 'NONE', #295, #67, #222, .T. ) ;
#258 = CARTESIAN_POINT ( 'NONE',  ( 4.182168873229443489E-17, 0.0000000000000000000, 0.3415000044209671182 ) ) ;
#259 = DIRECTION ( 'NONE',  ( -1.224646799147352961E-16, -0.0000000000000000000, -1.000000000000000000 ) ) ;
#260 = CARTESIAN_POINT ( 'NONE',  ( 0.05905500000000002414, 7.232151672364696963E-18, 0.3415000044209671182 ) ) ;
#261 = EDGE_CURVE ( 'NONE', #24, #295, #244, .T. ) ;
#262 = DIRECTION ( 'NONE',  ( -1.224646799147352961E-16, -0.0000000000000000000, -1.000000000000000000 ) ) ;
#263 = DIRECTION ( 'NONE',  ( 0.0000000000000000000, 0.0000000000000000000, -1.000000000000000000 ) ) ;
#264 = ORIENTED_EDGE ( 'NONE', *, *, #42, .T. ) ;
#265 = EDGE_CURVE ( 'NONE', #113, #230, #110, .T. ) ;
#266 = FACE_OUTER_BOUND ( 'NONE', #49, .T. ) ;
#267 = EDGE_CURVE ( 'NONE', #295, #230, #19, .T. ) ;
#268 = DIRECTION ( 'NONE',  ( -0.0000000000000000000, -0.0000000000000000000, -1.000000000000000000 ) ) ;
#269 = ORIENTED_EDGE ( 'NONE', *, *, #293, .F. ) ;
#270 = CIRCLE ( 'NONE', #77, 0.01966531499999995408 ) ;
#271 = AXIS2_PLACEMENT_3D ( 'NONE', #258, #212, #120 ) ;
#272 = CARTESIAN_POINT ( 'NONE',  ( 4.182168873229443489E-17, 0.0000000000000000000, 0.3415000044209671182 ) ) ;
#273 = DIRECTION ( 'NONE',  ( -1.000000000000000000, 0.0000000000000000000, 1.224646799147352961E-16 ) ) ;
#274 = DIRECTION ( 'NONE',  ( -1.000000000000000000, 0.0000000000000000000, 1.224646799147352714E-16 ) ) ;
#275 = ADVANCED_FACE ( 'NONE', ( #266 ), #118, .T. ) ;
#276 = AXIS2_PLACEMENT_3D ( 'NONE', #131, #228, #165 ) ;
#277 = ORIENTED_EDGE ( 'NONE', *, *, #247, .T. ) ;
#278 = CARTESIAN_POINT ( 'NONE',  ( 0.0000000000000000000, 0.0000000000000000000, 1.496062999999999921 ) ) ;
#279 = EDGE_LOOP ( 'NONE', ( #201, #20, #248, #111 ) ) ;
#280 = CIRCLE ( 'NONE', #193, 0.01966531499999996796 ) ;
#281 = AXIS2_PLACEMENT_3D ( 'NONE', #224, #82, #38 ) ;
#282 = DIRECTION ( 'NONE',  ( 1.000000000000000000, 0.0000000000000000000, 0.0000000000000000000 ) ) ;
#283 = FACE_OUTER_BOUND ( 'NONE', #46, .T. ) ;
#284 = CYLINDRICAL_SURFACE ( 'NONE', #232, 0.05905499999999998251 ) ;
#285 = STYLED_ITEM ( 'NONE', ( #138 ), #235 ) ;
#286 = DIRECTION ( 'NONE',  ( -1.224646799147352961E-16, -0.0000000000000000000, -1.000000000000000000 ) ) ;
#287 = AXIS2_PLACEMENT_3D ( 'NONE', #272, #101, #169 ) ;
#288 = CARTESIAN_POINT ( 'NONE',  ( -0.01966531499999994367, 2.408306506897437709E-18, 0.1181099999999999650 ) ) ;
#289 = CARTESIAN_POINT ( 'NONE',  ( 0.05905499999999998251, 7.232151672364692341E-18, 1.496062999999999921 ) ) ;
#290 =( LENGTH_UNIT ( ) NAMED_UNIT ( * ) SI_UNIT ( $, .METRE. ) );
#291 = UNCERTAINTY_MEASURE_WITH_UNIT (LENGTH_MEASURE( 1.000000000000000082E-05 ), #174, 'distance_accuracy_value', 'NONE');
#292 = EDGE_LOOP ( 'NONE', ( #255, #233, #243, #104 ) ) ;
#293 = EDGE_CURVE ( 'NONE', #67, #113, #65, .T. ) ;
#294 = ADVANCED_FACE ( 'NONE', ( #80 ), #192, .F. ) ;
#295 = VERTEX_POINT ( 'NONE', #59 ) ;
#296 = CONICAL_SURFACE ( 'NONE', #56, 0.04405500000000001082, 0.7853981633974570498 ) ;
#297 = ORIENTED_EDGE ( 'NONE', *, *, #257, .F. ) ;
#298 = EDGE_CURVE ( 'NONE', #61, #83, #69, .T. ) ;
#299 = DIRECTION ( 'NONE',  ( -1.000000000000000000, 0.0000000000000000000, 1.224646799147352714E-16 ) ) ;
ENDSEC;
END-ISO-10303-21;
