ISO-10303-21;
HEADER;
FILE_DESCRIPTION (( 'STEP AP214' ),
    '1' );
FILE_NAME ('83754.STEP',
    '2023-07-05T19:23:47',
    ( '' ),
    ( '' ),
    'SwSTEP 2.0',
    'SolidWorks 2023',
    '' );
FILE_SCHEMA (( 'AUTOMOTIVE_DESIGN' ));
ENDSEC;

DATA;
#1 = LINE ( 'NONE', #277, #168 ) ;
#2 = APPLICATION_CONTEXT ( 'automotive_design' ) ;
#3 = ADVANCED_FACE ( 'NONE', ( #342 ), #73, .T. ) ;
#4 = PRESENTATION_STYLE_ASSIGNMENT (( #53 ) ) ;
#5 = UNCERTAINTY_MEASURE_WITH_UNIT (LENGTH_MEASURE( 1.000000000000000082E-05 ), #306, 'distance_accuracy_value', 'NONE');
#6 =( GEOMETRIC_REPRESENTATION_CONTEXT ( 3 ) GLOBAL_UNCERTAINTY_ASSIGNED_CONTEXT ( ( #130 ) ) GLOBAL_UNIT_ASSIGNED_CONTEXT ( ( #205, #150, #233 ) ) REPRESENTATION_CONTEXT ( 'NONE', 'WORKASPACE' ) );
#7 = SURFACE_STYLE_FILL_AREA ( #58 ) ;
#8 = STYLED_ITEM ( 'NONE', ( #344 ), #96 ) ;
#9 = CARTESIAN_POINT ( 'NONE',  ( 1.530808498934191201E-17, 0.7500000000000001110, 0.1249999999999999861 ) ) ;
#10 = COLOUR_RGB ( '',0.7921568627450980005, 0.8196078431372548767, 0.9333333333333333481 ) ;
#11 = ORIENTED_EDGE ( 'NONE', *, *, #131, .T. ) ;
#12 = DIRECTION ( 'NONE',  ( -1.000000000000000000, 0.000000000000000000, 0.000000000000000000 ) ) ;
#13 = ORIENTED_EDGE ( 'NONE', *, *, #198, .F. ) ;
#14 = EDGE_CURVE ( 'NONE', #202, #107, #99, .T. ) ;
#15 = DIRECTION ( 'NONE',  ( -1.227993083434185205E-16, 1.000000000000000000, -0.000000000000000000 ) ) ;
#16 = CARTESIAN_POINT ( 'NONE',  ( 0.000000000000000000, 39.37007874015748143, 0.000000000000000000 ) ) ;
#17 = STYLED_ITEM ( 'NONE', ( #224 ), #3 ) ;
#18 = EDGE_LOOP ( 'NONE', ( #333, #113, #160 ) ) ;
#19 = FACE_OUTER_BOUND ( 'NONE', #35, .T. ) ;
#20 = SURFACE_SIDE_STYLE ('',( #316 ) ) ;
#21 = DIRECTION ( 'NONE',  ( -1.227993083434185205E-16, 1.000000000000000000, -0.000000000000000000 ) ) ;
#22 = AXIS2_PLACEMENT_3D ( 'NONE', #129, #296, #210 ) ;
#23 =( GEOMETRIC_REPRESENTATION_CONTEXT ( 3 ) GLOBAL_UNCERTAINTY_ASSIGNED_CONTEXT ( ( #76 ) ) GLOBAL_UNIT_ASSIGNED_CONTEXT ( ( #203, #262, #61 ) ) REPRESENTATION_CONTEXT ( 'NONE', 'WORKASPACE' ) );
#24 = PRODUCT ( '83754', '83754', '', ( #207 ) ) ;
#25 = PLANE ( 'NONE',  #320 ) ;
#26 = SURFACE_STYLE_USAGE ( .BOTH. , #244 ) ;
#27 =( CONVERSION_BASED_UNIT ( 'INCH', #29 ) LENGTH_UNIT ( ) NAMED_UNIT ( #271 ) );
#28 = EDGE_CURVE ( 'NONE', #57, #86, #280, .T. ) ;
#29 = LENGTH_MEASURE_WITH_UNIT ( LENGTH_MEASURE( 0.02539999999999999897 ), #239 );
#30 = CYLINDRICAL_SURFACE ( 'NONE', #209, 0.1249999999999999306 ) ;
#31 = UNCERTAINTY_MEASURE_WITH_UNIT (LENGTH_MEASURE( 1.000000000000000082E-05 ), #90, 'distance_accuracy_value', 'NONE');
#32 = COLOUR_RGB ( '',1.000000000000000000, 0.000000000000000000, 0.000000000000000000 ) ;
#33 = VECTOR ( 'NONE', #187, 39.37007874015748143 ) ;
#34 = DIRECTION ( 'NONE',  ( -0.000000000000000000, -1.000000000000000000, -0.000000000000000000 ) ) ;
#35 = EDGE_LOOP ( 'NONE', ( #115, #339 ) ) ;
#36 = DIRECTION ( 'NONE',  ( -1.227993083434185205E-16, 1.000000000000000000, -0.000000000000000000 ) ) ;
#37 = ORIENTED_EDGE ( 'NONE', *, *, #240, .F. ) ;
#38 = CONICAL_SURFACE ( 'NONE', #181, 39.37007874015762354, 0.7853981633974500554 ) ;
#39 = DIRECTION ( 'NONE',  ( 0.000000000000000000, 0.000000000000000000, -1.000000000000000000 ) ) ;
#40 = EDGE_LOOP ( 'NONE', ( #82, #79, #255, #77 ) ) ;
#41 = AXIS2_PLACEMENT_3D ( 'NONE', #232, #282, #315 ) ;
#42 = PRESENTATION_LAYER_ASSIGNMENT (  '', '', ( #45 ) ) ;
#43 = FILL_AREA_STYLE ('',( #175 ) ) ;
#44 =( CONVERSION_BASED_UNIT ( 'INCH', #292 ) LENGTH_UNIT ( ) NAMED_UNIT ( #135 ) );
#45 = STYLED_ITEM ( 'NONE', ( #254 ), #264 ) ;
#46 = SURFACE_STYLE_USAGE ( .BOTH. , #94 ) ;
#47 = DIRECTION ( 'NONE',  ( 0.000000000000000000, 0.7071067811865462405, 0.7071067811865486830 ) ) ;
#48 = EDGE_CURVE ( 'NONE', #310, #163, #70, .T. ) ;
#49 = FILL_AREA_STYLE_COLOUR ( '', #32 ) ;
#50 = STYLED_ITEM ( 'NONE', ( #267 ), #323 ) ;
#51 = SURFACE_SIDE_STYLE ('',( #332 ) ) ;
#52 = ORIENTED_EDGE ( 'NONE', *, *, #63, .T. ) ;
#53 = SURFACE_STYLE_USAGE ( .BOTH. , #51 ) ;
#54 = CIRCLE ( 'NONE', #192, 0.1249999999999998335 ) ;
#55 =( NAMED_UNIT ( * ) PLANE_ANGLE_UNIT ( ) SI_UNIT ( $, .RADIAN. ) );
#56 = DIRECTION ( 'NONE',  ( -0.000000000000000000, -1.000000000000000000, -0.000000000000000000 ) ) ;
#57 = VERTEX_POINT ( 'NONE', #319 ) ;
#58 = FILL_AREA_STYLE ('',( #108 ) ) ;
#59 = EDGE_CURVE ( 'NONE', #202, #227, #208, .T. ) ;
#60 =( NAMED_UNIT ( * ) PLANE_ANGLE_UNIT ( ) SI_UNIT ( $, .RADIAN. ) );
#61 =( NAMED_UNIT ( * ) SI_UNIT ( $, .STERADIAN. ) SOLID_ANGLE_UNIT ( ) );
#62 =( NAMED_UNIT ( * ) PLANE_ANGLE_UNIT ( ) SI_UNIT ( $, .RADIAN. ) );
#63 = EDGE_CURVE ( 'NONE', #246, #222, #178, .T. ) ;
#64 =( GEOMETRIC_REPRESENTATION_CONTEXT ( 3 ) GLOBAL_UNCERTAINTY_ASSIGNED_CONTEXT ( ( #31 ) ) GLOBAL_UNIT_ASSIGNED_CONTEXT ( ( #90, #237, #152 ) ) REPRESENTATION_CONTEXT ( 'NONE', 'WORKASPACE' ) );
#65 = DIRECTION ( 'NONE',  ( -1.227993083434185205E-16, 1.000000000000000000, -0.000000000000000000 ) ) ;
#66 = PRESENTATION_LAYER_ASSIGNMENT (  '', '', ( #300 ) ) ;
#67 = DIRECTION ( 'NONE',  ( -1.000000000000000000, -1.227993083434185205E-16, 0.000000000000000000 ) ) ;
#68 = CARTESIAN_POINT ( 'NONE',  ( 0.000000000000000000, 0.7500000000000001110, 0.000000000000000000 ) ) ;
#69 = ADVANCED_FACE ( 'NONE', ( #19 ), #25, .T. ) ;
#70 = LINE ( 'NONE', #151, #345 ) ;
#71 = CARTESIAN_POINT ( 'NONE',  ( 0.000000000000000000, 0.000000000000000000, -0.1250000000000000000 ) ) ;
#72 = DIRECTION ( 'NONE',  ( 0.000000000000000000, 0.000000000000000000, 1.000000000000000000 ) ) ;
#73 = CONICAL_SURFACE ( 'NONE', #217, 39.37007874015762354, 0.7853981633974500554 ) ;
#74 = MECHANICAL_DESIGN_GEOMETRIC_PRESENTATION_REPRESENTATION (  '', ( #50 ), #6 ) ;
#75 = LENGTH_MEASURE_WITH_UNIT ( LENGTH_MEASURE( 0.02539999999999999897 ), #103 );
#76 = UNCERTAINTY_MEASURE_WITH_UNIT (LENGTH_MEASURE( 1.000000000000000082E-05 ), #203, 'distance_accuracy_value', 'NONE');
#77 = ORIENTED_EDGE ( 'NONE', *, *, #63, .F. ) ;
#78 = CYLINDRICAL_SURFACE ( 'NONE', #290, 0.1250000000000000000 ) ;
#79 = ORIENTED_EDGE ( 'NONE', *, *, #48, .T. ) ;
#80 = COLOUR_RGB ( '',1.000000000000000000, 0.000000000000000000, 0.000000000000000000 ) ;
#81 = CARTESIAN_POINT ( 'NONE',  ( 1.536664496436147691E-16, 0.7499999999999998890, 0.000000000000000000 ) ) ;
#82 = ORIENTED_EDGE ( 'NONE', *, *, #240, .T. ) ;
#83 = CYLINDRICAL_SURFACE ( 'NONE', #258, 0.1249999999999999306 ) ;
#84 = SURFACE_STYLE_USAGE ( .BOTH. , #249 ) ;
#85 =( NAMED_UNIT ( * ) SI_UNIT ( $, .STERADIAN. ) SOLID_ANGLE_UNIT ( ) );
#86 = VERTEX_POINT ( 'NONE', #268 ) ;
#87 = DIRECTION ( 'NONE',  ( 0.000000000000000000, 0.000000000000000000, -1.000000000000000000 ) ) ;
#88 = AXIS2_PLACEMENT_3D ( 'NONE', #214, #219, #326 ) ;
#89 = EDGE_LOOP ( 'NONE', ( #165, #170, #229, #302 ) ) ;
#90 =( CONVERSION_BASED_UNIT ( 'INCH', #206 ) LENGTH_UNIT ( ) NAMED_UNIT ( #284 ) );
#91 = FILL_AREA_STYLE ('',( #125 ) ) ;
#92 = APPLICATION_PROTOCOL_DEFINITION ( 'draft international standard', 'automotive_design', 1998, #2 ) ;
#93 = MECHANICAL_DESIGN_GEOMETRIC_PRESENTATION_REPRESENTATION (  '', ( #8 ), #299 ) ;
#94 = SURFACE_SIDE_STYLE ('',( #269 ) ) ;
#95 = CIRCLE ( 'NONE', #146, 0.1250000000000000000 ) ;
#96 = ADVANCED_FACE ( 'NONE', ( #261 ), #179, .T. ) ;
#97 = DIRECTION ( 'NONE',  ( 0.000000000000000000, -0.000000000000000000, 1.000000000000000000 ) ) ;
#98 = CARTESIAN_POINT ( 'NONE',  ( 0.000000000000000000, 0.000000000000000000, 0.000000000000000000 ) ) ;
#99 = CIRCLE ( 'NONE', #41, 0.1249999999999999861 ) ;
#100 = PRESENTATION_LAYER_ASSIGNMENT (  '', '', ( #50 ) ) ;
#101 = FACE_OUTER_BOUND ( 'NONE', #18, .T. ) ;
#102 = UNCERTAINTY_MEASURE_WITH_UNIT (LENGTH_MEASURE( 1.000000000000000082E-05 ), #241, 'distance_accuracy_value', 'NONE');
#103 =( LENGTH_UNIT ( ) NAMED_UNIT ( * ) SI_UNIT ( $, .METRE. ) );
#104 = CIRCLE ( 'NONE', #88, 0.1250000000000000555 ) ;
#105 = AXIS2_PLACEMENT_3D ( 'NONE', #341, #34, #39 ) ;
#106 = CARTESIAN_POINT ( 'NONE',  ( 0.000000000000000000, 0.7500000000000001110, -0.1249999999999999861 ) ) ;
#107 = VERTEX_POINT ( 'NONE', #106 ) ;
#108 = FILL_AREA_STYLE_COLOUR ( '', #273 ) ;
#109 = CARTESIAN_POINT ( 'NONE',  ( 0.000000000000000000, 0.7500000000000001110, 0.000000000000000000 ) ) ;
#110 = ORIENTED_EDGE ( 'NONE', *, *, #14, .T. ) ;
#111 = MECHANICAL_DESIGN_GEOMETRIC_PRESENTATION_REPRESENTATION (  '', ( #300 ), #200 ) ;
#112 = FILL_AREA_STYLE_COLOUR ( '', #161 ) ;
#113 = ORIENTED_EDGE ( 'NONE', *, *, #28, .T. ) ;
#114 = DIMENSIONAL_EXPONENTS ( 1.000000000000000000, 0.000000000000000000, 0.000000000000000000, 0.000000000000000000, 0.000000000000000000, 0.000000000000000000, 0.000000000000000000 ) ;
#115 = ORIENTED_EDGE ( 'NONE', *, *, #221, .F. ) ;
#116 = DIRECTION ( 'NONE',  ( -1.227993083434185205E-16, 1.000000000000000000, 0.000000000000000000 ) ) ;
#117 = ORIENTED_EDGE ( 'NONE', *, *, #120, .T. ) ;
#118 = DIRECTION ( 'NONE',  ( 1.000000000000000000, 0.000000000000000000, 0.000000000000000000 ) ) ;
#119 = SURFACE_SIDE_STYLE ('',( #149 ) ) ;
#120 = EDGE_CURVE ( 'NONE', #57, #227, #1, .T. ) ;
#121 = LENGTH_MEASURE_WITH_UNIT ( LENGTH_MEASURE( 0.02539999999999999897 ), #177 );
#122 = SURFACE_STYLE_USAGE ( .BOTH. , #119 ) ;
#123 = MECHANICAL_DESIGN_GEOMETRIC_PRESENTATION_REPRESENTATION (  '', ( #238 ), #324 ) ;
#124 = LENGTH_MEASURE_WITH_UNIT ( LENGTH_MEASURE( 0.02539999999999999897 ), #235 );
#125 = FILL_AREA_STYLE_COLOUR ( '', #199 ) ;
#126 =( GEOMETRIC_REPRESENTATION_CONTEXT ( 3 ) GLOBAL_UNCERTAINTY_ASSIGNED_CONTEXT ( ( #158 ) ) GLOBAL_UNIT_ASSIGNED_CONTEXT ( ( #167, #55, #140 ) ) REPRESENTATION_CONTEXT ( 'NONE', 'WORKASPACE' ) );
#127 = ADVANCED_FACE ( 'NONE', ( #243 ), #30, .T. ) ;
#128 = COLOUR_RGB ( '',0.7921568627450980005, 0.8196078431372548767, 0.9333333333333333481 ) ;
#129 = CARTESIAN_POINT ( 'NONE',  ( 0.000000000000000000, 0.000000000000000000, 0.000000000000000000 ) ) ;
#130 = UNCERTAINTY_MEASURE_WITH_UNIT (LENGTH_MEASURE( 1.000000000000000082E-05 ), #205, 'distance_accuracy_value', 'NONE');
#131 = EDGE_CURVE ( 'NONE', #222, #163, #104, .T. ) ;
#132 = ORIENTED_EDGE ( 'NONE', *, *, #176, .F. ) ;
#133 = CIRCLE ( 'NONE', #314, 0.1249999999999998335 ) ;
#134 = PLANE ( 'NONE',  #231 ) ;
#135 = DIMENSIONAL_EXPONENTS ( 1.000000000000000000, 0.000000000000000000, 0.000000000000000000, 0.000000000000000000, 0.000000000000000000, 0.000000000000000000, 0.000000000000000000 ) ;
#136 = DIRECTION ( 'NONE',  ( 1.227993083434185205E-16, -1.000000000000000000, 0.000000000000000000 ) ) ;
#137 = EDGE_LOOP ( 'NONE', ( #37, #190 ) ) ;
#138 = CARTESIAN_POINT ( 'NONE',  ( -6.123233995736766036E-17, 2.500000000000000000, 0.000000000000000000 ) ) ;
#139 = ORIENTED_EDGE ( 'NONE', *, *, #59, .F. ) ;
#140 =( NAMED_UNIT ( * ) SI_UNIT ( $, .STERADIAN. ) SOLID_ANGLE_UNIT ( ) );
#141 = CARTESIAN_POINT ( 'NONE',  ( 0.000000000000000000, 0.000000000000000000, 0.000000000000000000 ) ) ;
#142 = ORIENTED_EDGE ( 'NONE', *, *, #48, .F. ) ;
#143 = FACE_OUTER_BOUND ( 'NONE', #137, .T. ) ;
#144 = LENGTH_MEASURE_WITH_UNIT ( LENGTH_MEASURE( 0.02539999999999999897 ), #311 );
#145 = MECHANICAL_DESIGN_GEOMETRIC_PRESENTATION_REPRESENTATION (  '', ( #17 ), #126 ) ;
#146 = AXIS2_PLACEMENT_3D ( 'NONE', #274, #56, #250 ) ;
#147 = SHAPE_DEFINITION_REPRESENTATION ( #350, #234 ) ;
#148 = APPLICATION_PROTOCOL_DEFINITION ( 'draft international standard', 'automotive_design', 1998, #185 ) ;
#149 = SURFACE_STYLE_FILL_AREA ( #43 ) ;
#150 =( NAMED_UNIT ( * ) PLANE_ANGLE_UNIT ( ) SI_UNIT ( $, .RADIAN. ) );
#151 = CARTESIAN_POINT ( 'NONE',  ( 0.1249999999999998612, 2.500000000000000000, 1.530808498934190893E-17 ) ) ;
#152 =( NAMED_UNIT ( * ) SI_UNIT ( $, .STERADIAN. ) SOLID_ANGLE_UNIT ( ) );
#153 = ADVANCED_FACE ( 'NONE', ( #101 ), #38, .T. ) ;
#154 = CARTESIAN_POINT ( 'NONE',  ( -6.123233995736766036E-17, 2.500000000000000000, 0.000000000000000000 ) ) ;
#155 = FILL_AREA_STYLE ('',( #275 ) ) ;
#156 = DIRECTION ( 'NONE',  ( -1.000000000000000000, 0.000000000000000000, 0.000000000000000000 ) ) ;
#157 = EDGE_LOOP ( 'NONE', ( #288, #117, #194 ) ) ;
#158 = UNCERTAINTY_MEASURE_WITH_UNIT (LENGTH_MEASURE( 1.000000000000000082E-05 ), #167, 'distance_accuracy_value', 'NONE');
#159 = DIRECTION ( 'NONE',  ( -1.000000000000000000, 0.000000000000000000, 0.000000000000000000 ) ) ;
#160 = ORIENTED_EDGE ( 'NONE', *, *, #293, .T. ) ;
#161 = COLOUR_RGB ( '',1.000000000000000000, 0.000000000000000000, 0.000000000000000000 ) ;
#162 = AXIS2_PLACEMENT_3D ( 'NONE', #109, #281, #87 ) ;
#163 = VERTEX_POINT ( 'NONE', #184 ) ;
#164 = CARTESIAN_POINT ( 'NONE',  ( -0.1250000000000001110, 2.500000000000000000, 0.000000000000000000 ) ) ;
#165 = ORIENTED_EDGE ( 'NONE', *, *, #221, .T. ) ;
#166 = CARTESIAN_POINT ( 'NONE',  ( -0.1249999999999996808, 0.7499999999999998890, 0.000000000000000000 ) ) ;
#167 =( CONVERSION_BASED_UNIT ( 'INCH', #144 ) LENGTH_UNIT ( ) NAMED_UNIT ( #114 ) );
#168 = VECTOR ( 'NONE', #47, 39.37007874015748854 ) ;
#169 = DIRECTION ( 'NONE',  ( 0.000000000000000000, 0.000000000000000000, -1.000000000000000000 ) ) ;
#170 = ORIENTED_EDGE ( 'NONE', *, *, #59, .T. ) ;
#171 = PRODUCT_DEFINITION ( 'UNKNOWN', '', #278, #328 ) ;
#172 = CARTESIAN_POINT ( 'NONE',  ( 1.530808498934191509E-17, 0.1249999999999995559, 0.1250000000000000000 ) ) ;
#173 = DIRECTION ( 'NONE',  ( 0.000000000000000000, 1.000000000000000000, 0.000000000000000000 ) ) ;
#174 = CARTESIAN_POINT ( 'NONE',  ( 0.000000000000000000, 0.000000000000000000, 0.000000000000000000 ) ) ;
#175 = FILL_AREA_STYLE_COLOUR ( '', #80 ) ;
#176 = EDGE_CURVE ( 'NONE', #163, #222, #230, .T. ) ;
#177 =( LENGTH_UNIT ( ) NAMED_UNIT ( * ) SI_UNIT ( $, .METRE. ) );
#178 = LINE ( 'NONE', #291, #305 ) ;
#179 = CYLINDRICAL_SURFACE ( 'NONE', #22, 0.1250000000000000000 ) ;
#180 = DIRECTION ( 'NONE',  ( 8.659560562354947649E-17, 0.7071067811865462405, -0.7071067811865486830 ) ) ;
#181 = AXIS2_PLACEMENT_3D ( 'NONE', #325, #270, #72 ) ;
#182 = EDGE_CURVE ( 'NONE', #107, #86, #351, .T. ) ;
#183 = SURFACE_STYLE_FILL_AREA ( #155 ) ;
#184 = CARTESIAN_POINT ( 'NONE',  ( 0.1249999999999999861, 2.500000000000000000, 1.530808498934191509E-17 ) ) ;
#185 = APPLICATION_CONTEXT ( 'automotive_design' ) ;
#186 = DIMENSIONAL_EXPONENTS ( 1.000000000000000000, 0.000000000000000000, 0.000000000000000000, 0.000000000000000000, 0.000000000000000000, 0.000000000000000000, 0.000000000000000000 ) ;
#187 = DIRECTION ( 'NONE',  ( -0.000000000000000000, -1.000000000000000000, -0.000000000000000000 ) ) ;
#188 = VECTOR ( 'NONE', #180, 39.37007874015748854 ) ;
#189 =( NAMED_UNIT ( * ) PLANE_ANGLE_UNIT ( ) SI_UNIT ( $, .RADIAN. ) );
#190 = ORIENTED_EDGE ( 'NONE', *, *, #236, .F. ) ;
#191 = MECHANICAL_DESIGN_GEOMETRIC_PRESENTATION_REPRESENTATION (  '', ( #285 ), #64 ) ;
#192 = AXIS2_PLACEMENT_3D ( 'NONE', #81, #279, #201 ) ;
#193 = CARTESIAN_POINT ( 'NONE',  ( 0.1249999999999999861, 0.7499999999999998890, 1.530808498934191509E-17 ) ) ;
#194 = ORIENTED_EDGE ( 'NONE', *, *, #198, .T. ) ;
#195 = CARTESIAN_POINT ( 'NONE',  ( 1.536664496436147691E-16, 0.7499999999999998890, 0.000000000000000000 ) ) ;
#196 = ORIENTED_EDGE ( 'NONE', *, *, #236, .T. ) ;
#197 = MANIFOLD_SOLID_BREP ( 'Revolve - Cutting Edge', #276 ) ;
#198 = EDGE_CURVE ( 'NONE', #227, #86, #95, .T. ) ;
#199 = COLOUR_RGB ( '',1.000000000000000000, 0.000000000000000000, 0.000000000000000000 ) ;
#200 =( GEOMETRIC_REPRESENTATION_CONTEXT ( 3 ) GLOBAL_UNCERTAINTY_ASSIGNED_CONTEXT ( ( #304 ) ) GLOBAL_UNIT_ASSIGNED_CONTEXT ( ( #27, #60, #338 ) ) REPRESENTATION_CONTEXT ( 'NONE', 'WORKASPACE' ) );
#201 = DIRECTION ( 'NONE',  ( -1.000000000000000000, 0.000000000000000000, 0.000000000000000000 ) ) ;
#202 = VERTEX_POINT ( 'NONE', #9 ) ;
#203 =( CONVERSION_BASED_UNIT ( 'INCH', #124 ) LENGTH_UNIT ( ) NAMED_UNIT ( #186 ) );
#204 = CARTESIAN_POINT ( 'NONE',  ( 1.530808498934191509E-17, 0.000000000000000000, 0.1250000000000000000 ) ) ;
#205 =( CONVERSION_BASED_UNIT ( 'INCH', #121 ) LENGTH_UNIT ( ) NAMED_UNIT ( #297 ) );
#206 = LENGTH_MEASURE_WITH_UNIT ( LENGTH_MEASURE( 0.02539999999999999897 ), #322 );
#207 = PRODUCT_CONTEXT ( 'NONE', #185, 'mechanical' ) ;
#208 = LINE ( 'NONE', #204, #335 ) ;
#209 = AXIS2_PLACEMENT_3D ( 'NONE', #154, #216, #159 ) ;
#210 = DIRECTION ( 'NONE',  ( 0.000000000000000000, 0.000000000000000000, -1.000000000000000000 ) ) ;
#211 = DIMENSIONAL_EXPONENTS ( 1.000000000000000000, 0.000000000000000000, 0.000000000000000000, 0.000000000000000000, 0.000000000000000000, 0.000000000000000000, 0.000000000000000000 ) ;
#212 = DIRECTION ( 'NONE',  ( -1.227993083434185205E-16, 1.000000000000000000, -0.000000000000000000 ) ) ;
#213 = FILL_AREA_STYLE ('',( #260 ) ) ;
#214 = CARTESIAN_POINT ( 'NONE',  ( -6.123233995736766036E-17, 2.500000000000000000, 0.000000000000000000 ) ) ;
#215 = ORIENTED_EDGE ( 'NONE', *, *, #176, .T. ) ;
#216 = DIRECTION ( 'NONE',  ( -1.227993083434185205E-16, 1.000000000000000000, -0.000000000000000000 ) ) ;
#217 = AXIS2_PLACEMENT_3D ( 'NONE', #16, #173, #257 ) ;
#218 = EDGE_LOOP ( 'NONE', ( #11, #215 ) ) ;
#219 = DIRECTION ( 'NONE',  ( -1.227993083434185205E-16, 1.000000000000000000, -0.000000000000000000 ) ) ;
#220 = CARTESIAN_POINT ( 'NONE',  ( 0.1249999999999999861, 2.500000000000000000, 0.000000000000000000 ) ) ;
#221 = EDGE_CURVE ( 'NONE', #107, #202, #286, .T. ) ;
#222 = VERTEX_POINT ( 'NONE', #164 ) ;
#223 = LENGTH_MEASURE_WITH_UNIT ( LENGTH_MEASURE( 0.02539999999999999897 ), #312 );
#224 = PRESENTATION_STYLE_ASSIGNMENT (( #84 ) ) ;
#225 = ADVANCED_FACE ( 'NONE', ( #336 ), #83, .T. ) ;
#226 =( NAMED_UNIT ( * ) PLANE_ANGLE_UNIT ( ) SI_UNIT ( $, .RADIAN. ) );
#227 = VERTEX_POINT ( 'NONE', #172 ) ;
#228 = FACE_OUTER_BOUND ( 'NONE', #218, .T. ) ;
#229 = ORIENTED_EDGE ( 'NONE', *, *, #293, .F. ) ;
#230 = CIRCLE ( 'NONE', #253, 0.1250000000000000555 ) ;
#231 = AXIS2_PLACEMENT_3D ( 'NONE', #220, #136, #248 ) ;
#232 = CARTESIAN_POINT ( 'NONE',  ( 0.000000000000000000, 0.7500000000000001110, 0.000000000000000000 ) ) ;
#233 =( NAMED_UNIT ( * ) SI_UNIT ( $, .STERADIAN. ) SOLID_ANGLE_UNIT ( ) );
#234 = ADVANCED_BREP_SHAPE_REPRESENTATION ( '83754', ( #197, #323, #245 ), #23 ) ;
#235 =( LENGTH_UNIT ( ) NAMED_UNIT ( * ) SI_UNIT ( $, .METRE. ) );
#236 = EDGE_CURVE ( 'NONE', #310, #246, #133, .T. ) ;
#237 =( NAMED_UNIT ( * ) PLANE_ANGLE_UNIT ( ) SI_UNIT ( $, .RADIAN. ) );
#238 = STYLED_ITEM ( 'NONE', ( #4 ), #153 ) ;
#239 =( LENGTH_UNIT ( ) NAMED_UNIT ( * ) SI_UNIT ( $, .METRE. ) );
#240 = EDGE_CURVE ( 'NONE', #246, #310, #54, .T. ) ;
#241 =( CONVERSION_BASED_UNIT ( 'INCH', #75 ) LENGTH_UNIT ( ) NAMED_UNIT ( #327 ) );
#242 = UNCERTAINTY_MEASURE_WITH_UNIT (LENGTH_MEASURE( 1.000000000000000082E-05 ), #44, 'distance_accuracy_value', 'NONE');
#243 = FACE_OUTER_BOUND ( 'NONE', #313, .T. ) ;
#244 = SURFACE_SIDE_STYLE ('',( #183 ) ) ;
#245 = AXIS2_PLACEMENT_3D ( 'NONE', #174, #343, #118 ) ;
#246 = VERTEX_POINT ( 'NONE', #166 ) ;
#247 = SURFACE_SIDE_STYLE ('',( #7 ) ) ;
#248 = DIRECTION ( 'NONE',  ( 1.000000000000000000, 1.227993083434185205E-16, 0.000000000000000000 ) ) ;
#249 = SURFACE_SIDE_STYLE ('',( #340 ) ) ;
#250 = DIRECTION ( 'NONE',  ( 0.000000000000000000, 0.000000000000000000, -1.000000000000000000 ) ) ;
#251 = EDGE_LOOP ( 'NONE', ( #139, #110, #307, #13 ) ) ;
#252 = PRESENTATION_LAYER_ASSIGNMENT (  '', '', ( #8 ) ) ;
#253 = AXIS2_PLACEMENT_3D ( 'NONE', #301, #212, #156 ) ;
#254 = PRESENTATION_STYLE_ASSIGNMENT (( #283 ) ) ;
#255 = ORIENTED_EDGE ( 'NONE', *, *, #131, .F. ) ;
#256 = DIRECTION ( 'NONE',  ( -1.000000000000000000, 0.000000000000000000, 0.000000000000000000 ) ) ;
#257 = DIRECTION ( 'NONE',  ( 0.000000000000000000, 0.000000000000000000, 1.000000000000000000 ) ) ;
#258 = AXIS2_PLACEMENT_3D ( 'NONE', #138, #36, #12 ) ;
#259 =( NAMED_UNIT ( * ) SI_UNIT ( $, .STERADIAN. ) SOLID_ANGLE_UNIT ( ) );
#260 = FILL_AREA_STYLE_COLOUR ( '', #10 ) ;
#261 = FACE_OUTER_BOUND ( 'NONE', #89, .T. ) ;
#262 =( NAMED_UNIT ( * ) PLANE_ANGLE_UNIT ( ) SI_UNIT ( $, .RADIAN. ) );
#263 = DIRECTION ( 'NONE',  ( -0.000000000000000000, -1.000000000000000000, -0.000000000000000000 ) ) ;
#264 = ADVANCED_FACE ( 'NONE', ( #334 ), #78, .T. ) ;
#265 = PRESENTATION_LAYER_ASSIGNMENT (  '', '', ( #17 ) ) ;
#266 = CIRCLE ( 'NONE', #105, 0.1250000000000000000 ) ;
#267 = PRESENTATION_STYLE_ASSIGNMENT (( #318 ) ) ;
#268 = CARTESIAN_POINT ( 'NONE',  ( 0.000000000000000000, 0.1249999999999995559, -0.1250000000000000000 ) ) ;
#269 = SURFACE_STYLE_FILL_AREA ( #91 ) ;
#270 = DIRECTION ( 'NONE',  ( 0.000000000000000000, 1.000000000000000000, 0.000000000000000000 ) ) ;
#271 = DIMENSIONAL_EXPONENTS ( 1.000000000000000000, 0.000000000000000000, 0.000000000000000000, 0.000000000000000000, 0.000000000000000000, 0.000000000000000000, 0.000000000000000000 ) ;
#272 = CLOSED_SHELL ( 'NONE', ( #225, #330, #127, #303 ) ) ;
#273 = COLOUR_RGB ( '',1.000000000000000000, 0.000000000000000000, 0.000000000000000000 ) ;
#274 = CARTESIAN_POINT ( 'NONE',  ( 0.000000000000000000, 0.1249999999999995559, 0.000000000000000000 ) ) ;
#275 = FILL_AREA_STYLE_COLOUR ( '', #128 ) ;
#276 = CLOSED_SHELL ( 'NONE', ( #153, #96, #69, #264, #3 ) ) ;
#277 = CARTESIAN_POINT ( 'NONE',  ( 0.000000000000000000, 0.000000000000000000, 0.000000000000000000 ) ) ;
#278 = PRODUCT_DEFINITION_FORMATION_WITH_SPECIFIED_SOURCE ( 'ANY', '', #24, .NOT_KNOWN. ) ;
#279 = DIRECTION ( 'NONE',  ( -1.227993083434185205E-16, 1.000000000000000000, -0.000000000000000000 ) ) ;
#280 = LINE ( 'NONE', #98, #188 ) ;
#281 = DIRECTION ( 'NONE',  ( -0.000000000000000000, -1.000000000000000000, -0.000000000000000000 ) ) ;
#282 = DIRECTION ( 'NONE',  ( -0.000000000000000000, -1.000000000000000000, -0.000000000000000000 ) ) ;
#283 = SURFACE_STYLE_USAGE ( .BOTH. , #247 ) ;
#284 = DIMENSIONAL_EXPONENTS ( 1.000000000000000000, 0.000000000000000000, 0.000000000000000000, 0.000000000000000000, 0.000000000000000000, 0.000000000000000000, 0.000000000000000000 ) ;
#285 = STYLED_ITEM ( 'NONE', ( #295 ), #69 ) ;
#286 = CIRCLE ( 'NONE', #162, 0.1249999999999999861 ) ;
#287 = DIRECTION ( 'NONE',  ( -0.000000000000000000, -1.000000000000000000, -0.000000000000000000 ) ) ;
#288 = ORIENTED_EDGE ( 'NONE', *, *, #28, .F. ) ;
#289 = CARTESIAN_POINT ( 'NONE',  ( 1.536664496436148184E-16, 0.7500000000000001110, 0.000000000000000000 ) ) ;
#290 = AXIS2_PLACEMENT_3D ( 'NONE', #141, #287, #169 ) ;
#291 = CARTESIAN_POINT ( 'NONE',  ( -0.1250000000000000000, 2.500000000000000000, 0.000000000000000000 ) ) ;
#292 = LENGTH_MEASURE_WITH_UNIT ( LENGTH_MEASURE( 0.02539999999999999897 ), #317 );
#293 = EDGE_CURVE ( 'NONE', #86, #227, #266, .T. ) ;
#294 = MECHANICAL_DESIGN_GEOMETRIC_PRESENTATION_REPRESENTATION (  '', ( #45 ), #321 ) ;
#295 = PRESENTATION_STYLE_ASSIGNMENT (( #122 ) ) ;
#296 = DIRECTION ( 'NONE',  ( -0.000000000000000000, -1.000000000000000000, -0.000000000000000000 ) ) ;
#297 = DIMENSIONAL_EXPONENTS ( 1.000000000000000000, 0.000000000000000000, 0.000000000000000000, 0.000000000000000000, 0.000000000000000000, 0.000000000000000000, 0.000000000000000000 ) ;
#298 = PRESENTATION_STYLE_ASSIGNMENT (( #26 ) ) ;
#299 =( GEOMETRIC_REPRESENTATION_CONTEXT ( 3 ) GLOBAL_UNCERTAINTY_ASSIGNED_CONTEXT ( ( #242 ) ) GLOBAL_UNIT_ASSIGNED_CONTEXT ( ( #44, #62, #259 ) ) REPRESENTATION_CONTEXT ( 'NONE', 'WORKASPACE' ) );
#300 = STYLED_ITEM ( 'NONE', ( #298 ), #197 ) ;
#301 = CARTESIAN_POINT ( 'NONE',  ( -6.123233995736766036E-17, 2.500000000000000000, 0.000000000000000000 ) ) ;
#302 = ORIENTED_EDGE ( 'NONE', *, *, #182, .F. ) ;
#303 = ADVANCED_FACE ( 'NONE', ( #228 ), #134, .F. ) ;
#304 = UNCERTAINTY_MEASURE_WITH_UNIT (LENGTH_MEASURE( 1.000000000000000082E-05 ), #27, 'distance_accuracy_value', 'NONE');
#305 = VECTOR ( 'NONE', #21, 39.37007874015748143 ) ;
#306 =( CONVERSION_BASED_UNIT ( 'INCH', #223 ) LENGTH_UNIT ( ) NAMED_UNIT ( #211 ) );
#307 = ORIENTED_EDGE ( 'NONE', *, *, #182, .T. ) ;
#308 = PRODUCT_RELATED_PRODUCT_CATEGORY ( 'part', '', ( #24 ) ) ;
#309 = PLANE ( 'NONE',  #329 ) ;
#310 = VERTEX_POINT ( 'NONE', #193 ) ;
#311 =( LENGTH_UNIT ( ) NAMED_UNIT ( * ) SI_UNIT ( $, .METRE. ) );
#312 =( LENGTH_UNIT ( ) NAMED_UNIT ( * ) SI_UNIT ( $, .METRE. ) );
#313 = EDGE_LOOP ( 'NONE', ( #142, #196, #52, #132 ) ) ;
#314 = AXIS2_PLACEMENT_3D ( 'NONE', #195, #15, #256 ) ;
#315 = DIRECTION ( 'NONE',  ( 0.000000000000000000, 0.000000000000000000, -1.000000000000000000 ) ) ;
#316 = SURFACE_STYLE_FILL_AREA ( #213 ) ;
#317 =( LENGTH_UNIT ( ) NAMED_UNIT ( * ) SI_UNIT ( $, .METRE. ) );
#318 = SURFACE_STYLE_USAGE ( .BOTH. , #20 ) ;
#319 = CARTESIAN_POINT ( 'NONE',  ( 0.000000000000000000, 0.000000000000000000, 0.000000000000000000 ) ) ;
#320 = AXIS2_PLACEMENT_3D ( 'NONE', #68, #347, #97 ) ;
#321 =( GEOMETRIC_REPRESENTATION_CONTEXT ( 3 ) GLOBAL_UNCERTAINTY_ASSIGNED_CONTEXT ( ( #5 ) ) GLOBAL_UNIT_ASSIGNED_CONTEXT ( ( #306, #226, #85 ) ) REPRESENTATION_CONTEXT ( 'NONE', 'WORKASPACE' ) );
#322 =( LENGTH_UNIT ( ) NAMED_UNIT ( * ) SI_UNIT ( $, .METRE. ) );
#323 = MANIFOLD_SOLID_BREP ( 'Revolve - Tool Body (Straight Shanked)', #272 ) ;
#324 =( GEOMETRIC_REPRESENTATION_CONTEXT ( 3 ) GLOBAL_UNCERTAINTY_ASSIGNED_CONTEXT ( ( #102 ) ) GLOBAL_UNIT_ASSIGNED_CONTEXT ( ( #241, #189, #348 ) ) REPRESENTATION_CONTEXT ( 'NONE', 'WORKASPACE' ) );
#325 = CARTESIAN_POINT ( 'NONE',  ( 0.000000000000000000, 39.37007874015748143, 0.000000000000000000 ) ) ;
#326 = DIRECTION ( 'NONE',  ( -1.000000000000000000, 0.000000000000000000, 0.000000000000000000 ) ) ;
#327 = DIMENSIONAL_EXPONENTS ( 1.000000000000000000, 0.000000000000000000, 0.000000000000000000, 0.000000000000000000, 0.000000000000000000, 0.000000000000000000, 0.000000000000000000 ) ;
#328 = PRODUCT_DEFINITION_CONTEXT ( 'detailed design', #2, 'design' ) ;
#329 = AXIS2_PLACEMENT_3D ( 'NONE', #289, #116, #67 ) ;
#330 = ADVANCED_FACE ( 'NONE', ( #143 ), #309, .F. ) ;
#331 = FILL_AREA_STYLE ('',( #49 ) ) ;
#332 = SURFACE_STYLE_FILL_AREA ( #331 ) ;
#333 = ORIENTED_EDGE ( 'NONE', *, *, #120, .F. ) ;
#334 = FACE_OUTER_BOUND ( 'NONE', #251, .T. ) ;
#335 = VECTOR ( 'NONE', #263, 39.37007874015748143 ) ;
#336 = FACE_OUTER_BOUND ( 'NONE', #40, .T. ) ;
#337 = FILL_AREA_STYLE ('',( #112 ) ) ;
#338 =( NAMED_UNIT ( * ) SI_UNIT ( $, .STERADIAN. ) SOLID_ANGLE_UNIT ( ) );
#339 = ORIENTED_EDGE ( 'NONE', *, *, #14, .F. ) ;
#340 = SURFACE_STYLE_FILL_AREA ( #337 ) ;
#341 = CARTESIAN_POINT ( 'NONE',  ( 0.000000000000000000, 0.1249999999999995559, 0.000000000000000000 ) ) ;
#342 = FACE_OUTER_BOUND ( 'NONE', #157, .T. ) ;
#343 = DIRECTION ( 'NONE',  ( 0.000000000000000000, 0.000000000000000000, 1.000000000000000000 ) ) ;
#344 = PRESENTATION_STYLE_ASSIGNMENT (( #46 ) ) ;
#345 = VECTOR ( 'NONE', #65, 39.37007874015748143 ) ;
#346 = PRESENTATION_LAYER_ASSIGNMENT (  '', '', ( #238 ) ) ;
#347 = DIRECTION ( 'NONE',  ( 0.000000000000000000, 1.000000000000000000, 0.000000000000000000 ) ) ;
#348 =( NAMED_UNIT ( * ) SI_UNIT ( $, .STERADIAN. ) SOLID_ANGLE_UNIT ( ) );
#349 = PRESENTATION_LAYER_ASSIGNMENT (  '', '', ( #285 ) ) ;
#350 = PRODUCT_DEFINITION_SHAPE ( 'NONE', 'NONE',  #171 ) ;
#351 = LINE ( 'NONE', #71, #33 ) ;
ENDSEC;
END-ISO-10303-21;
